  0
SECTION
  2
HEADER
  9
$ACADVER
  1
AC1009
  9
$INSBASE
 10
4911.1182459828587525
 20
254.3685574178522018
 30
0.0
  9
$EXTMIN
 10
4904.3355514291561121
 20
254.3663635349934111
 30
-0.0000000000112498
  9
$EXTMAX
 10
4912.5808979968032872
 20
262.4350662392927802
 30
0.0000000000002956
  9
$LIMMIN
 10
0.0
 20
0.0
  9
$LIMMAX
 10
11.6929133858000007
 20
8.2677165353999982
  9
$ORTHOMODE
 70
     0
  9
$REGENMODE
 70
     1
  9
$FILLMODE
 70
     1
  9
$QTEXTMODE
 70
     0
  9
$MIRRTEXT
 70
     0
  9
$DRAGMODE
 70
     2
  9
$LTSCALE
 40
0.6431102362
  9
$OSMODE
 70
  4095
  9
$ATTMODE
 70
     1
  9
$TEXTSIZE
 40
0.2
  9
$TRACEWID
 40
0.05
  9
$TEXTSTYLE
  7
STANDARD
  9
$CLAYER
  8
0
  9
$CELTYPE
  6
BYLAYER
  9
$CECOLOR
 62
   256
  9
$DIMSCALE
 40
1.0
  9
$DIMASZ
 40
0.1875
  9
$DIMEXO
 40
0.0625
  9
$DIMDLI
 40
0.4443307087
  9
$DIMRND
 40
0.0
  9
$DIMDLE
 40
0.0
  9
$DIMEXE
 40
0.125
  9
$DIMTP
 40
0.01
  9
$DIMTM
 40
0.01
  9
$DIMTXT
 40
2.0
  9
$DIMCEN
 40
0.1052362205
  9
$DIMTSZ
 40
0.0
  9
$DIMTOL
 70
     1
  9
$DIMLIM
 70
     0
  9
$DIMTIH
 70
     1
  9
$DIMTOH
 70
     1
  9
$DIMSE1
 70
     0
  9
$DIMSE2
 70
     0
  9
$DIMTAD
 70
     0
  9
$DIMZIN
 70
     0
  9
$DIMBLK
  1

  9
$DIMASO
 70
     1
  9
$DIMSHO
 70
     1
  9
$DIMPOST
  1
\X
  9
$DIMAPOST
  1

  9
$DIMALT
 70
     1
  9
$DIMALTD
 70
     2
  9
$DIMALTF
 40
25.3999999999999986
  9
$DIMLFAC
 40
1.0
  9
$DIMTOFL
 70
     0
  9
$DIMTVP
 40
0.0
  9
$DIMTIX
 70
     0
  9
$DIMSOXD
 70
     0
  9
$DIMSAH
 70
     0
  9
$DIMBLK1
  1

  9
$DIMBLK2
  1

  9
$DIMSTYLE
  2
STANDARD
  9
$DIMCLRD
 70
     0
  9
$DIMCLRE
 70
     0
  9
$DIMCLRT
 70
     0
  9
$DIMTFAC
 40
1.0
  9
$DIMGAP
 40
0.09
  9
$LUNITS
 70
     2
  9
$LUPREC
 70
     4
  9
$SKETCHINC
 40
0.1
  9
$FILLETRAD
 40
0.0
  9
$AUNITS
 70
     0
  9
$AUPREC
 70
     0
  9
$MENU
  1
.
  9
$ELEVATION
 40
0.0
  9
$PELEVATION
 40
0.0
  9
$THICKNESS
 40
0.0
  9
$LIMCHECK
 70
     0
  9
$BLIPMODE
 70
     0
  9
$CHAMFERA
 40
0.0
  9
$CHAMFERB
 40
0.0
  9
$SKPOLY
 70
     0
  9
$TDCREATE
 40
2458060.468368056230247
  9
$TDUPDATE
 40
2460241.8366087968461215
  9
$TDINDWG
 40
0.3932362269
  9
$TDUSRTIMER
 40
0.3932362269
  9
$USRTIMER
 70
     1
  9
$ANGBASE
 50
0.0
  9
$ANGDIR
 70
     0
  9
$PDMODE
 70
     0
  9
$PDSIZE
 40
0.3125
  9
$PLINEWID
 40
0.0
  9
$COORDS
 70
     1
  9
$SPLFRAME
 70
     0
  9
$SPLINETYPE
 70
     6
  9
$SPLINESEGS
 70
     8
  9
$ATTDIA
 70
     1
  9
$ATTREQ
 70
     1
  9
$HANDLING
 70
     1
  9
$HANDSEED
  5
E8A0
  9
$SURFTAB1
 70
     6
  9
$SURFTAB2
 70
     6
  9
$SURFTYPE
 70
     6
  9
$SURFU
 70
     6
  9
$SURFV
 70
     6
  9
$UCSNAME
  2

  9
$UCSORG
 10
0.0
 20
0.0
 30
0.0
  9
$UCSXDIR
 10
1.0
 20
0.0
 30
0.0
  9
$UCSYDIR
 10
0.0
 20
1.0
 30
0.0
  9
$PUCSNAME
  2

  9
$PUCSORG
 10
0.0
 20
0.0
 30
0.0
  9
$PUCSXDIR
 10
1.0
 20
0.0
 30
0.0
  9
$PUCSYDIR
 10
0.0
 20
1.0
 30
0.0
  9
$USERI1
 70
     0
  9
$USERI2
 70
     0
  9
$USERI3
 70
     0
  9
$USERI4
 70
     0
  9
$USERI5
 70
     0
  9
$USERR1
 40
0.0
  9
$USERR2
 40
0.0
  9
$USERR3
 40
0.0
  9
$USERR4
 40
0.0
  9
$USERR5
 40
0.0
  9
$WORLDVIEW
 70
     1
  9
$SHADEDGE
 70
     3
  9
$SHADEDIF
 70
    70
  9
$TILEMODE
 70
     1
  9
$MAXACTVP
 70
    64
  9
$PLIMCHECK
 70
     0
  9
$PEXTMIN
 10
1.0000000000000000E+20
 20
1.0000000000000000E+20
 30
1.0000000000000000E+20
  9
$PEXTMAX
 10
-1.0000000000000000E+20
 20
-1.0000000000000000E+20
 30
-1.0000000000000000E+20
  9
$PLIMMIN
 10
0.0
 20
0.0
  9
$PLIMMAX
 10
12.0
 20
9.0
  9
$UNITMODE
 70
     0
  9
$VISRETAIN
 70
     1
  9
$PLINEGEN
 70
     0
  9
$PSLTSCALE
 70
     1
  0
ENDSEC
  0
SECTION
  2
TABLES
  0
TABLE
  2
VPORT
 70
     1
  0
VPORT
  2
*ACTIVE
 70
     0
 10
0.0
 20
0.0
 11
1.0
 21
1.0
 12
41.9836153379792378
 22
10.2398567328462509
 13
0.0
 23
0.0
 14
1.0
 24
1.0
 15
0.0
 25
0.0
 16
0.0
 26
0.0
 36
123.4984480106661948
 17
4866.474609375
 27
248.1608581542969034
 37
0.0
 40
8.1323192827827313
 41
2.498684210526315
 42
50.0
 43
0.0
 44
0.0
 50
0.0
 51
0.0
 71
     0
 72
   100
 73
     1
 74
     1
 75
     0
 76
     0
 77
     0
 78
     0
  0
ENDTAB
  0
TABLE
  2
LTYPE
 70
     2
  0
LTYPE
  2
CONTINUOUS
 70
     0
  3
Solid line
 72
    65
 73
     0
 40
0.0
  0
LTYPE
  2
PHANTOM2
 70
     0
  3
___ _ _ ___ _ _ ___ _ _ ___ _ _
 72
    65
 73
     6
 40
1.25
 49
0.625
 49
-0.125
 49
0.125
 49
-0.125
 49
0.125
 49
-0.125
  0
ENDTAB
  0
TABLE
  2
LAYER
 70
     2
  0
LAYER
  2
0
 70
     0
 62
   255
  6
CONTINUOUS
  0
LAYER
  2
DEFPOINTS
 70
     0
 62
     7
  6
CONTINUOUS
  0
ENDTAB
  0
TABLE
  2
STYLE
 70
     1
  0
STYLE
  2
STANDARD
 70
     0
 40
0.0
 41
0.8
 50
0.0
 71
     0
 42
0.2
  3
txt
  4

  0
ENDTAB
  0
TABLE
  2
VIEW
 70
     0
  0
ENDTAB
  0
TABLE
  2
UCS
 70
     0
  0
ENDTAB
  0
TABLE
  2
APPID
 70
     9
  0
APPID
  2
ACAD
 70
     0
  0
APPID
  2
ACAD_MLEADERVER
 70
     0
  0
APPID
  2
ACAD_EXEMPT_FROM_CAD_STANDARDS
 70
     0
  0
APPID
  2
ACAD_NAV_VCDISPLAY
 70
     0
  0
APPID
  2
ACAECLAYERSTANDARD
 70
     0
  0
APPID
  2
ACCMTRANSPARENCY
 70
     0
  0
APPID
  2
ACAD_DSTYLE_DIMJAG
 70
     0
  0
APPID
  2
ACAD_DSTYLE_DIMTALN
 70
     0
  0
APPID
  2
ACDBATTR
 70
     0
  0
ENDTAB
  0
TABLE
  2
DIMSTYLE
 70
     1
  0
DIMSTYLE
  2
STANDARD
 70
     0
  3

  4

  5

  6

  7

 40
1.0
 41
0.1875
 42
0.0625
 43
0.38
 44
0.125
 45
0.0
 46
0.0
 47
0.01
 48
0.01
140
0.15625
141
0.09
142
0.0
143
25.3999999999999986
144
1.0
145
0.0
146
1.0
147
0.09
 71
     1
 72
     0
 73
     1
 74
     1
 75
     0
 76
     0
 77
     0
 78
     4
170
     0
171
     2
172
     0
173
     0
174
     0
175
     0
176
     0
177
     0
178
     0
  0
ENDTAB
  0
ENDSEC
  0
SECTION
  2
BLOCKS
  0
BLOCK
  8
0
  2
$MODEL_SPACE
 70
     0
 10
0.0
 20
0.0
 30
0.0
  3
$MODEL_SPACE
  1

  0
ENDBLK
  5
21
  8
0
  0
BLOCK
 67
     1
  8
0
  2
$PAPER_SPACE
 70
     0
 10
0.0
 20
0.0
 30
0.0
  3
$PAPER_SPACE
  1

  0
ENDBLK
  5
1D
 67
     1
  8
0
  0
ENDSEC
  0
SECTION
  2
ENTITIES
  0
ATTDEF
  5
3930
  8
DEFPOINTS
 10
4911.1145935103713782
 20
254.3728232123887096
 30
0.0
 40
0.001
  1
K-30735T-4
  3

  2
MODELNUMBER
 70
     0
1001
ACDBATTR
1070
     0
1070
     1
  0
ATTDEF
  5
3931
  8
DEFPOINTS
 10
4911.1145935103713782
 20
254.3711565457221013
 30
0.0
 40
0.001
  1
PARALLEL
  3

  2
TRADENAME
 70
     0
1001
ACDBATTR
1070
     0
1070
     1
  0
ATTDEF
  5
3932
  8
DEFPOINTS
 10
4911.1145935103713782
 20
254.3694898790554078
 30
0.0
 40
0.001
  1
BATHROOM SINK FAUCET
  3

  2
PRODUCT
 70
     0
1001
ACDBATTR
1070
     0
1070
     1
  0
LINE
  5
E6AF
  8
0
 10
4904.5955699534588348
 20
262.3932468152523256
 30
0.0
 11
4909.3341218495679641
 21
262.3932468152523256
 31
0.0
  0
LINE
  5
E6B0
  8
0
 10
4904.8756950343313292
 20
262.418080827036988
 30
0.0
 11
4905.1267968371867028
 21
262.418080827036988
 31
0.0
  0
LINE
  5
E6B1
  8
0
 10
4904.8155455603400696
 20
262.3944940587915085
 30
0.0
 11
4905.1869463111761434
 21
262.3944940587915085
 31
0.0
  0
LINE
  5
E6B2
  8
0
 10
4904.5561699534582658
 20
261.8234199743022828
 30
0.0
 11
4909.3527088162209111
 21
261.8234199743022828
 31
0.0
  0
LINE
  5
E6B3
  8
0
 10
4910.7875247230576861
 20
259.018163717052289
 30
0.0
 11
4911.7639278726592238
 21
259.018163717052289
 31
0.0
  0
LINE
  5
E6B4
  8
0
 10
4904.5561699534582658
 20
262.3538468152523251
 30
0.0
 11
4904.5561699534582658
 21
261.8205076771096742
 31
0.0
  0
ARC
  5
E6B5
  8
0
 10
4904.5955699534588348
 20
262.3538468152523251
 30
0.0
 40
0.0394
 50
90.0
 51
179.9999999999967031
  0
ARC
  5
E6B6
  8
0
 10
4904.8162842578331038
 20
262.3835843415221802
 30
0.0
 40
0.0109346972926048
 50
93.8735875842187966
 51
117.9138364247932032
  0
ARC
  5
E6B7
  8
0
 10
4904.8237522677291054
 20
262.462855671475495
 30
0.0
 40
0.0683690178419118
 50
270.8432940622008118
 51
283.5966851564858189
  0
ARC
  5
E6B8
  8
0
 10
4904.8316741257958711
 20
262.4301023438349034
 30
0.0
 40
0.034671298234192
 50
283.5966851564858189
 51
304.9700627220968272
  0
ARC
  5
E6B9
  8
0
 10
4904.8213797275648176
 20
262.444820629994922
 30
0.0
 40
0.0526324391342575
 50
304.9700627220968272
 51
320.4418892465657791
  0
ARC
  5
E6BA
  8
0
 10
4904.8763787502266496
 20
262.3993891695640173
 30
0.0
 40
0.0187041580007154
 50
92.0948692099684365
 51
140.4418892465645001
  0
ARC
  5
E6BB
  8
0
 10
4905.1862076136840187
 20
262.3835843415221802
 30
0.0
 40
0.0109346972926048
 50
62.0861635752067471
 51
86.1264124157812034
  0
ARC
  5
E6BC
  8
0
 10
4905.1787396037880171
 20
262.462855671475495
 30
0.0
 40
0.0683690178419118
 50
256.4033148435141243
 51
269.1567059377991882
  0
ARC
  5
E6BD
  8
0
 10
4905.1708177457212514
 20
262.4301023438349034
 30
0.0
 40
0.034671298234192
 50
235.0299372779032865
 51
256.4033148435141243
  0
ARC
  5
E6BE
  8
0
 10
4905.1811121439532144
 20
262.444820629994922
 30
0.0
 40
0.0526324391342575
 50
219.5581107534341925
 51
235.0299372779032865
  0
ARC
  5
E6BF
  8
0
 10
4905.1261131212886539
 20
262.3993891695640173
 30
0.0
 40
0.0187041580007154
 50
39.5581107534354572
 51
87.9051307900316061
  0
ARC
  5
E6C0
  8
0
 10
4904.596978731316085
 20
261.8241633836308893
 30
0.0
 40
0.0409721922812566
 50
185.1189710689779133
 51
220.5577123565491036
  0
ARC
  5
E6C1
  8
0
 10
4904.5928118585434277
 20
261.8205972730152098
 30
0.0
 40
0.0354876710051986
 50
220.5577123565491036
 51
235.3906753772108118
  0
ARC
  5
E6C2
  8
0
 10
4904.0925723060308883
 20
261.095711182071625
 30
0.0
 40
0.8452503460806374
 50
50.4036178165226474
 51
55.3906753772108189
  0
ARC
  5
E6C3
  8
0
 10
4904.976043773697711
 20
262.1637820410235236
 30
0.0
 40
0.540858305477387
 50
230.4036178165225976
 51
237.993409735992401
  0
ARC
  5
E6C4
  8
0
 10
4904.6153238713650353
 20
261.5866572499680274
 30
0.0
 40
0.1397237045620993
 50
36.538318841019148
 51
57.993409735992401
  0
ARC
  5
E6C5
  8
0
 10
4904.6381366079804138
 20
261.6035614095147253
 30
0.0
 40
0.1113305440867374
 50
357.2507086029046945
 51
36.538318841019148
  0
ARC
  5
E6C6
  8
0
 10
4904.3480824076914359
 20
261.6174901163357163
 30
0.0
 40
0.401718987347053
 50
346.4564257770736049
 51
357.2507086029046945
  0
LINE
  5
E6C7
  8
0
 10
4904.7470482251055728
 20
261.5092523344458755
 30
0.0
 11
4905.8843545183099195
 21
261.2045243090871054
 31
0.0
  0
ARC
  5
E6C8
  8
0
 10
4904.7501023007307595
 20
261.5206502562775768
 30
0.0
 40
0.0118
 50
166.4564257770989002
 51
254.9999452473331019
  0
ARC
  5
E6C9
  8
0
 10
4907.9925046693379045
 20
260.4200996212740051
 30
0.0
 40
2.2387028577416408
 50
154.6484569191289893
 51
159.2911146872220058
  0
ARC
  5
E6CA
  8
0
 10
4906.789116998762438
 20
260.990224946483977
 30
0.0
 40
0.9070930165483103
 50
145.1033902039472139
 51
154.6462627571902999
  0
ARC
  5
E6CB
  8
0
 10
4906.2815167438520803
 20
261.3443050992020176
 30
0.0
 40
0.288198217208465
 50
130.2652913330746003
 51
145.1063187078385113
  0
ARC
  5
E6CC
  8
0
 10
4906.2069293953882152
 20
261.4323635664313201
 30
0.0
 40
0.1727964572490659
 50
107.4535026165068956
 51
130.2652913330746003
  0
ARC
  5
E6CD
  8
0
 10
4906.2069307987740103
 20
261.4323591028318106
 30
0.0
 40
0.1728011362674259
 50
96.1346840223694556
 51
107.4535026165068956
  0
ARC
  5
E6CE
  8
0
 10
4905.8874085939341967
 20
261.2159222309188067
 30
0.0
 40
0.0118
 50
254.9999452473851136
 51
339.2911146872281165
  0
ARC
  5
E6CF
  8
0
 10
4904.9993600117677488
 20
262.185785262807201
 30
0.0
 40
0.5720379964854548
 50
237.8539070176950077
 51
244.9759338637223038
  0
ARC
  5
E6D0
  8
0
 10
4904.8375067827737439
 20
261.8390701854733038
 30
0.0
 40
0.1894052579661313
 50
244.9759338637223038
 51
269.1212929023296283
  0
ARC
  5
E6D1
  8
0
 10
4904.8566742430648446
 20
263.0887795358203221
 30
0.0
 40
1.439261590461441
 50
269.1212929023296283
 51
273.4903794832987955
  0
ARC
  5
E6D2
  8
0
 10
4904.8590417669820454
 20
262.3579720739905952
 30
0.0
 40
0.7109150059779946
 50
276.8877413120189885
 51
284.0403595852325793
  0
ARC
  5
E6D3
  8
0
 10
4905.4558585361291989
 20
259.7387408696234843
 30
0.0
 40
1.975664482515106
 50
96.760375889935645
 51
102.4029707906458952
  0
ARC
  5
E6D4
  8
0
 10
4905.4354278474784223
 20
259.8971270050964222
 30
0.0
 40
1.8159752811034089
 50
91.0349603685799025
 51
96.7085105223244739
  0
ARC
  5
E6D5
  8
0
 10
4905.4284683495252466
 20
260.1923052970743129
 30
0.0
 40
1.520720308726681
 50
76.5388945984633011
 51
90.9736712513584536
  0
ARC
  5
E6D6
  8
0
 10
4906.7653029165912812
 20
265.9498440537681176
 30
0.0
 40
4.3900273524305709
 50
257.0630531965442174
 51
259.3343538390997765
  0
ARC
  5
E6D7
  8
0
 10
4905.3449859130951154
 20
256.1892129983172026
 30
0.0
 40
5.4802575122419572
 50
81.1462888830028817
 51
83.6321537001938253
  0
LINE
  5
E6D8
  8
0
 10
4906.1884642369186622
 20
261.6041706821523007
 30
0.0
 11
4909.3575479869814444
 21
261.6041706821523007
 31
0.0
  0
ARC
  5
E6D9
  8
0
 10
4909.3356157442076437
 20
260.582449053508924
 30
0.0
 40
1.021956999932415
 50
71.5757800026184725
 51
88.7702795439853105
  0
ARC
  5
E6DA
  8
0
 10
4909.3709328801551237
 20
260.688466631035908
 30
0.0
 40
0.9102116338708999
 50
25.2792090041561188
 51
71.5757800026184725
  0
ARC
  5
E6DB
  8
0
 10
4908.6506247895813431
 20
260.3482982842205047
 30
0.0
 40
1.706803279270793
 50
10.9970262076943701
 51
25.2792090041561188
  0
ARC
  5
E6DC
  8
0
 10
4902.3987480134019279
 20
259.1333932885586933
 30
0.0
 40
8.0756302806124847
 50
359.182430108154108
 51
10.9970262076943701
  0
ARC
  5
E6DD
  8
0
 10
4871.6401931121818052
 20
257.9386393863929925
 30
0.0
 40
38.8483649365435113
 50
0.1985787319925366
 51
1.5923488950558471
  0
ARC
  5
E6DE
  8
0
 10
4909.3438020823987245
 20
260.6216614376439793
 30
0.0
 40
1.201791541964869
 50
73.7369668737517401
 51
89.5753648521822328
  0
ARC
  5
E6DF
  8
0
 10
4909.3594665830896702
 20
260.6753584355457747
 30
0.0
 40
1.1458563637173489
 50
24.6640798842923985
 51
73.7369668737517401
  0
ARC
  5
E6E0
  8
0
 10
4909.2769426626464337
 20
260.6374643361452854
 30
0.0
 40
1.236664734559034
 50
357.5815087397173784
 51
24.6640798842923985
  0
ARC
  5
E6E1
  8
0
 10
4765.6749995027830664
 20
258.5684628229735154
 30
0.0
 40
144.8515474389662927
 50
0.1171950735979283
 51
0.797774105103945
  0
LINE
  5
E6E2
  8
0
 10
4910.4883247230582128
 20
258.7189637170521905
 30
0.0
 11
4910.4883247230582128
 21
255.3115738690522107
 31
0.0
  0
ARC
  5
E6E3
  8
0
 10
4910.7875247230576861
 20
258.7189637170521905
 30
0.0
 40
0.2992
 50
90.0
 51
180.0
  0
LINE
  5
E6E4
  8
0
 10
4912.063127872658697
 20
258.7189637170521905
 30
0.0
 11
4912.063127872658697
 21
256.5219777235736842
 31
0.0
  0
ARC
  5
E6E5
  8
0
 10
4911.7639278726592238
 20
258.7189637170521905
 30
0.0
 40
0.2992
 50
0.0
 51
90.0
  0
ARC
  5
E6E6
  8
0
 10
4911.2757262978593644
 20
256.7740692288522837
 30
0.0
 40
0.8267716535000001
 50
197.752790153286611
 51
342.2472098467133037
  0
LINE
  5
E6E7
  8
0
 10
4910.0749388962576631
 20
254.3685574178522018
 30
0.0
 11
4912.1615530694580229
 21
254.3685574178522018
 31
0.0
  0
LINE
  5
E6E8
  8
0
 10
4910.0749388962576631
 20
254.3685574178522018
 30
0.0
 11
4910.0749388962576631
 21
254.4155619567935105
 31
0.0
  0
LINE
  5
E6E9
  8
0
 10
4912.1615530694580229
 20
254.3685574178522018
 30
0.0
 11
4912.1615530694580229
 21
254.4155560302482115
 31
0.0
  0
LINE
  5
E6EA
  8
0
 10
4911.7481672426592922
 20
255.3115738690522107
 30
0.0
 11
4911.7481672426592922
 21
256.0556327095522988
 31
0.0
  0
ARC
  5
E6EB
  8
0
 10
4911.8277242999811278
 20
256.0556327095522988
 30
0.0
 40
0.079557057322555
 50
132.4419225879618125
 51
180.0
  0
ARC
  5
E6EC
  8
0
 10
4909.2984491797305964
 20
260.0793466901857869
 30
0.0
 40
2.314175085890366
 50
80.6372446349324861
 51
89.1167589734004935
  0
ARC
  5
E6ED
  8
0
 10
4909.3501594004592334
 20
260.6642907500132083
 30
0.0
 40
1.7291745881775551
 50
40.0217124690011019
 51
79.1745157395620964
  0
ARC
  5
E6EE
  8
0
 10
4909.0360345993267401
 20
260.4703436565234824
 30
0.0
 40
2.0951374122064199
 50
21.9871403916390697
 51
38.5589835736268896
  0
ARC
  5
E6EF
  8
0
 10
4909.0531128619204537
 20
260.4772392641169176
 30
0.0
 40
2.0767195823311408
 50
8.6482624952416884
 51
21.9871403916390697
  0
ARC
  5
E6F0
  8
0
 10
4887.3190169465233339
 20
257.551590691368915
 30
0.0
 40
24.0065652636078717
 50
3.502408534787421
 51
7.75147751641983
  0
ARC
  5
E6F1
  8
0
 10
4909.3632336100517932
 20
260.666633016054277
 30
0.0
 40
1.7168745749285961
 50
4.7638617718236711
 51
22.6274042065717502
  0
ARC
  5
E6F2
  8
0
 10
4840.7610966751317392
 20
259.2885945364758982
 30
0.0
 40
70.329521401848794
 50
359.7796859346444762
 51
1.238912332069138
  0
LINE
  5
E6F4
  8
0
 10
4909.850679986866453
 20
255.3173763154522931
 30
0.0
 11
4912.3858254791521176
 21
255.3173763154522931
 31
0.0
  0
LINE
  5
E6F5
  8
0
 10
4909.8490854375986601
 20
255.2189511186523134
 30
0.0
 11
4912.387420028417182
 21
255.2189511186523134
 31
0.0
  0
LINE
  5
E6F6
  8
0
 10
4910.2404723883191764
 20
254.3839855384522082
 30
0.0
 11
4911.9960330776975752
 21
254.3839855384522082
 31
0.0
  0
LINE
  5
E6F7
  8
0
 10
4910.2485661636083023
 20
254.368557417852287
 30
0.0
 11
4911.9879393024093588
 21
254.368557417852287
 31
0.0
  0
LINE
  5
E6F8
  8
0
 10
4912.3933331227262897
 20
255.2250558330896979
 30
0.0
 11
4912.3918245653221675
 21
255.3114810298897055
 31
0.0
  0
ARC
  5
E6F9
  8
0
 10
4912.3873340365553304
 20
255.2249511186523137
 30
0.0
 40
0.006
 50
270.0
 51
0.9999999888242697
  0
ARC
  5
E6FA
  8
0
 10
4912.3858254791521176
 20
255.3113763154522928
 30
0.0
 40
0.006
 50
0.9999999888161287
 51
90.0
  0
ARC
  5
E6FB
  8
0
 10
4897.276771793505759
 20
256.0063251109784801
 30
0.0
 40
15.1374616733129201
 50
355.625589816067702
 51
356.9944850054300787
  0
ARC
  5
E6FC
  8
0
 10
4912.387420028417182
 20
255.2129511186523132
 30
0.0
 40
0.006
 50
356.9944850054382073
 51
90.0
  0
ARC
  5
E6FD
  8
0
 10
4910.8977434476137205
 20
254.9783424726848011
 30
0.0
 40
1.4778266742920061
 50
348.9440340436692054
 51
355.0853562811607276
  0
ARC
  5
E6FE
  8
0
 10
4911.8686886861341918
 20
254.7731144484976937
 30
0.0
 40
0.4857843205467731
 50
327.3875124619991084
 51
350.7398124490092073
  0
ARC
  5
E6FF
  8
0
 10
4912.0561963677509993
 20
254.6616364564627872
 30
0.0
 40
0.2678541084193749
 50
301.610045678072197
 51
325.8565547564812732
  0
ARC
  5
E700
  8
0
 10
4912.0300410145100614
 20
254.7151506166372883
 30
0.0
 40
0.3271885340142453
 50
280.0959718193257117
 51
300.5989041889318969
  0
ARC
  5
E701
  8
0
 10
4911.9947882642063632
 20
254.8792438536858072
 30
0.0
 40
0.4949562551485335
 50
274.1988027939685821
 51
280.783800280609114
  0
ARC
  5
E702
  8
0
 10
4911.9851045280483959
 20
254.9948826812442064
 30
0.0
 40
0.6109948872689017
 50
271.0248746372442952
 51
274.3104860868634773
  0
LINE
  5
E703
  8
0
 10
4911.9939393024087622
 20
254.3839855384522082
 30
0.0
 11
4911.9939393024087622
 21
254.374557417852202
 31
0.0
  0
ARC
  5
E704
  8
0
 10
4911.9879393024093588
 20
254.374557417852202
 30
0.0
 40
0.006
 50
270.0
 51
0.0000000000081422
  0
LINE
  5
E705
  8
0
 10
4909.8431723432895524
 20
255.2250558330896979
 30
0.0
 11
4909.8446809006936746
 21
255.3114810298897055
 31
0.0
  0
ARC
  5
E706
  8
0
 10
4909.8491714294623307
 20
255.2249511186523137
 30
0.0
 40
0.006
 50
179.0000000111757004
 51
270.0
  0
ARC
  5
E707
  8
0
 10
4909.850679986866453
 20
255.3113763154522928
 30
0.0
 40
0.006
 50
90.0
 51
179.0000000111838858
  0
ARC
  5
E708
  8
0
 10
4924.9597336725109926
 20
256.0063251109784801
 30
0.0
 40
15.1374616733129201
 50
183.0055149945698929
 51
184.374410183932298
  0
ARC
  5
E709
  8
0
 10
4909.8490854375986601
 20
255.2129511186523132
 30
0.0
 40
0.006
 50
90.0
 51
183.0055149945600874
  0
ARC
  5
E70A
  8
0
 10
4911.3387620184021216
 20
254.9783424726848011
 30
0.0
 40
1.4778266742920061
 50
184.9146437188393008
 51
191.0559659563307093
  0
ARC
  5
E70B
  8
0
 10
4910.3678167798816503
 20
254.7731144484976937
 30
0.0
 40
0.4857843205467731
 50
189.2601875509907927
 51
212.6124875380008064
  0
ARC
  5
E70C
  8
0
 10
4910.1803090982648428
 20
254.6616364564627872
 30
0.0
 40
0.2678541084193749
 50
214.1434452435186984
 51
238.389954321927803
  0
ARC
  5
E70D
  8
0
 10
4910.2064644515066902
 20
254.7151506166372883
 30
0.0
 40
0.3271885340142453
 50
239.4010958110681031
 51
259.9040281806742883
  0
ARC
  5
E70E
  8
0
 10
4910.2417172018103884
 20
254.8792438536858072
 30
0.0
 40
0.4949562551485335
 50
259.2161997193909997
 51
265.8011972060314179
  0
ARC
  5
E70F
  8
0
 10
4910.2514009379692652
 20
254.9948826812442064
 30
0.0
 40
0.6109948872689017
 50
265.689513913136409
 51
268.9751253627555911
  0
LINE
  5
E710
  8
0
 10
4910.2425661636079894
 20
254.3839855384522082
 30
0.0
 11
4910.2425661636079894
 21
254.374557417852202
 31
0.0
  0
ARC
  5
E711
  8
0
 10
4910.2485661636083023
 20
254.374557417852202
 30
0.0
 40
0.006
 50
179.9999999999917861
 51
270.0
  0
ENDSEC
  0
EOF
