  0
SECTION
  2
HEADER
  9
$ACADVER
  1
AC1009
  9
$INSBASE
 10
1853.0094146392709717
 20
153.7924107429172977
 30
0.0
  9
$EXTMIN
 10
1851.4339502044961137
 20
125.7708517236197991
 30
-0.0000000349181948
  9
$EXTMAX
 10
1854.6883830877889068
 20
153.8031098537059052
 30
0.0000000814935746
  9
$LIMMIN
 10
0.0
 20
0.0
  9
$LIMMAX
 10
11.6929133858000007
 20
8.2677165353999982
  9
$ORTHOMODE
 70
     0
  9
$REGENMODE
 70
     1
  9
$FILLMODE
 70
     1
  9
$QTEXTMODE
 70
     0
  9
$MIRRTEXT
 70
     0
  9
$DRAGMODE
 70
     2
  9
$LTSCALE
 40
0.6431102362
  9
$OSMODE
 70
  4095
  9
$ATTMODE
 70
     1
  9
$TEXTSIZE
 40
0.2
  9
$TRACEWID
 40
0.05
  9
$TEXTSTYLE
  7
STANDARD
  9
$CLAYER
  8
0
  9
$CELTYPE
  6
BYLAYER
  9
$CECOLOR
 62
   256
  9
$DIMSCALE
 40
1.0
  9
$DIMASZ
 40
0.1875
  9
$DIMEXO
 40
0.0625
  9
$DIMDLI
 40
0.4443307087
  9
$DIMRND
 40
0.0
  9
$DIMDLE
 40
0.0
  9
$DIMEXE
 40
0.125
  9
$DIMTP
 40
0.01
  9
$DIMTM
 40
0.01
  9
$DIMTXT
 40
2.0
  9
$DIMCEN
 40
0.1052362205
  9
$DIMTSZ
 40
0.0
  9
$DIMTOL
 70
     1
  9
$DIMLIM
 70
     0
  9
$DIMTIH
 70
     1
  9
$DIMTOH
 70
     1
  9
$DIMSE1
 70
     0
  9
$DIMSE2
 70
     0
  9
$DIMTAD
 70
     0
  9
$DIMZIN
 70
     0
  9
$DIMBLK
  1

  9
$DIMASO
 70
     1
  9
$DIMSHO
 70
     1
  9
$DIMPOST
  1
\X
  9
$DIMAPOST
  1

  9
$DIMALT
 70
     1
  9
$DIMALTD
 70
     2
  9
$DIMALTF
 40
25.3999999999999986
  9
$DIMLFAC
 40
1.0
  9
$DIMTOFL
 70
     0
  9
$DIMTVP
 40
0.0
  9
$DIMTIX
 70
     0
  9
$DIMSOXD
 70
     0
  9
$DIMSAH
 70
     0
  9
$DIMBLK1
  1

  9
$DIMBLK2
  1

  9
$DIMSTYLE
  2
STANDARD
  9
$DIMCLRD
 70
     0
  9
$DIMCLRE
 70
     0
  9
$DIMCLRT
 70
     0
  9
$DIMTFAC
 40
1.0
  9
$DIMGAP
 40
0.09
  9
$LUNITS
 70
     2
  9
$LUPREC
 70
     4
  9
$SKETCHINC
 40
0.1
  9
$FILLETRAD
 40
0.0
  9
$AUNITS
 70
     0
  9
$AUPREC
 70
     0
  9
$MENU
  1
.
  9
$ELEVATION
 40
0.0
  9
$PELEVATION
 40
0.0
  9
$THICKNESS
 40
0.0
  9
$LIMCHECK
 70
     0
  9
$BLIPMODE
 70
     0
  9
$CHAMFERA
 40
0.0
  9
$CHAMFERB
 40
0.0
  9
$SKPOLY
 70
     0
  9
$TDCREATE
 40
2458060.468368056230247
  9
$TDUPDATE
 40
2460060.493310185149312
  9
$TDINDWG
 40
0.3297301273
  9
$TDUSRTIMER
 40
0.3297301273
  9
$USRTIMER
 70
     1
  9
$ANGBASE
 50
0.0
  9
$ANGDIR
 70
     0
  9
$PDMODE
 70
     0
  9
$PDSIZE
 40
0.3125
  9
$PLINEWID
 40
0.0
  9
$COORDS
 70
     1
  9
$SPLFRAME
 70
     0
  9
$SPLINETYPE
 70
     6
  9
$SPLINESEGS
 70
     8
  9
$ATTDIA
 70
     1
  9
$ATTREQ
 70
     1
  9
$HANDLING
 70
     1
  9
$HANDSEED
  5
7813
  9
$SURFTAB1
 70
     6
  9
$SURFTAB2
 70
     6
  9
$SURFTYPE
 70
     6
  9
$SURFU
 70
     6
  9
$SURFV
 70
     6
  9
$UCSNAME
  2

  9
$UCSORG
 10
0.0
 20
0.0
 30
0.0
  9
$UCSXDIR
 10
1.0
 20
0.0
 30
0.0
  9
$UCSYDIR
 10
0.0
 20
1.0
 30
0.0
  9
$PUCSNAME
  2

  9
$PUCSORG
 10
0.0
 20
0.0
 30
0.0
  9
$PUCSXDIR
 10
1.0
 20
0.0
 30
0.0
  9
$PUCSYDIR
 10
0.0
 20
1.0
 30
0.0
  9
$USERI1
 70
     0
  9
$USERI2
 70
     0
  9
$USERI3
 70
     0
  9
$USERI4
 70
     0
  9
$USERI5
 70
     0
  9
$USERR1
 40
0.0
  9
$USERR2
 40
0.0
  9
$USERR3
 40
0.0
  9
$USERR4
 40
0.0
  9
$USERR5
 40
0.0
  9
$WORLDVIEW
 70
     1
  9
$SHADEDGE
 70
     3
  9
$SHADEDIF
 70
    70
  9
$TILEMODE
 70
     1
  9
$MAXACTVP
 70
    64
  9
$PLIMCHECK
 70
     0
  9
$PEXTMIN
 10
1.0000000000000000E+20
 20
1.0000000000000000E+20
 30
1.0000000000000000E+20
  9
$PEXTMAX
 10
-1.0000000000000000E+20
 20
-1.0000000000000000E+20
 30
-1.0000000000000000E+20
  9
$PLIMMIN
 10
0.0
 20
0.0
  9
$PLIMMAX
 10
12.0
 20
9.0
  9
$UNITMODE
 70
     0
  9
$VISRETAIN
 70
     1
  9
$PLINEGEN
 70
     0
  9
$PSLTSCALE
 70
     1
  0
ENDSEC
  0
SECTION
  2
TABLES
  0
TABLE
  2
VPORT
 70
     1
  0
VPORT
  2
*ACTIVE
 70
     0
 10
0.0
 20
0.0
 11
1.0
 21
1.0
 12
892.554070425414352
 22
62.780911605313257
 13
0.0
 23
0.0
 14
1.0
 24
1.0
 15
0.0
 25
0.0
 16
0.0
 26
0.0
 36
82.6066804857415349
 17
960.5070962207281582
 27
77.0060691833496094
 37
0.0
 40
28.2240409679201782
 41
1.8299086757990859
 42
50.0
 43
0.0
 44
0.0
 50
0.0
 51
0.0
 71
     0
 72
   100
 73
     1
 74
     1
 75
     0
 76
     0
 77
     0
 78
     0
  0
ENDTAB
  0
TABLE
  2
LTYPE
 70
     2
  0
LTYPE
  2
CONTINUOUS
 70
     0
  3
Solid line
 72
    65
 73
     0
 40
0.0
  0
LTYPE
  2
PHANTOM2
 70
     0
  3
___ _ _ ___ _ _ ___ _ _ ___ _ _
 72
    65
 73
     6
 40
1.25
 49
0.625
 49
-0.125
 49
0.125
 49
-0.125
 49
0.125
 49
-0.125
  0
ENDTAB
  0
TABLE
  2
LAYER
 70
     2
  0
LAYER
  2
0
 70
     0
 62
   255
  6
CONTINUOUS
  0
LAYER
  2
DEFPOINTS
 70
     0
 62
     7
  6
CONTINUOUS
  0
ENDTAB
  0
TABLE
  2
STYLE
 70
     1
  0
STYLE
  2
STANDARD
 70
     0
 40
0.0
 41
0.8
 50
0.0
 71
     0
 42
0.2
  3
txt
  4

  0
ENDTAB
  0
TABLE
  2
VIEW
 70
     0
  0
ENDTAB
  0
TABLE
  2
UCS
 70
     0
  0
ENDTAB
  0
TABLE
  2
APPID
 70
     9
  0
APPID
  2
ACAD
 70
     0
  0
APPID
  2
ACAD_MLEADERVER
 70
     0
  0
APPID
  2
ACAD_EXEMPT_FROM_CAD_STANDARDS
 70
     0
  0
APPID
  2
ACAD_NAV_VCDISPLAY
 70
     0
  0
APPID
  2
ACAECLAYERSTANDARD
 70
     0
  0
APPID
  2
ACCMTRANSPARENCY
 70
     0
  0
APPID
  2
ACAD_DSTYLE_DIMJAG
 70
     0
  0
APPID
  2
ACAD_DSTYLE_DIMTALN
 70
     0
  0
APPID
  2
ACDBATTR
 70
     0
  0
ENDTAB
  0
TABLE
  2
DIMSTYLE
 70
     1
  0
DIMSTYLE
  2
STANDARD
 70
     0
  3

  4

  5

  6

  7

 40
1.0
 41
0.1875
 42
0.0625
 43
0.38
 44
0.125
 45
0.0
 46
0.0
 47
0.01
 48
0.01
140
0.15625
141
0.09
142
0.0
143
25.3999999999999986
144
1.0
145
0.0
146
1.0
147
0.09
 71
     1
 72
     0
 73
     1
 74
     1
 75
     0
 76
     0
 77
     0
 78
     4
170
     0
171
     2
172
     0
173
     0
174
     0
175
     0
176
     0
177
     0
178
     0
  0
ENDTAB
  0
ENDSEC
  0
SECTION
  2
BLOCKS
  0
BLOCK
  8
0
  2
$MODEL_SPACE
 70
     0
 10
0.0
 20
0.0
 30
0.0
  3
$MODEL_SPACE
  1

  0
ENDBLK
  5
21
  8
0
  0
BLOCK
 67
     1
  8
0
  2
$PAPER_SPACE
 70
     0
 10
0.0
 20
0.0
 30
0.0
  3
$PAPER_SPACE
  1

  0
ENDBLK
  5
1D
 67
     1
  8
0
  0
ENDSEC
  0
SECTION
  2
ENTITIES
  0
ATTDEF
  5
3930
  8
DEFPOINTS
 10
1853.004658040609911
 20
153.7898953869448917
 30
0.0
 40
0.001
  1
K-30765T
  3

  2
MODELNUMBER
 70
     0
1001
ACDBATTR
1070
     0
1070
     1
  0
ATTDEF
  5
3931
  8
DEFPOINTS
 10
1853.004658040609911
 20
153.7882287202781981
 30
0.0
 40
0.001
  1
FAMILY CARE
  3

  2
TRADENAME
 70
     0
1001
ACDBATTR
1070
     0
1070
     1
  0
ATTDEF
  5
3932
  8
DEFPOINTS
 10
1853.004658040609911
 20
153.7865620536115046
 30
0.0
 40
0.001
  1
GRAB BAR
  3

  2
PRODUCT
 70
     0
1001
ACDBATTR
1070
     0
1070
     1
  0
LINE
  5
76A1
  8
0
 10
1854.5842145156709648
 20
153.7924107429172977
 30
0.0
 11
1851.4346147628709787
 21
153.7924107429172977
 31
0.0
  0
LINE
  5
76A2
  8
0
 10
1854.5509923743700256
 20
153.3396548374172994
 30
0.0
 11
1851.4678369041710084
 21
153.3396548374172994
 31
0.0
  0
LINE
  5
76A3
  8
0
 10
1854.5805188090700995
 20
153.3689247232173045
 30
0.0
 11
1854.5509923743700256
 21
153.3396548374172994
 31
0.0
  0
LINE
  5
76A4
  8
0
 10
1854.5805188090700995
 20
153.3689247232173045
 30
0.0
 11
1854.5842145156709648
 21
153.7924107429172977
 31
0.0
  0
LINE
  5
76A5
  8
0
 10
1854.5805188090700995
 20
153.3689247232173045
 30
0.0
 11
1851.4383104694709345
 21
153.3689247232173045
 31
0.0
  0
LINE
  5
76A6
  8
0
 10
1851.4383104694709345
 20
153.3689247232173045
 30
0.0
 11
1851.4678369041710084
 21
153.3396548374172994
 31
0.0
  0
LINE
  5
76A7
  8
0
 10
1851.4383104694709345
 20
153.3689247232173045
 30
0.0
 11
1851.4346147628709787
 21
153.7924107429172977
 31
0.0
  0
ARC
  5
76A8
  8
0
 10
1853.9559982643158946
 20
153.0063140090678928
 30
0.0
 40
0.3340006346048108
 50
93.6020000865126036
 51
100.0999778469667945
  0
ARC
  5
76A9
  8
0
 10
1853.9215909693289177
 20
153.1994758929945135
 30
0.0
 40
0.1377982509535009
 50
100.0999778469539052
 51
124.1348210336814049
  0
ARC
  5
76AA
  8
0
 10
1853.9112165478459247
 20
153.2147788081549891
 30
0.0
 40
0.119310205261292
 50
124.1348210336803959
 51
159.5692353164436952
  0
ARC
  5
76AB
  8
0
 10
1854.2214073630179882
 20
153.0581448992031994
 30
0.0
 40
0.4662577027594852
 50
154.8326882573861951
 51
172.3388654026302049
  0
ARC
  5
76AC
  8
0
 10
1855.2524753263389812
 20
152.864857836697098
 30
0.0
 40
1.5148566263934109
 50
170.2920009921469102
 51
180.5684718249283094
  0
LINE
  5
76AD
  8
0
 10
1853.7376932607519393
 20
152.8498281226364099
 30
0.0
 11
1853.7376932607519393
 21
126.2517202836109931
 31
0.0
  0
ARC
  5
76AE
  8
0
 10
1852.9728301157049373
 20
129.2057858192675042
 30
0.0
 40
3.4309681017727418
 50
270.6109583235922855
 51
275.800094559431102
  0
ARC
  5
76AF
  8
0
 10
1853.2671166548789188
 20
126.2801764876578972
 30
0.0
 40
0.4906047433910186
 50
276.1359845550883279
 51
312.473349698247489
  0
ARC
  5
76B0
  8
0
 10
1853.2576502268270815
 20
126.2564990093245996
 30
0.0
 40
0.4800824655910163
 50
315.2158281974528791
 51
344.1607472955275853
  0
ARC
  5
76B1
  8
0
 10
1853.2309762478469111
 20
126.2602822641406988
 30
0.0
 40
0.5067893434927891
 50
344.5723632146933824
 51
359.0319672372576747
  0
ARC
  5
76B2
  8
0
 10
1853.0459991628119951
 20
129.2057858189656088
 30
0.0
 40
3.4309681014700031
 50
264.1999054404511185
 51
269.3890416772285903
  0
ARC
  5
76B3
  8
0
 10
1852.7517126236618878
 20
126.2801764876578972
 30
0.0
 40
0.4906047433910186
 50
227.526650301752511
 51
263.8640154449116721
  0
ARC
  5
76B4
  8
0
 10
1852.7611790517139525
 20
126.2564990093245996
 30
0.0
 40
0.4800824655910163
 50
195.8392527044715905
 51
224.7841718025470925
  0
ARC
  5
76B5
  8
0
 10
1852.7878530306938956
 20
126.2602822641406988
 30
0.0
 40
0.5067893434927891
 50
180.9680327642439011
 51
195.4276367853057934
  0
LINE
  5
76B6
  8
0
 10
1852.2811360177900042
 20
152.8498281226364099
 30
0.0
 11
1852.2811360177900042
 21
126.2517202835956027
 31
0.0
  0
ARC
  5
76B7
  8
0
 10
1852.062831014224912
 20
153.0063140090678928
 30
0.0
 40
0.3340006346048108
 50
79.9000221530331345
 51
86.3979999134874816
  0
ARC
  5
76B8
  8
0
 10
1852.0972383092118889
 20
153.1994758929945135
 30
0.0
 40
0.1377982509535009
 50
55.8651789663186378
 51
79.900022153046109
  0
ARC
  5
76B9
  8
0
 10
1852.1076127306951093
 20
153.2147788081549891
 30
0.0
 40
0.119310205261292
 50
20.4307646835562906
 51
55.8651789663195473
  0
ARC
  5
76BA
  8
0
 10
1851.7974219155230458
 20
153.0581448992031994
 30
0.0
 40
0.4662577027594852
 50
7.6611345973689771
 51
25.1673117426138084
  0
ARC
  5
76BB
  8
0
 10
1850.7663539522020528
 20
152.864857836697098
 30
0.0
 40
1.5148566263934109
 50
359.431528174626294
 51
9.7079990078522869
  0
ARC
  5
76BC
  8
0
 10
1853.0094146392709717
 20
141.2176108666172922
 30
0.0
 40
1.5747998764001629
 50
297.5458244610293832
 51
62.4541755389706026
  0
ARC
  5
76BD
  8
0
 10
1853.0094146392709717
 20
141.2176108666172922
 30
0.0
 40
1.5747998764001629
 50
117.5458244610293974
 51
242.454175538959106
  0
ARC
  5
76BE
  8
0
 10
1853.0094146392709717
 20
141.2176108666172922
 30
0.0
 40
1.5711041697999799
 50
297.6161444075787017
 51
62.3838555924213622
  0
ARC
  5
76BF
  8
0
 10
1853.0094146392709717
 20
141.2176108666172922
 30
0.0
 40
1.5711041697999799
 50
117.6161444075786022
 51
242.383855592421412
  0
ARC
  5
76C0
  8
0
 10
1853.0094146392709717
 20
141.2176108666172922
 30
0.0
 40
1.541577735099956
 50
298.1917717275126165
 51
61.8082282724874332
  0
ARC
  5
76C1
  8
0
 10
1853.0094146392709717
 20
141.2176108666172922
 30
0.0
 40
1.541577735099956
 50
118.1917717275129007
 51
241.8082282724874119
  0
ARC
  5
76C2
  8
0
 10
1853.0094146392709717
 20
141.2176075933172967
 30
0.0
 40
0.9333806005742104
 50
321.2842960493687769
 51
38.7157039506311875
  0
ARC
  5
76C3
  8
0
 10
1853.0094146392709717
 20
141.2176075933172967
 30
0.0
 40
0.9333806005742104
 50
141.2842960493694022
 51
218.7157039506311946
  0
ARC
  5
76C4
  8
0
 10
1853.009414748170002
 20
141.2176075933172967
 30
0.0
 40
0.9440035096797917
 50
320.4868527627243111
 51
39.5131472372756676
  0
ARC
  5
76C5
  8
0
 10
1853.009414748170002
 20
141.2176075933172967
 30
0.0
 40
0.9440035096797917
 50
140.4868735393372106
 51
219.5131264606627042
  0
ARC
  5
76C6
  8
0
 10
1853.0094146392709717
 20
141.2176075933172967
 30
0.0
 40
0.9558139712965855
 50
319.6360536013621072
 51
40.3639463986378999
  0
ARC
  5
76C7
  8
0
 10
1853.0094146392709717
 20
141.2176075933172967
 30
0.0
 40
0.9558139712965855
 50
139.6360536013627041
 51
220.3639463986378928
  0
ENDSEC
  0
EOF
