  0
SECTION
  2
HEADER
  9
$ACADVER
  1
AC1009
  9
$INSBASE
 10
6541.8306675265957892
 20
399.1646322643040889
 30
0.0
  9
$EXTMIN
 10
6529.7776974806147336
 20
391.8212214253990169
 30
-0.0000000000112498
  9
$EXTMAX
 10
6553.7794456856363468
 20
399.8128414190816784
 30
0.0000000000002956
  9
$LIMMIN
 10
0.0
 20
0.0
  9
$LIMMAX
 10
11.6929133858000007
 20
8.2677165353999982
  9
$ORTHOMODE
 70
     0
  9
$REGENMODE
 70
     1
  9
$FILLMODE
 70
     1
  9
$QTEXTMODE
 70
     0
  9
$MIRRTEXT
 70
     0
  9
$DRAGMODE
 70
     2
  9
$LTSCALE
 40
0.6431102362
  9
$OSMODE
 70
  4095
  9
$ATTMODE
 70
     1
  9
$TEXTSIZE
 40
0.2
  9
$TRACEWID
 40
0.05
  9
$TEXTSTYLE
  7
STANDARD
  9
$CLAYER
  8
0
  9
$CELTYPE
  6
BYLAYER
  9
$CECOLOR
 62
   256
  9
$DIMSCALE
 40
1.0
  9
$DIMASZ
 40
0.1875
  9
$DIMEXO
 40
0.0625
  9
$DIMDLI
 40
0.4443307087
  9
$DIMRND
 40
0.0
  9
$DIMDLE
 40
0.0
  9
$DIMEXE
 40
0.125
  9
$DIMTP
 40
0.01
  9
$DIMTM
 40
0.01
  9
$DIMTXT
 40
2.0
  9
$DIMCEN
 40
0.1052362205
  9
$DIMTSZ
 40
0.0
  9
$DIMTOL
 70
     1
  9
$DIMLIM
 70
     0
  9
$DIMTIH
 70
     1
  9
$DIMTOH
 70
     1
  9
$DIMSE1
 70
     0
  9
$DIMSE2
 70
     0
  9
$DIMTAD
 70
     0
  9
$DIMZIN
 70
     0
  9
$DIMBLK
  1

  9
$DIMASO
 70
     1
  9
$DIMSHO
 70
     1
  9
$DIMPOST
  1
\X
  9
$DIMAPOST
  1

  9
$DIMALT
 70
     1
  9
$DIMALTD
 70
     2
  9
$DIMALTF
 40
25.3999999999999986
  9
$DIMLFAC
 40
1.0
  9
$DIMTOFL
 70
     0
  9
$DIMTVP
 40
0.0
  9
$DIMTIX
 70
     0
  9
$DIMSOXD
 70
     0
  9
$DIMSAH
 70
     0
  9
$DIMBLK1
  1

  9
$DIMBLK2
  1

  9
$DIMSTYLE
  2
STANDARD
  9
$DIMCLRD
 70
     0
  9
$DIMCLRE
 70
     0
  9
$DIMCLRT
 70
     0
  9
$DIMTFAC
 40
1.0
  9
$DIMGAP
 40
0.09
  9
$LUNITS
 70
     2
  9
$LUPREC
 70
     4
  9
$SKETCHINC
 40
0.1
  9
$FILLETRAD
 40
0.0
  9
$AUNITS
 70
     0
  9
$AUPREC
 70
     0
  9
$MENU
  1
.
  9
$ELEVATION
 40
0.0
  9
$PELEVATION
 40
0.0
  9
$THICKNESS
 40
0.0
  9
$LIMCHECK
 70
     0
  9
$BLIPMODE
 70
     0
  9
$CHAMFERA
 40
0.0
  9
$CHAMFERB
 40
0.0
  9
$SKPOLY
 70
     0
  9
$TDCREATE
 40
2458060.468368056230247
  9
$TDUPDATE
 40
2460577.5243750000372529
  9
$TDINDWG
 40
0.748097338
  9
$TDUSRTIMER
 40
0.748097338
  9
$USRTIMER
 70
     1
  9
$ANGBASE
 50
0.0
  9
$ANGDIR
 70
     0
  9
$PDMODE
 70
     0
  9
$PDSIZE
 40
0.3125
  9
$PLINEWID
 40
0.0
  9
$COORDS
 70
     1
  9
$SPLFRAME
 70
     0
  9
$SPLINETYPE
 70
     6
  9
$SPLINESEGS
 70
     8
  9
$ATTDIA
 70
     1
  9
$ATTREQ
 70
     1
  9
$HANDLING
 70
     1
  9
$HANDSEED
  5
3339F
  9
$SURFTAB1
 70
     6
  9
$SURFTAB2
 70
     6
  9
$SURFTYPE
 70
     6
  9
$SURFU
 70
     6
  9
$SURFV
 70
     6
  9
$UCSNAME
  2

  9
$UCSORG
 10
0.0
 20
0.0
 30
0.0
  9
$UCSXDIR
 10
1.0
 20
0.0
 30
0.0
  9
$UCSYDIR
 10
0.0
 20
1.0
 30
0.0
  9
$PUCSNAME
  2

  9
$PUCSORG
 10
0.0
 20
0.0
 30
0.0
  9
$PUCSXDIR
 10
1.0
 20
0.0
 30
0.0
  9
$PUCSYDIR
 10
0.0
 20
1.0
 30
0.0
  9
$USERI1
 70
     0
  9
$USERI2
 70
     0
  9
$USERI3
 70
     0
  9
$USERI4
 70
     0
  9
$USERI5
 70
     0
  9
$USERR1
 40
0.0
  9
$USERR2
 40
0.0
  9
$USERR3
 40
0.0
  9
$USERR4
 40
0.0
  9
$USERR5
 40
0.0
  9
$WORLDVIEW
 70
     1
  9
$SHADEDGE
 70
     3
  9
$SHADEDIF
 70
    70
  9
$TILEMODE
 70
     1
  9
$MAXACTVP
 70
    64
  9
$PLIMCHECK
 70
     0
  9
$PEXTMIN
 10
1.0000000000000000E+20
 20
1.0000000000000000E+20
 30
1.0000000000000000E+20
  9
$PEXTMAX
 10
-1.0000000000000000E+20
 20
-1.0000000000000000E+20
 30
-1.0000000000000000E+20
  9
$PLIMMIN
 10
0.0
 20
0.0
  9
$PLIMMAX
 10
12.0
 20
9.0
  9
$UNITMODE
 70
     0
  9
$VISRETAIN
 70
     1
  9
$PLINEGEN
 70
     0
  9
$PSLTSCALE
 70
     1
  0
ENDSEC
  0
SECTION
  2
TABLES
  0
TABLE
  2
VPORT
 70
     1
  0
VPORT
  2
*ACTIVE
 70
     0
 10
0.0
 20
0.0
 11
1.0
 21
1.0
 12
2630.4132151378130402
 22
263.2374263197012851
 13
0.0
 23
0.0
 14
1.0
 24
1.0
 15
0.0
 25
0.0
 16
0.0
 26
0.0
 36
60.4960186965801583
 17
3911.3653564453120453
 27
132.5796051025390057
 37
0.0
 40
9.4110101852404746
 41
2.558981233243967
 42
50.0
 43
0.0
 44
0.0
 50
0.0
 51
0.0
 71
     0
 72
   100
 73
     1
 74
     1
 75
     0
 76
     0
 77
     0
 78
     0
  0
ENDTAB
  0
TABLE
  2
LTYPE
 70
     2
  0
LTYPE
  2
CONTINUOUS
 70
     0
  3
Solid line
 72
    65
 73
     0
 40
0.0
  0
LTYPE
  2
PHANTOM2
 70
     0
  3
___ _ _ ___ _ _ ___ _ _ ___ _ _
 72
    65
 73
     6
 40
1.25
 49
0.625
 49
-0.125
 49
0.125
 49
-0.125
 49
0.125
 49
-0.125
  0
ENDTAB
  0
TABLE
  2
LAYER
 70
     2
  0
LAYER
  2
0
 70
     0
 62
   255
  6
CONTINUOUS
  0
LAYER
  2
DEFPOINTS
 70
     0
 62
     7
  6
CONTINUOUS
  0
ENDTAB
  0
TABLE
  2
STYLE
 70
     1
  0
STYLE
  2
STANDARD
 70
     0
 40
0.0
 41
0.8
 50
0.0
 71
     0
 42
0.2
  3
txt
  4

  0
ENDTAB
  0
TABLE
  2
VIEW
 70
     2
  0
ENDTAB
  0
TABLE
  2
UCS
 70
     0
  0
ENDTAB
  0
TABLE
  2
APPID
 70
    11
  0
APPID
  2
ACAD
 70
     0
  0
APPID
  2
ACAD_MLEADERVER
 70
     0
  0
APPID
  2
ACAD_EXEMPT_FROM_CAD_STANDARDS
 70
     0
  0
APPID
  2
ACAD_NAV_VCDISPLAY
 70
     0
  0
APPID
  2
ACAECLAYERSTANDARD
 70
     0
  0
APPID
  2
ACCMTRANSPARENCY
 70
     0
  0
APPID
  2
ACAD_DSTYLE_DIMJAG
 70
     0
  0
APPID
  2
ACAD_DSTYLE_DIMTALN
 70
     0
  0
APPID
  2
ACDBATTR
 70
     0
  0
APPID
  2
ACADANNOTATIVE
 70
     0
  0
APPID
  2
DCO15
 70
     0
  0
ENDTAB
  0
TABLE
  2
DIMSTYLE
 70
     1
  0
DIMSTYLE
  2
STANDARD
 70
     0
  3

  4

  5

  6

  7

 40
1.0
 41
0.1875
 42
0.0625
 43
0.38
 44
0.125
 45
0.0
 46
0.0
 47
0.01
 48
0.01
140
0.15625
141
0.09
142
0.0
143
25.3999999999999986
144
1.0
145
0.0
146
1.0
147
0.09
 71
     1
 72
     0
 73
     1
 74
     1
 75
     0
 76
     0
 77
     0
 78
     4
170
     0
171
     2
172
     0
173
     0
174
     0
175
     0
176
     0
177
     0
178
     0
  0
ENDTAB
  0
ENDSEC
  0
SECTION
  2
BLOCKS
  0
BLOCK
  8
0
  2
$MODEL_SPACE
 70
     0
 10
0.0
 20
0.0
 30
0.0
  3
$MODEL_SPACE
  1

  0
ENDBLK
  5
21
  8
0
  0
BLOCK
 67
     1
  8
0
  2
$PAPER_SPACE
 70
     0
 10
0.0
 20
0.0
 30
0.0
  3
$PAPER_SPACE
  1

  0
ENDBLK
  5
1D
 67
     1
  8
0
  0
ENDSEC
  0
SECTION
  2
ENTITIES
  0
ATTDEF
  5
2842F
  8
DEFPOINTS
 10
6541.8276309628563467
 20
399.1687400550932239
 30
0.0
 40
0.001
  1
K-30789X-1
  3

  2
MODELNUMBER
 70
     0
1001
ACDBATTR
1070
     0
1070
     1
  0
ATTDEF
  5
28430
  8
DEFPOINTS
 10
6541.8275051531991267
 20
399.1670732147139802
 30
0.0
 40
0.001
  1
ESSENTIAL
  3

  2
TRADENAME
 70
     0
1001
ACDBATTR
1070
     0
1070
     1
  0
ATTDEF
  5
28431
  8
DEFPOINTS
 10
6541.8276309628563467
 20
399.1654067217598936
 30
0.0
 40
0.001
  1
BATHROOM SINK
  3

  2
PRODUCT
 70
     0
1001
ACDBATTR
1070
     0
1070
     1
  0
LINE
  5
33295
  8
0
 10
6553.3704929013520086
 20
399.7945535242042183
 30
0.0
 11
6530.2908421518413888
 21
399.7945535242042183
 31
0.0
  0
LINE
  5
33296
  8
0
 10
6540.4600420797878542
 20
391.8302260536041786
 30
0.0
 11
6543.2012929734073623
 21
391.8302260536041786
 31
0.0
  0
LINE
  5
33297
  8
0
 10
6530.026532775646956
 20
399.1646322643040889
 30
0.0
 11
6553.634802277547351
 21
399.1646322643040889
 31
0.0
  0
LINE
  5
33298
  8
0
 10
6553.5979241509267013
 20
399.5861511802795007
 30
0.0
 11
6553.634802277547351
 21
399.1646322643040889
 31
0.0
  0
ARC
  5
33299
  8
0
 10
6553.3704929013520086
 20
399.5662535242042281
 30
0.0
 40
0.2283
 50
5.0000000015206378
 51
90.0
  0
LINE
  5
3329A
  8
0
 10
6543.4423542801469011
 20
393.3486620883041951
 30
0.0
 11
6543.3189435672520631
 21
391.938032960386181
 31
0.0
  0
ARC
  5
3329B
  8
0
 10
6543.2012929734073623
 20
391.9483260536042053
 30
0.0
 40
0.1181
 50
270.0
 51
355.0000000002709726
  0
ARC
  5
3329C
  8
0
 10
6576.2259668854940173
 20
397.4210474173847274
 30
0.0
 40
35.8913928701520675
 50
177.4001402490503949
 51
182.6371103409740897
  0
ARC
  5
3329D
  8
0
 10
6588.1341373670757093
 20
397.9695233013400184
 30
0.0
 40
47.812187726777033
 50
182.6371103409740897
 51
185.3878685189195039
  0
ARC
  5
3329E
  8
0
 10
6542.4634566083841491
 20
393.8361045765024073
 30
0.0
 40
1.962825429064224
 50
190.4504388475168071
 51
202.1722634409601085
  0
ARC
  5
3329F
  8
0
 10
6541.978687862658262
 20
393.4041855186723069
 30
0.0
 40
1.368223479395285
 50
193.0452719668678014
 51
218.5381400357686914
  0
ARC
  5
332A0
  8
0
 10
6541.8747966608980278
 20
393.3784755201535859
 30
0.0
 40
1.27172513976781
 50
220.5487403768638046
 51
268.0114249845315726
  0
ARC
  5
332A1
  8
0
 10
6543.5765278947419574
 20
409.2733458797326875
 30
0.0
 40
15.8189296725552797
 50
269.8749376261579869
 51
280.2645807688303989
  0
ARC
  5
332A2
  8
0
 10
6545.7024142224636307
 20
397.5341021888713726
 30
0.0
 40
3.8887479844242741
 50
280.2645807688303989
 51
315.6924567662077834
  0
ARC
  5
332A3
  8
0
 10
6527.3035958981527074
 20
411.2747639714503975
 30
0.0
 40
26.8233679995152414
 50
322.1546845623553281
 51
333.0200561852724945
  0
ARC
  5
332A4
  8
0
 10
6551.3109905437086127
 20
399.0455105716598041
 30
0.0
 40
0.1195263934487367
 50
94.7162342855317547
 51
149.8322844306040054
  0
ARC
  5
332A5
  8
0
 10
6543.5589491396813173
 20
393.3386653137009148
 30
0.0
 40
0.1170226335900707
 50
98.3282273700212528
 51
175.0994784654405976
  0
ARC
  5
332A6
  8
0
 10
6540.2560004891338394
 20
399.0491599636334854
 30
0.0
 40
0.1155172403276017
 50
359.9704971607138191
 51
88.401755625951921
  0
LINE
  5
332A7
  8
0
 10
6543.5419991503458732
 20
393.4544538910042206
 30
0.0
 11
6543.1232424153986358
 21
393.4544538910042206
 31
0.0
  0
ARC
  5
332A8
  8
0
 10
6507.4353681677011991
 20
397.4210474173847274
 30
0.0
 40
35.8913928701520675
 50
357.362889659025825
 51
2.5998597509495398
  0
ARC
  5
332A9
  8
0
 10
6495.5271976861167786
 20
397.9695233013400184
 30
0.0
 40
47.812187726777033
 50
354.6121314810803824
 51
357.362889659025825
  0
ARC
  5
332AA
  8
0
 10
6541.1978784448110673
 20
393.8361045765024073
 30
0.0
 40
1.962825429064224
 50
337.8277365590399199
 51
349.5495611524830792
  0
ARC
  5
332AB
  8
0
 10
6541.6826471905369544
 20
393.4041855186723069
 30
0.0
 40
1.368223479395285
 50
321.4618599642312802
 51
346.9547280331321986
  0
ARC
  5
332AC
  8
0
 10
6541.7548081095192174
 20
393.4443475679108246
 30
0.0
 40
1.3389819293501131
 50
273.2478055562082204
 51
318.192029082353713
  0
ARC
  5
332AD
  8
0
 10
6543.405334564059558
 20
399.0491599636334854
 30
0.0
 40
0.1155172403276017
 50
91.5982443740480647
 51
180.0295028392862093
  0
LINE
  5
332AE
  8
0
 10
6530.0634109022676057
 20
399.5861511802795007
 30
0.0
 11
6530.026532775646956
 21
399.1646322643040889
 31
0.0
  0
ARC
  5
332AF
  8
0
 10
6530.2908421518413888
 20
399.5662535242042281
 30
0.0
 40
0.2283
 50
90.0
 51
174.9999999984794101
  0
LINE
  5
332B0
  8
0
 10
6540.2189807730474058
 20
393.3486620883041951
 30
0.0
 11
6540.3423914859431534
 21
391.938032960386181
 31
0.0
  0
ARC
  5
332B1
  8
0
 10
6540.4600420797878542
 20
391.9483260536042053
 30
0.0
 40
0.1181
 50
184.999999999728999
 51
270.0
  0
ARC
  5
332B2
  8
0
 10
6540.0848071584523495
 20
409.2733458797326875
 30
0.0
 40
15.8189296725552797
 50
259.7354192311696011
 51
270.1250623738420131
  0
ARC
  5
332B3
  8
0
 10
6537.9589208307306762
 20
397.5341021888713726
 30
0.0
 40
3.8887479844242741
 50
224.3075432337921029
 51
259.7354192311696011
  0
ARC
  5
332B4
  8
0
 10
6556.3577391550406901
 20
411.2747639714503975
 30
0.0
 40
26.8233679995152414
 50
206.9799438147275055
 51
217.8453154376447003
  0
ARC
  5
332B5
  8
0
 10
6532.3503445094847848
 20
399.0455105716598041
 30
0.0
 40
0.1195263934487367
 50
30.1677155693959804
 51
85.2837657144682453
  0
ARC
  5
332B6
  8
0
 10
6540.1023859135129896
 20
393.3386653137009148
 30
0.0
 40
0.1170226335900707
 50
4.9005215345593376
 51
81.6717726299787756
  0
LINE
  5
332B7
  8
0
 10
6540.1193359028484338
 20
393.4544538910042206
 30
0.0
 11
6540.5380926377938522
 21
393.4544538910042206
 31
0.0
  0
ENDSEC
  0
EOF
