  0
SECTION
  2
HEADER
  9
$ACADVER
  1
AC1009
  9
$INSBASE
 10
6582.4700881422013481
 20
398.8886563199556008
 30
0.0
  9
$EXTMIN
 10
6561.8889730062473973
 20
391.53365513577819
 30
-0.0000000000000058
  9
$EXTMAX
 10
6582.9824731972867085
 20
399.5200316229805253
 30
0.0000000000000104
  9
$LIMMIN
 10
0.0
 20
0.0
  9
$LIMMAX
 10
11.6929133858000007
 20
8.2677165353999982
  9
$ORTHOMODE
 70
     0
  9
$REGENMODE
 70
     1
  9
$FILLMODE
 70
     1
  9
$QTEXTMODE
 70
     0
  9
$MIRRTEXT
 70
     0
  9
$DRAGMODE
 70
     2
  9
$LTSCALE
 40
0.6431102362
  9
$OSMODE
 70
  4095
  9
$ATTMODE
 70
     1
  9
$TEXTSIZE
 40
0.2
  9
$TRACEWID
 40
0.05
  9
$TEXTSTYLE
  7
STANDARD
  9
$CLAYER
  8
0
  9
$CELTYPE
  6
BYLAYER
  9
$CECOLOR
 62
   256
  9
$DIMSCALE
 40
1.0
  9
$DIMASZ
 40
0.1875
  9
$DIMEXO
 40
0.0625
  9
$DIMDLI
 40
0.4443307087
  9
$DIMRND
 40
0.0
  9
$DIMDLE
 40
0.0
  9
$DIMEXE
 40
0.125
  9
$DIMTP
 40
0.01
  9
$DIMTM
 40
0.01
  9
$DIMTXT
 40
2.0
  9
$DIMCEN
 40
0.1052362205
  9
$DIMTSZ
 40
0.0
  9
$DIMTOL
 70
     1
  9
$DIMLIM
 70
     0
  9
$DIMTIH
 70
     1
  9
$DIMTOH
 70
     1
  9
$DIMSE1
 70
     0
  9
$DIMSE2
 70
     0
  9
$DIMTAD
 70
     0
  9
$DIMZIN
 70
     0
  9
$DIMBLK
  1

  9
$DIMASO
 70
     1
  9
$DIMSHO
 70
     1
  9
$DIMPOST
  1
\X
  9
$DIMAPOST
  1

  9
$DIMALT
 70
     1
  9
$DIMALTD
 70
     2
  9
$DIMALTF
 40
25.3999999999999986
  9
$DIMLFAC
 40
1.0
  9
$DIMTOFL
 70
     0
  9
$DIMTVP
 40
0.0
  9
$DIMTIX
 70
     0
  9
$DIMSOXD
 70
     0
  9
$DIMSAH
 70
     0
  9
$DIMBLK1
  1

  9
$DIMBLK2
  1

  9
$DIMSTYLE
  2
STANDARD
  9
$DIMCLRD
 70
     0
  9
$DIMCLRE
 70
     0
  9
$DIMCLRT
 70
     0
  9
$DIMTFAC
 40
1.0
  9
$DIMGAP
 40
0.09
  9
$LUNITS
 70
     2
  9
$LUPREC
 70
     4
  9
$SKETCHINC
 40
0.1
  9
$FILLETRAD
 40
0.0
  9
$AUNITS
 70
     0
  9
$AUPREC
 70
     0
  9
$MENU
  1
.
  9
$ELEVATION
 40
0.0
  9
$PELEVATION
 40
0.0
  9
$THICKNESS
 40
0.0
  9
$LIMCHECK
 70
     0
  9
$BLIPMODE
 70
     0
  9
$CHAMFERA
 40
0.0
  9
$CHAMFERB
 40
0.0
  9
$SKPOLY
 70
     0
  9
$TDCREATE
 40
2458060.468368056230247
  9
$TDUPDATE
 40
2460577.5245138891041279
  9
$TDINDWG
 40
0.7475649306
  9
$TDUSRTIMER
 40
0.7475649306
  9
$USRTIMER
 70
     1
  9
$ANGBASE
 50
0.0
  9
$ANGDIR
 70
     0
  9
$PDMODE
 70
     0
  9
$PDSIZE
 40
0.3125
  9
$PLINEWID
 40
0.0
  9
$COORDS
 70
     1
  9
$SPLFRAME
 70
     0
  9
$SPLINETYPE
 70
     6
  9
$SPLINESEGS
 70
     8
  9
$ATTDIA
 70
     1
  9
$ATTREQ
 70
     1
  9
$HANDLING
 70
     1
  9
$HANDSEED
  5
333E8
  9
$SURFTAB1
 70
     6
  9
$SURFTAB2
 70
     6
  9
$SURFTYPE
 70
     6
  9
$SURFU
 70
     6
  9
$SURFV
 70
     6
  9
$UCSNAME
  2

  9
$UCSORG
 10
0.0
 20
0.0
 30
0.0
  9
$UCSXDIR
 10
1.0
 20
0.0
 30
0.0
  9
$UCSYDIR
 10
0.0
 20
1.0
 30
0.0
  9
$PUCSNAME
  2

  9
$PUCSORG
 10
0.0
 20
0.0
 30
0.0
  9
$PUCSXDIR
 10
1.0
 20
0.0
 30
0.0
  9
$PUCSYDIR
 10
0.0
 20
1.0
 30
0.0
  9
$USERI1
 70
     0
  9
$USERI2
 70
     0
  9
$USERI3
 70
     0
  9
$USERI4
 70
     0
  9
$USERI5
 70
     0
  9
$USERR1
 40
0.0
  9
$USERR2
 40
0.0
  9
$USERR3
 40
0.0
  9
$USERR4
 40
0.0
  9
$USERR5
 40
0.0
  9
$WORLDVIEW
 70
     1
  9
$SHADEDGE
 70
     3
  9
$SHADEDIF
 70
    70
  9
$TILEMODE
 70
     1
  9
$MAXACTVP
 70
    64
  9
$PLIMCHECK
 70
     0
  9
$PEXTMIN
 10
1.0000000000000000E+20
 20
1.0000000000000000E+20
 30
1.0000000000000000E+20
  9
$PEXTMAX
 10
-1.0000000000000000E+20
 20
-1.0000000000000000E+20
 30
-1.0000000000000000E+20
  9
$PLIMMIN
 10
0.0
 20
0.0
  9
$PLIMMAX
 10
12.0
 20
9.0
  9
$UNITMODE
 70
     0
  9
$VISRETAIN
 70
     1
  9
$PLINEGEN
 70
     0
  9
$PSLTSCALE
 70
     1
  0
ENDSEC
  0
SECTION
  2
TABLES
  0
TABLE
  2
VPORT
 70
     1
  0
VPORT
  2
*ACTIVE
 70
     0
 10
0.0
 20
0.0
 11
1.0
 21
1.0
 12
2661.0703666564550076
 22
262.9472382768403236
 13
0.0
 23
0.0
 14
1.0
 24
1.0
 15
0.0
 25
0.0
 16
0.0
 26
0.0
 36
60.4960186965801583
 17
3911.3653564453120453
 27
132.5796051025390057
 37
0.0
 40
8.2689564847385313
 41
2.558981233243967
 42
50.0
 43
0.0
 44
0.0
 50
0.0
 51
0.0
 71
     0
 72
   100
 73
     1
 74
     1
 75
     0
 76
     0
 77
     0
 78
     0
  0
ENDTAB
  0
TABLE
  2
LTYPE
 70
     2
  0
LTYPE
  2
CONTINUOUS
 70
     0
  3
Solid line
 72
    65
 73
     0
 40
0.0
  0
LTYPE
  2
PHANTOM2
 70
     0
  3
___ _ _ ___ _ _ ___ _ _ ___ _ _
 72
    65
 73
     6
 40
1.25
 49
0.625
 49
-0.125
 49
0.125
 49
-0.125
 49
0.125
 49
-0.125
  0
ENDTAB
  0
TABLE
  2
LAYER
 70
     2
  0
LAYER
  2
0
 70
     0
 62
   255
  6
CONTINUOUS
  0
LAYER
  2
DEFPOINTS
 70
     0
 62
     7
  6
CONTINUOUS
  0
ENDTAB
  0
TABLE
  2
STYLE
 70
     1
  0
STYLE
  2
STANDARD
 70
     0
 40
0.0
 41
0.8
 50
0.0
 71
     0
 42
0.2
  3
txt
  4

  0
ENDTAB
  0
TABLE
  2
VIEW
 70
     2
  0
ENDTAB
  0
TABLE
  2
UCS
 70
     0
  0
ENDTAB
  0
TABLE
  2
APPID
 70
    11
  0
APPID
  2
ACAD
 70
     0
  0
APPID
  2
ACAD_MLEADERVER
 70
     0
  0
APPID
  2
ACAD_EXEMPT_FROM_CAD_STANDARDS
 70
     0
  0
APPID
  2
ACAD_NAV_VCDISPLAY
 70
     0
  0
APPID
  2
ACAECLAYERSTANDARD
 70
     0
  0
APPID
  2
ACCMTRANSPARENCY
 70
     0
  0
APPID
  2
ACAD_DSTYLE_DIMJAG
 70
     0
  0
APPID
  2
ACAD_DSTYLE_DIMTALN
 70
     0
  0
APPID
  2
ACDBATTR
 70
     0
  0
APPID
  2
ACADANNOTATIVE
 70
     0
  0
APPID
  2
DCO15
 70
     0
  0
ENDTAB
  0
TABLE
  2
DIMSTYLE
 70
     1
  0
DIMSTYLE
  2
STANDARD
 70
     0
  3

  4

  5

  6

  7

 40
1.0
 41
0.1875
 42
0.0625
 43
0.38
 44
0.125
 45
0.0
 46
0.0
 47
0.01
 48
0.01
140
0.15625
141
0.09
142
0.0
143
25.3999999999999986
144
1.0
145
0.0
146
1.0
147
0.09
 71
     1
 72
     0
 73
     1
 74
     1
 75
     0
 76
     0
 77
     0
 78
     4
170
     0
171
     2
172
     0
173
     0
174
     0
175
     0
176
     0
177
     0
178
     0
  0
ENDTAB
  0
ENDSEC
  0
SECTION
  2
BLOCKS
  0
BLOCK
  8
0
  2
$MODEL_SPACE
 70
     0
 10
0.0
 20
0.0
 30
0.0
  3
$MODEL_SPACE
  1

  0
ENDBLK
  5
21
  8
0
  0
BLOCK
 67
     1
  8
0
  2
$PAPER_SPACE
 70
     0
 10
0.0
 20
0.0
 30
0.0
  3
$PAPER_SPACE
  1

  0
ENDBLK
  5
1D
 67
     1
  8
0
  0
BLOCK
  8
0
  2
_FILLED
 70
     0
 10
0.0
 20
0.0
 30
0.0
  3
_FILLED
  1

  0
SOLID
  5
332FF
  8
0
  6
BYBLOCK
 62
     0
 10
0.0
 20
0.0
 30
0.0
 11
-1.0
 21
0.1666666667
 31
0.0
 12
-1.0
 22
-0.1666666667
 32
0.0
 13
-1.0
 23
-0.1666666667
 33
0.0
  0
ENDBLK
  5
33300
  8
0
  6
BYBLOCK
 62
     0
  0
ENDSEC
  0
SECTION
  2
ENTITIES
  0
ATTDEF
  5
2842F
  8
DEFPOINTS
 10
6582.4708780514947648
 20
398.8894348355735815
 30
0.0
 40
0.001
  1
K-30789X-1
  3

  2
MODELNUMBER
 70
     0
1001
ACDBATTR
1070
     0
1070
     1
  0
ATTDEF
  5
28430
  8
DEFPOINTS
 10
6582.4707522418384542
 20
398.8877679951943946
 30
0.0
 40
0.001
  1
ESSENTIAL
  3

  2
TRADENAME
 70
     0
1001
ACDBATTR
1070
     0
1070
     1
  0
ATTDEF
  5
28431
  8
DEFPOINTS
 10
6582.4708780514947648
 20
398.8861015022401943
 30
0.0
 40
0.001
  1
BATHROOM SINK
  3

  2
PRODUCT
 70
     0
1001
ACDBATTR
1070
     0
1070
     1
  0
LINE
  5
33324
  8
0
 10
6562.5906949457148585
 20
399.5185775798556165
 30
0.0
 11
6582.2057787660087342
 21
399.5185775798556165
 31
0.0
  0
LINE
  5
33325
  8
0
 10
6562.3263855695031452
 20
398.8886563199557145
 30
0.0
 11
6582.4700881422013481
 21
398.8886563199556008
 31
0.0
  0
LINE
  5
33326
  8
0
 10
6562.3632636961410753
 20
399.3101752359402781
 30
0.0
 11
6562.3263855695031452
 21
398.8886563199556008
 31
0.0
  0
LINE
  5
33327
  8
0
 10
6572.4415622419437568
 20
391.5542501092556904
 30
0.0
 11
6575.1861817931630867
 21
391.5542501092556904
 31
0.0
  0
ARC
  5
33328
  8
0
 10
6562.5906949457148585
 20
399.2902775798556263
 30
0.0
 40
0.2283
 50
90.0
 51
174.9999999961187029
  0
LINE
  5
33329
  8
0
 10
6582.4332100155806984
 20
399.3101752359310126
 30
0.0
 11
6582.4700881422013481
 21
398.8886563199556008
 31
0.0
  0
ARC
  5
3332A
  8
0
 10
6582.2057787660087342
 20
399.2902775798556263
 30
0.0
 40
0.2283
 50
5.0000000015206378
 51
90.0
  0
LINE
  5
3332B
  8
0
 10
6575.4324006368033224
 20
393.1315988357557103
 30
0.0
 11
6575.303832387006878
 21
391.6620570160376928
 31
0.0
  0
LINE
  5
3332C
  8
0
 10
6576.4910761497021667
 20
394.1304988141556009
 30
0.0
 11
6577.7425559825542223
 21
398.8010851191983193
 31
0.0
  0
ARC
  5
3332D
  8
0
 10
6571.8269298500754303
 20
399.2383586675916263
 30
0.0
 40
7.2370390714829886
 50
183.6566779837959018
 51
212.5698189960826028
  0
ARC
  5
3332E
  8
0
 10
6573.0999953114724121
 20
400.0515722326036894
 30
0.0
 40
8.747672041901799
 50
212.5698122950859954
 51
228.7722453434830072
  0
ARC
  5
3332F
  8
0
 10
6570.8349887776366813
 20
397.4668035531711894
 30
0.0
 40
5.3109172172893766
 50
228.7722453434830072
 51
256.6357814571466065
  0
ARC
  5
33330
  8
0
 10
6571.9208734533358438
 20
402.0375301463154187
 30
0.0
 40
10.0088622061328092
 50
256.6357814571466065
 51
267.2815275069308996
  0
ARC
  5
33331
  8
0
 10
6574.737306202405307
 20
461.3534153891031906
 30
0.0
 40
69.3915746363140755
 50
267.2815275069308996
 51
267.8391625876549824
  0
ARC
  5
33332
  8
0
 10
6572.1133657618920552
 20
391.8111964701283796
 30
0.0
 40
0.2001294354357137
 50
5.8343741558984803
 51
87.8391625876549966
  0
ARC
  5
33333
  8
0
 10
6566.5000059385311033
 20
391.2376095260078159
 30
0.0
 40
5.8427184235679261
 50
4.1660449670564441
 51
5.8343741558984803
  0
ARC
  5
33334
  8
0
 10
6572.4432546048237782
 20
391.6705134554590018
 30
0.0
 40
0.1162756628126396
 50
184.1660449670629021
 51
269.1660449668888191
  0
ARC
  5
33335
  8
0
 10
6575.5208058446860377
 20
394.2126111048983148
 30
0.0
 40
0.9737386164103536
 50
271.204581465082299
 51
355.1626839123838977
  0
ARC
  5
33336
  8
0
 10
6575.5500946485726672
 20
393.1212709605824784
 30
0.0
 40
0.1181462881852659
 50
94.2805754722992333
 51
174.9850315940570908
  0
ARC
  5
33337
  8
0
 10
6573.4997921686435802
 20
428.5952575806808227
 30
0.0
 40
35.4150590409958781
 50
268.7175642451364865
 51
273.3046193950244742
  0
ARC
  5
33338
  8
0
 10
6573.088793539262042
 20
410.2353451711878165
 30
0.0
 40
17.0505469713233886
 50
261.6137480001211202
 51
268.7175141685963808
  0
ARC
  5
33339
  8
0
 10
6571.8095498785623931
 20
401.5579169469074827
 30
0.0
 40
8.2793312670450874
 50
248.6276609600118093
 51
261.6137480001211202
  0
ARC
  5
3333A
  8
0
 10
6570.6159235568238728
 20
397.2443674546677244
 30
0.0
 40
3.8550216632877481
 50
207.775780950138909
 51
241.7680510404163101
  0
ARC
  5
3333B
  8
0
 10
6617.8272823115412393
 20
423.2868042761165839
 30
0.0
 40
57.7720749682081731
 50
205.0516963146328067
 51
208.8079411212808907
  0
ARC
  5
3333C
  8
0
 10
6565.3697289325800739
 20
398.7460682738993114
 30
0.0
 40
0.1433765663282271
 50
32.9434664053561974
 51
83.9882042948999441
  0
ARC
  5
3333D
  8
0
 10
6564.4866797930662869
 20
398.7705461399880846
 30
0.0
 40
0.1181101838290528
 50
3.0335283785105931
 51
90.014651033103533
  0
ARC
  5
3333E
  8
0
 10
6577.8569836023134485
 20
398.7702779102341992
 30
0.0
 40
0.1185021699728812
 50
92.6188032698638466
 51
164.9316178808574023
  0
ARC
  5
3333F
  8
0
 10
6575.1861817931630867
 20
391.6723501092556035
 30
0.0
 40
0.1181
 50
270.0
 51
355.0000000002709726
  0
ARC
  5
33341
  8
0
 10
6570.707062217591556
 20
393.4322303174216131
 30
0.0
 40
2.0045807179459989
 50
314.8545357032213019
 51
340.4853393555493994
  0
ARC
  5
33342
  8
0
 10
6571.6164505197830294
 20
393.1102707304506794
 30
0.0
 40
1.0398813506723801
 50
340.4680146732010257
 51
4.4172797272222271
  0
ENDSEC
  0
EOF
