  0
SECTION
  2
HEADER
  9
$ACADVER
  1
AC1009
  9
$INSBASE
 10
3910.5181825076610949
 20
84.0002907838225497
 30
0.0
  9
$EXTMIN
 10
3902.8189577019998069
 20
69.8020495895167983
 30
-0.0000000000112498
  9
$EXTMAX
 10
3918.3637450556129807
 20
84.0116562632741051
 30
0.0000000000002956
  9
$LIMMIN
 10
0.0
 20
0.0
  9
$LIMMAX
 10
11.6929133858000007
 20
8.2677165353999982
  9
$ORTHOMODE
 70
     0
  9
$REGENMODE
 70
     1
  9
$FILLMODE
 70
     1
  9
$QTEXTMODE
 70
     0
  9
$MIRRTEXT
 70
     0
  9
$DRAGMODE
 70
     2
  9
$LTSCALE
 40
0.6431102362
  9
$OSMODE
 70
  4095
  9
$ATTMODE
 70
     1
  9
$TEXTSIZE
 40
0.2
  9
$TRACEWID
 40
0.05
  9
$TEXTSTYLE
  7
STANDARD
  9
$CLAYER
  8
0
  9
$CELTYPE
  6
BYLAYER
  9
$CECOLOR
 62
   256
  9
$DIMSCALE
 40
1.0
  9
$DIMASZ
 40
0.1875
  9
$DIMEXO
 40
0.0625
  9
$DIMDLI
 40
0.4443307087
  9
$DIMRND
 40
0.0
  9
$DIMDLE
 40
0.0
  9
$DIMEXE
 40
0.125
  9
$DIMTP
 40
0.01
  9
$DIMTM
 40
0.01
  9
$DIMTXT
 40
2.0
  9
$DIMCEN
 40
0.1052362205
  9
$DIMTSZ
 40
0.0
  9
$DIMTOL
 70
     1
  9
$DIMLIM
 70
     0
  9
$DIMTIH
 70
     1
  9
$DIMTOH
 70
     1
  9
$DIMSE1
 70
     0
  9
$DIMSE2
 70
     0
  9
$DIMTAD
 70
     0
  9
$DIMZIN
 70
     0
  9
$DIMBLK
  1

  9
$DIMASO
 70
     1
  9
$DIMSHO
 70
     1
  9
$DIMPOST
  1
\X
  9
$DIMAPOST
  1

  9
$DIMALT
 70
     1
  9
$DIMALTD
 70
     2
  9
$DIMALTF
 40
25.3999999999999986
  9
$DIMLFAC
 40
1.0
  9
$DIMTOFL
 70
     0
  9
$DIMTVP
 40
0.0
  9
$DIMTIX
 70
     0
  9
$DIMSOXD
 70
     0
  9
$DIMSAH
 70
     0
  9
$DIMBLK1
  1

  9
$DIMBLK2
  1

  9
$DIMSTYLE
  2
STANDARD
  9
$DIMCLRD
 70
     0
  9
$DIMCLRE
 70
     0
  9
$DIMCLRT
 70
     0
  9
$DIMTFAC
 40
1.0
  9
$DIMGAP
 40
0.09
  9
$LUNITS
 70
     2
  9
$LUPREC
 70
     4
  9
$SKETCHINC
 40
0.1
  9
$FILLETRAD
 40
0.0
  9
$AUNITS
 70
     0
  9
$AUPREC
 70
     0
  9
$MENU
  1
.
  9
$ELEVATION
 40
0.0
  9
$PELEVATION
 40
0.0
  9
$THICKNESS
 40
0.0
  9
$LIMCHECK
 70
     0
  9
$BLIPMODE
 70
     0
  9
$CHAMFERA
 40
0.0
  9
$CHAMFERB
 40
0.0
  9
$SKPOLY
 70
     0
  9
$TDCREATE
 40
2458060.468368056230247
  9
$TDUPDATE
 40
2460454.5979282408952713
  9
$TDINDWG
 40
0.4985140046
  9
$TDUSRTIMER
 40
0.4985140046
  9
$USRTIMER
 70
     1
  9
$ANGBASE
 50
0.0
  9
$ANGDIR
 70
     0
  9
$PDMODE
 70
     0
  9
$PDSIZE
 40
0.3125
  9
$PLINEWID
 40
0.0
  9
$COORDS
 70
     1
  9
$SPLFRAME
 70
     0
  9
$SPLINETYPE
 70
     6
  9
$SPLINESEGS
 70
     8
  9
$ATTDIA
 70
     1
  9
$ATTREQ
 70
     1
  9
$HANDLING
 70
     1
  9
$HANDSEED
  5
FC8D
  9
$SURFTAB1
 70
     6
  9
$SURFTAB2
 70
     6
  9
$SURFTYPE
 70
     6
  9
$SURFU
 70
     6
  9
$SURFV
 70
     6
  9
$UCSNAME
  2

  9
$UCSORG
 10
0.0
 20
0.0
 30
0.0
  9
$UCSXDIR
 10
1.0
 20
0.0
 30
0.0
  9
$UCSYDIR
 10
0.0
 20
1.0
 30
0.0
  9
$PUCSNAME
  2

  9
$PUCSORG
 10
0.0
 20
0.0
 30
0.0
  9
$PUCSXDIR
 10
1.0
 20
0.0
 30
0.0
  9
$PUCSYDIR
 10
0.0
 20
1.0
 30
0.0
  9
$USERI1
 70
     0
  9
$USERI2
 70
     0
  9
$USERI3
 70
     0
  9
$USERI4
 70
     0
  9
$USERI5
 70
     0
  9
$USERR1
 40
0.0
  9
$USERR2
 40
0.0
  9
$USERR3
 40
0.0
  9
$USERR4
 40
0.0
  9
$USERR5
 40
0.0
  9
$WORLDVIEW
 70
     1
  9
$SHADEDGE
 70
     3
  9
$SHADEDIF
 70
    70
  9
$TILEMODE
 70
     1
  9
$MAXACTVP
 70
    64
  9
$PLIMCHECK
 70
     0
  9
$PEXTMIN
 10
1.0000000000000000E+20
 20
1.0000000000000000E+20
 30
1.0000000000000000E+20
  9
$PEXTMAX
 10
-1.0000000000000000E+20
 20
-1.0000000000000000E+20
 30
-1.0000000000000000E+20
  9
$PLIMMIN
 10
0.0
 20
0.0
  9
$PLIMMAX
 10
12.0
 20
9.0
  9
$UNITMODE
 70
     0
  9
$VISRETAIN
 70
     1
  9
$PLINEGEN
 70
     0
  9
$PSLTSCALE
 70
     1
  0
ENDSEC
  0
SECTION
  2
TABLES
  0
TABLE
  2
VPORT
 70
     1
  0
VPORT
  2
*ACTIVE
 70
     0
 10
0.0
 20
0.0
 11
1.0
 21
1.0
 12
81.2635925897438938
 22
-13.9861905916709599
 13
0.0
 23
0.0
 14
1.0
 24
1.0
 15
0.0
 25
0.0
 16
0.0
 26
0.0
 36
327.1425206445442768
 17
3829.3277587890629547
 27
90.8930435180664063
 37
0.0
 40
14.3054017749286899
 41
2.136107986501687
 42
50.0
 43
0.0
 44
0.0
 50
0.0
 51
0.0
 71
     0
 72
   100
 73
     1
 74
     1
 75
     0
 76
     0
 77
     0
 78
     1
  0
ENDTAB
  0
TABLE
  2
LTYPE
 70
     2
  0
LTYPE
  2
CONTINUOUS
 70
     0
  3
Solid line
 72
    65
 73
     0
 40
0.0
  0
LTYPE
  2
PHANTOM2
 70
     0
  3
___ _ _ ___ _ _ ___ _ _ ___ _ _
 72
    65
 73
     6
 40
1.25
 49
0.625
 49
-0.125
 49
0.125
 49
-0.125
 49
0.125
 49
-0.125
  0
ENDTAB
  0
TABLE
  2
LAYER
 70
     2
  0
LAYER
  2
0
 70
     0
 62
   255
  6
CONTINUOUS
  0
LAYER
  2
DEFPOINTS
 70
     0
 62
     7
  6
CONTINUOUS
  0
ENDTAB
  0
TABLE
  2
STYLE
 70
     1
  0
STYLE
  2
STANDARD
 70
     0
 40
0.0
 41
0.8
 50
0.0
 71
     0
 42
0.2
  3
txt
  4

  0
ENDTAB
  0
TABLE
  2
VIEW
 70
     0
  0
ENDTAB
  0
TABLE
  2
UCS
 70
     0
  0
ENDTAB
  0
TABLE
  2
APPID
 70
    10
  0
APPID
  2
ACAD
 70
     0
  0
APPID
  2
ACAD_MLEADERVER
 70
     0
  0
APPID
  2
ACAD_EXEMPT_FROM_CAD_STANDARDS
 70
     0
  0
APPID
  2
ACAD_NAV_VCDISPLAY
 70
     0
  0
APPID
  2
ACAECLAYERSTANDARD
 70
     0
  0
APPID
  2
ACCMTRANSPARENCY
 70
     0
  0
APPID
  2
ACAD_DSTYLE_DIMJAG
 70
     0
  0
APPID
  2
ACAD_DSTYLE_DIMTALN
 70
     0
  0
APPID
  2
ACDBATTR
 70
     0
  0
APPID
  2
ACAD_DSTYLE_DIMRADIAL_EXTENSION
 70
     0
  0
ENDTAB
  0
TABLE
  2
DIMSTYLE
 70
     1
  0
DIMSTYLE
  2
STANDARD
 70
     0
  3

  4

  5

  6

  7

 40
1.0
 41
0.1875
 42
0.0625
 43
0.38
 44
0.125
 45
0.0
 46
0.0
 47
0.01
 48
0.01
140
0.15625
141
0.09
142
0.0
143
25.3999999999999986
144
1.0
145
0.0
146
1.0
147
0.09
 71
     1
 72
     0
 73
     1
 74
     1
 75
     0
 76
     0
 77
     0
 78
     4
170
     0
171
     2
172
     0
173
     0
174
     0
175
     0
176
     0
177
     0
178
     0
  0
ENDTAB
  0
ENDSEC
  0
SECTION
  2
BLOCKS
  0
BLOCK
  8
0
  2
$MODEL_SPACE
 70
     0
 10
0.0
 20
0.0
 30
0.0
  3
$MODEL_SPACE
  1

  0
ENDBLK
  5
21
  8
0
  0
BLOCK
 67
     1
  8
0
  2
$PAPER_SPACE
 70
     0
 10
0.0
 20
0.0
 30
0.0
  3
$PAPER_SPACE
  1

  0
ENDBLK
  5
1D
 67
     1
  8
0
  0
ENDSEC
  0
SECTION
  2
ENTITIES
  0
ATTDEF
  5
E40F
  8
DEFPOINTS
 10
3910.5144154350191457
 20
84.0045337681697362
 30
0.0
 40
0.001
  1
K-30897T-Y
  3

  2
MODELNUMBER
 70
     0
1001
ACDBATTR
1070
     0
1070
     1
  0
ATTDEF
  5
E410
  8
DEFPOINTS
 10
3910.5144154350191457
 20
84.0028671015030852
 30
0.0
 40
0.001
  1
PORTICO
  3

  2
TRADENAME
 70
     0
1001
ACDBATTR
1070
     0
1070
     1
  0
ATTDEF
  5
E411
  8
DEFPOINTS
 10
3910.5144154350191457
 20
84.0012004348364201
 30
0.0
 40
0.001
  1
URINAL
  3

  2
PRODUCT
 70
     0
1001
ACDBATTR
1070
     0
1070
     1
  0
LINE
  5
FB00
  8
0
 10
3902.8931823442180757
 20
77.9176340909225331
 30
0.0
 11
3902.8931823442180757
 21
77.7404277917225386
 31
0.0
  0
LINE
  5
FB01
  8
0
 10
3903.1293823442179018
 20
77.504227791722542
 30
0.0
 11
3917.9069826711020141
 21
77.504227791722542
 31
0.0
  0
LINE
  5
FB02
  8
0
 10
3917.9069826711020141
 20
78.153834090922544
 30
0.0
 11
3903.1293823442179018
 21
78.153834090922544
 31
0.0
  0
LINE
  5
FB03
  8
0
 10
3903.4493436462889804
 20
78.266782641274915
 30
0.0
 11
3903.6947425777480021
 21
83.8873422334701786
 31
0.0
  0
LINE
  5
FB04
  8
0
 10
3903.8127301727167833
 20
84.0002907838225497
 30
0.0
 11
3917.2236348426040422
 21
84.0002907838225497
 31
0.0
  0
ARC
  5
FB05
  8
0
 10
3910.6745838546130472
 20
74.2588258041206331
 30
0.0
 40
4.4548959050406118
 50
260.59293671588091
 51
267.9880609669716023
  0
ARC
  5
FB06
  8
0
 10
3910.5029652113062184
 20
72.9641586337991157
 30
0.0
 40
3.1498727727198812
 50
235.7654141168216029
 51
259.8234911221680932
  0
ARC
  5
FB07
  8
0
 10
3911.7173478489230547
 20
74.7487502540622586
 30
0.0
 40
5.3084585230801782
 50
217.3702008727329087
 51
235.7654141168216029
  0
ARC
  5
FB08
  8
0
 10
3915.4375973461510512
 20
77.590031082869416
 30
0.0
 40
9.9896050781205208
 50
206.2337783507049949
 51
217.3702008727329087
  0
ARC
  5
FB09
  8
0
 10
3923.8633924891669267
 20
81.7422081704627459
 30
0.0
 40
19.3829324097325006
 50
200.9150207964688946
 51
206.2337783507049949
  0
ARC
  5
FB0A
  8
0
 10
3914.98408895479497
 20
78.3488643350804068
 30
0.0
 40
9.8773123015744897
 50
193.5943505442853052
 51
200.9150207964688946
  0
ARC
  5
FB0B
  8
0
 10
3908.623369098485
 20
76.8107081205109239
 30
0.0
 40
3.333255331247492
 50
183.2369867464059041
 51
193.5943505442853052
  0
ARC
  5
FB0C
  8
0
 10
3896.8587324974628245
 20
76.1454117154809182
 30
0.0
 40
8.4501776855959481
 50
3.2365300679650262
 51
5.1076063132078007
  0
ARC
  5
FB0D
  8
0
 10
4004.4145691516118859
 20
85.7617335701968955
 30
0.0
 40
99.5346899814089312
 50
184.8895849880443052
 51
185.1092269818356897
  0
ARC
  5
FB0E
  8
0
 10
3904.9950553839830718
 20
77.256482160133487
 30
0.0
 40
0.2479690071217857
 50
4.9349622157314199
 51
87.5678557097961914
  0
LINE
  5
FB0F
  8
0
 10
3905.4322308971441089
 20
76.754227791722542
 30
0.0
 11
3915.6041341181758071
 21
76.754227791722542
 31
0.0
  0
ARC
  5
FB10
  8
0
 10
3905.4322308971441089
 20
76.9117277917225408
 30
0.0
 40
0.1575
 50
185.1092269818194893
 51
270.0
  0
ARC
  5
FB11
  8
0
 10
3910.7872750089732108
 20
74.8643760447993998
 30
0.0
 40
4.3038205098460347
 50
262.061420674857402
 51
266.4152948023847784
  0
ARC
  5
FB12
  8
0
 10
3910.5150409069588022
 20
72.5980160490331627
 30
0.0
 40
2.0220465792267781
 50
241.7014545365456115
 51
260.8319864048331738
  0
ARC
  5
FB13
  8
0
 10
3911.3599822336618672
 20
74.1673378250624751
 30
0.0
 40
3.804375584290784
 50
223.5114950434225136
 51
241.7014545365456115
  0
ARC
  5
FB14
  8
0
 10
3915.0316847639878688
 20
77.653053702217619
 30
0.0
 40
8.8671430732690251
 50
214.7561545642402052
 51
223.5114950434225136
  0
ARC
  5
FB15
  8
0
 10
3914.5563983393071794
 20
77.3232601476937589
 30
0.0
 40
8.2886441760427694
 50
201.8196231485893861
 51
214.7561545642402052
  0
ARC
  5
FB16
  8
0
 10
3923.7736073204769127
 20
81.0135430230701843
 30
0.0
 40
18.217145024754231
 50
197.0434987035314975
 51
201.8196231485893861
  0
ARC
  5
FB17
  8
0
 10
3914.8917953023310474
 20
78.2907255566864251
 30
0.0
 40
8.9273484887185255
 50
193.8731848426899944
 51
197.0434987035307017
  0
ARC
  5
FB18
  8
0
 10
3914.4094272133838786
 20
78.1863655325851141
 30
0.0
 40
8.4340410600507081
 50
189.7764498228179093
 51
193.9706257458541074
  0
ARC
  5
FB19
  8
0
 10
3919.7900624953549595
 20
81.9632319033707262
 30
0.0
 40
13.4506032273012401
 50
202.7846863040134906
 51
214.2521226215357046
  0
ARC
  5
FB1A
  8
0
 10
3912.1950588600798255
 20
76.7915661724501319
 30
0.0
 40
4.2620121137392797
 50
214.2521226215357046
 51
232.2539958300015996
  0
ARC
  5
FB1B
  8
0
 10
3910.3847304804021405
 20
74.453157795759239
 30
0.0
 40
1.3047426673672839
 50
232.2539958300015996
 51
256.9259358533204818
  0
ARC
  5
FB1C
  8
0
 10
3909.7697765930070091
 20
74.3714852985915513
 30
0.0
 40
1.231499331639774
 50
249.670904232686695
 51
285.0516429818338793
  0
ARC
  5
FB1D
  8
0
 10
3910.2589523028418625
 20
75.7399507286134934
 30
0.0
 40
2.6847241421788488
 50
227.3839634902799105
 51
250.0276261262081903
  0
ARC
  5
FB1E
  8
0
 10
3913.7728878307539162
 20
79.4150314273180129
 30
0.0
 40
7.7690794667314371
 50
200.0284282732411896
 51
226.6641519461612972
  0
ARC
  5
FB1F
  8
0
 10
3903.3313560513201992
 20
78.2719340909225707
 30
0.0
 40
0.1181
 50
270.0
 51
357.500000000098396
  0
ARC
  5
FB20
  8
0
 10
3903.1293823442179018
 20
77.9176340909225331
 30
0.0
 40
0.2362
 50
90.0
 51
179.9999999999984084
  0
ARC
  5
FB21
  8
0
 10
3903.1293823442179018
 20
77.7404277917225386
 30
0.0
 40
0.2362
 50
179.9999999999984084
 51
270.0
  0
ARC
  5
FB22
  8
0
 10
3903.8127301727167833
 20
83.8821907838225229
 30
0.0
 40
0.1181
 50
90.0
 51
177.5000000000935074
  0
LINE
  5
FB23
  8
0
 10
3918.1431826711018402
 20
77.9176340909225331
 30
0.0
 11
3918.1431826711018402
 21
77.7404277917225386
 31
0.0
  0
LINE
  5
FB24
  8
0
 10
3917.5870213690318451
 20
78.266782641274915
 30
0.0
 11
3917.3416224375719139
 21
83.8873422334701786
 31
0.0
  0
ARC
  5
FB25
  8
0
 10
3910.3617811607077783
 20
74.2588258041205336
 30
0.0
 40
4.4548959050405204
 50
272.0119390330283977
 51
279.4070632841189763
  0
ARC
  5
FB26
  8
0
 10
3910.5333998040141523
 20
72.9641586337991157
 30
0.0
 40
3.1498727727198812
 50
280.1765088778319068
 51
304.2345858831783971
  0
ARC
  5
FB27
  8
0
 10
3909.3190171663968613
 20
74.7487502540622586
 30
0.0
 40
5.3084585230801782
 50
304.2345858831783971
 51
322.6297991272664945
  0
ARC
  5
FB28
  8
0
 10
3905.5987676691697743
 20
77.590031082869416
 30
0.0
 40
9.9896050781205208
 50
322.6297991272664945
 51
333.7662216492950051
  0
ARC
  5
FB29
  8
0
 10
3897.1729725261529893
 20
81.7422081704627459
 30
0.0
 40
19.3829324097325006
 50
333.7662216492950051
 51
339.084979203531077
  0
ARC
  5
FB2A
  8
0
 10
3906.0522760605240364
 20
78.3488643350804068
 30
0.0
 40
9.8773123015744897
 50
339.084979203531077
 51
346.4056494557146948
  0
ARC
  5
FB2B
  8
0
 10
3912.412995916834916
 20
76.8107081205109239
 30
0.0
 40
3.333255331247492
 50
346.4056494557146948
 51
356.7630132535941243
  0
ARC
  5
FB2C
  8
0
 10
3924.1776325178570914
 20
76.1454117154809182
 30
0.0
 40
8.4501776855959481
 50
174.8923936867921896
 51
176.763469932035008
  0
ARC
  5
FB2D
  8
0
 10
3816.6217958637071206
 20
85.7617335701968955
 30
0.0
 40
99.5346899814089312
 50
354.890773018164225
 51
355.1104150119556948
  0
ARC
  5
FB2E
  8
0
 10
3916.0413096313368442
 20
77.256482160133487
 30
0.0
 40
0.2479690071217857
 50
92.4321442902038086
 51
175.0650377842686112
  0
ARC
  5
FB2F
  8
0
 10
3915.6041341181758071
 20
76.9117277917225408
 30
0.0
 40
0.1575
 50
270.0
 51
354.8907730181804254
  0
ARC
  5
FB30
  8
0
 10
3910.2490900063471599
 20
74.8643760448053399
 30
0.0
 40
4.3038205098520068
 50
273.5847051976151079
 51
277.9385793251427117
  0
ARC
  5
FB31
  8
0
 10
3910.5213241083620233
 20
72.5980160490331627
 30
0.0
 40
2.0220465792267781
 50
279.1680135951668262
 51
298.2985454634543885
  0
ARC
  5
FB32
  8
0
 10
3909.6763827816580488
 20
74.1673378250624751
 30
0.0
 40
3.804375584290784
 50
298.2985454634543885
 51
316.4885049565774011
  0
ARC
  5
FB33
  8
0
 10
3906.0046802513311377
 20
77.653053702217619
 30
0.0
 40
8.8671430732690251
 50
316.4885049565774011
 51
325.2438454357591127
  0
ARC
  5
FB34
  8
0
 10
3906.4799666760131913
 20
77.3232601476937589
 30
0.0
 40
8.2886441760427694
 50
325.2438454357591127
 51
338.1803768514106991
  0
ARC
  5
FB35
  8
0
 10
3897.2627576948430033
 20
81.0135430230701843
 30
0.0
 40
18.217145024754231
 50
338.1803768514106991
 51
342.9565012964685025
  0
ARC
  5
FB36
  8
0
 10
3906.1445697129888686
 20
78.2907255566864251
 30
0.0
 40
8.9273484887185255
 50
342.9565012964692983
 51
346.1268151573099772
  0
ARC
  5
FB37
  8
0
 10
3906.6269378019369469
 20
78.1863655325851141
 30
0.0
 40
8.4340410600507081
 50
346.029374254145921
 51
350.2235501771821191
  0
ARC
  5
FB38
  8
0
 10
3901.2463025199649564
 20
81.9632319033707262
 30
0.0
 40
13.4506032273012401
 50
325.7478773784642954
 51
337.2153136959865947
  0
ARC
  5
FB39
  8
0
 10
3908.8413061552409999
 20
76.7915661724501319
 30
0.0
 40
4.2620121137392797
 50
307.7460041699984004
 51
325.7478773784642954
  0
ARC
  5
FB3A
  8
0
 10
3910.6516345349177755
 20
74.453157795759239
 30
0.0
 40
1.3047426673672839
 50
283.0740641466795182
 51
307.7460041699984004
  0
ARC
  5
FB3B
  8
0
 10
3911.2665884223129069
 20
74.3714852985915513
 30
0.0
 40
1.231499331639774
 50
254.948357018166007
 51
290.3290957673132766
  0
ARC
  5
FB3C
  8
0
 10
3910.7774127124789629
 20
75.7399507286134934
 30
0.0
 40
2.6847241421788488
 50
289.9723738737918097
 51
312.6160365097201179
  0
ARC
  5
FB3D
  8
0
 10
3907.2634771845659998
 20
79.4150314273180129
 30
0.0
 40
7.7690794667314371
 50
313.3358480538386743
 51
339.971571726758782
  0
ARC
  5
FB3E
  8
0
 10
3917.705008964001081
 20
78.2719340909225707
 30
0.0
 40
0.1181
 50
182.4999999999014904
 51
270.0
  0
ARC
  5
FB3F
  8
0
 10
3917.9069826711020141
 20
77.9176340909225331
 30
0.0
 40
0.2362
 50
0.0000000000016284
 51
90.0
  0
ARC
  5
FB40
  8
0
 10
3917.9069826711020141
 20
77.7404277917225386
 30
0.0
 40
0.2362
 50
270.0
 51
0.0000000000016284
  0
ARC
  5
FB41
  8
0
 10
3917.2236348426040422
 20
83.8821907838225229
 30
0.0
 40
0.1181
 50
2.499999999906505
 51
90.0
  0
ENDSEC
  0
EOF
