  0
SECTION
  2
HEADER
  9
$ACADVER
  1
AC1009
  9
$INSBASE
 10
6504.7451149452572281
 20
385.2825439455587002
 30
0.0
  9
$EXTMIN
 10
6484.1184210835053818
 20
377.9346530026555229
 30
-0.0000000000112498
  9
$EXTMAX
 10
6504.9619241839864117
 20
385.9140450804219995
 30
0.0000000000002956
  9
$LIMMIN
 10
0.0
 20
0.0
  9
$LIMMAX
 10
11.6929133858000007
 20
8.2677165353999982
  9
$ORTHOMODE
 70
     0
  9
$REGENMODE
 70
     1
  9
$FILLMODE
 70
     1
  9
$QTEXTMODE
 70
     0
  9
$MIRRTEXT
 70
     0
  9
$DRAGMODE
 70
     2
  9
$LTSCALE
 40
0.6431102362
  9
$OSMODE
 70
  4095
  9
$ATTMODE
 70
     1
  9
$TEXTSIZE
 40
0.2
  9
$TRACEWID
 40
0.05
  9
$TEXTSTYLE
  7
STANDARD
  9
$CLAYER
  8
0
  9
$CELTYPE
  6
BYLAYER
  9
$CECOLOR
 62
   256
  9
$DIMSCALE
 40
1.0
  9
$DIMASZ
 40
0.1875
  9
$DIMEXO
 40
0.0625
  9
$DIMDLI
 40
0.4443307087
  9
$DIMRND
 40
0.0
  9
$DIMDLE
 40
0.0
  9
$DIMEXE
 40
0.125
  9
$DIMTP
 40
0.01
  9
$DIMTM
 40
0.01
  9
$DIMTXT
 40
2.0
  9
$DIMCEN
 40
0.1052362205
  9
$DIMTSZ
 40
0.0
  9
$DIMTOL
 70
     1
  9
$DIMLIM
 70
     0
  9
$DIMTIH
 70
     1
  9
$DIMTOH
 70
     1
  9
$DIMSE1
 70
     0
  9
$DIMSE2
 70
     0
  9
$DIMTAD
 70
     0
  9
$DIMZIN
 70
     0
  9
$DIMBLK
  1

  9
$DIMASO
 70
     1
  9
$DIMSHO
 70
     1
  9
$DIMPOST
  1
\X
  9
$DIMAPOST
  1

  9
$DIMALT
 70
     1
  9
$DIMALTD
 70
     2
  9
$DIMALTF
 40
25.3999999999999986
  9
$DIMLFAC
 40
1.0
  9
$DIMTOFL
 70
     0
  9
$DIMTVP
 40
0.0
  9
$DIMTIX
 70
     0
  9
$DIMSOXD
 70
     0
  9
$DIMSAH
 70
     0
  9
$DIMBLK1
  1

  9
$DIMBLK2
  1

  9
$DIMSTYLE
  2
STANDARD
  9
$DIMCLRD
 70
     0
  9
$DIMCLRE
 70
     0
  9
$DIMCLRT
 70
     0
  9
$DIMTFAC
 40
1.0
  9
$DIMGAP
 40
0.09
  9
$LUNITS
 70
     2
  9
$LUPREC
 70
     4
  9
$SKETCHINC
 40
0.1
  9
$FILLETRAD
 40
0.0
  9
$AUNITS
 70
     0
  9
$AUPREC
 70
     0
  9
$MENU
  1
.
  9
$ELEVATION
 40
0.0
  9
$PELEVATION
 40
0.0
  9
$THICKNESS
 40
0.0
  9
$LIMCHECK
 70
     0
  9
$BLIPMODE
 70
     0
  9
$CHAMFERA
 40
0.0
  9
$CHAMFERB
 40
0.0
  9
$SKPOLY
 70
     0
  9
$TDCREATE
 40
2458060.468368056230247
  9
$TDUPDATE
 40
2460577.5421412037685513
  9
$TDINDWG
 40
0.7469399306
  9
$TDUSRTIMER
 40
0.7469399306
  9
$USRTIMER
 70
     1
  9
$ANGBASE
 50
0.0
  9
$ANGDIR
 70
     0
  9
$PDMODE
 70
     0
  9
$PDSIZE
 40
0.3125
  9
$PLINEWID
 40
0.0
  9
$COORDS
 70
     1
  9
$SPLFRAME
 70
     0
  9
$SPLINETYPE
 70
     6
  9
$SPLINESEGS
 70
     8
  9
$ATTDIA
 70
     1
  9
$ATTREQ
 70
     1
  9
$HANDLING
 70
     1
  9
$HANDSEED
  5
333D2
  9
$SURFTAB1
 70
     6
  9
$SURFTAB2
 70
     6
  9
$SURFTYPE
 70
     6
  9
$SURFU
 70
     6
  9
$SURFV
 70
     6
  9
$UCSNAME
  2

  9
$UCSORG
 10
0.0
 20
0.0
 30
0.0
  9
$UCSXDIR
 10
1.0
 20
0.0
 30
0.0
  9
$UCSYDIR
 10
0.0
 20
1.0
 30
0.0
  9
$PUCSNAME
  2

  9
$PUCSORG
 10
0.0
 20
0.0
 30
0.0
  9
$PUCSXDIR
 10
1.0
 20
0.0
 30
0.0
  9
$PUCSYDIR
 10
0.0
 20
1.0
 30
0.0
  9
$USERI1
 70
     0
  9
$USERI2
 70
     0
  9
$USERI3
 70
     0
  9
$USERI4
 70
     0
  9
$USERI5
 70
     0
  9
$USERR1
 40
0.0
  9
$USERR2
 40
0.0
  9
$USERR3
 40
0.0
  9
$USERR4
 40
0.0
  9
$USERR5
 40
0.0
  9
$WORLDVIEW
 70
     1
  9
$SHADEDGE
 70
     3
  9
$SHADEDIF
 70
    70
  9
$TILEMODE
 70
     1
  9
$MAXACTVP
 70
    64
  9
$PLIMCHECK
 70
     0
  9
$PEXTMIN
 10
1.0000000000000000E+20
 20
1.0000000000000000E+20
 30
1.0000000000000000E+20
  9
$PEXTMAX
 10
-1.0000000000000000E+20
 20
-1.0000000000000000E+20
 30
-1.0000000000000000E+20
  9
$PLIMMIN
 10
0.0
 20
0.0
  9
$PLIMMAX
 10
12.0
 20
9.0
  9
$UNITMODE
 70
     0
  9
$VISRETAIN
 70
     1
  9
$PLINEGEN
 70
     0
  9
$PSLTSCALE
 70
     1
  0
ENDSEC
  0
SECTION
  2
TABLES
  0
TABLE
  2
VPORT
 70
     1
  0
VPORT
  2
*ACTIVE
 70
     0
 10
0.0
 20
0.0
 11
1.0
 21
1.0
 12
2583.1748161884338515
 22
249.3447439389996987
 13
0.0
 23
0.0
 14
1.0
 24
1.0
 15
0.0
 25
0.0
 16
0.0
 26
0.0
 36
60.4960186965801583
 17
3911.3653564453120453
 27
132.5796051025390057
 37
0.0
 40
8.1711431097870175
 41
2.558981233243967
 42
50.0
 43
0.0
 44
0.0
 50
0.0
 51
0.0
 71
     0
 72
   100
 73
     1
 74
     1
 75
     0
 76
     0
 77
     0
 78
     0
  0
ENDTAB
  0
TABLE
  2
LTYPE
 70
     2
  0
LTYPE
  2
CONTINUOUS
 70
     0
  3
Solid line
 72
    65
 73
     0
 40
0.0
  0
LTYPE
  2
PHANTOM2
 70
     0
  3
___ _ _ ___ _ _ ___ _ _ ___ _ _
 72
    65
 73
     6
 40
1.25
 49
0.625
 49
-0.125
 49
0.125
 49
-0.125
 49
0.125
 49
-0.125
  0
ENDTAB
  0
TABLE
  2
LAYER
 70
     2
  0
LAYER
  2
0
 70
     0
 62
   255
  6
CONTINUOUS
  0
LAYER
  2
DEFPOINTS
 70
     0
 62
     7
  6
CONTINUOUS
  0
ENDTAB
  0
TABLE
  2
STYLE
 70
     1
  0
STYLE
  2
STANDARD
 70
     0
 40
0.0
 41
0.8
 50
0.0
 71
     0
 42
0.2
  3
txt
  4

  0
ENDTAB
  0
TABLE
  2
VIEW
 70
     2
  0
ENDTAB
  0
TABLE
  2
UCS
 70
     0
  0
ENDTAB
  0
TABLE
  2
APPID
 70
    11
  0
APPID
  2
ACAD
 70
     0
  0
APPID
  2
ACAD_MLEADERVER
 70
     0
  0
APPID
  2
ACAD_EXEMPT_FROM_CAD_STANDARDS
 70
     0
  0
APPID
  2
ACAD_NAV_VCDISPLAY
 70
     0
  0
APPID
  2
ACAECLAYERSTANDARD
 70
     0
  0
APPID
  2
ACCMTRANSPARENCY
 70
     0
  0
APPID
  2
ACAD_DSTYLE_DIMJAG
 70
     0
  0
APPID
  2
ACAD_DSTYLE_DIMTALN
 70
     0
  0
APPID
  2
ACDBATTR
 70
     0
  0
APPID
  2
ACADANNOTATIVE
 70
     0
  0
APPID
  2
DCO15
 70
     0
  0
ENDTAB
  0
TABLE
  2
DIMSTYLE
 70
     1
  0
DIMSTYLE
  2
STANDARD
 70
     0
  3

  4

  5

  6

  7

 40
1.0
 41
0.1875
 42
0.0625
 43
0.38
 44
0.125
 45
0.0
 46
0.0
 47
0.01
 48
0.01
140
0.15625
141
0.09
142
0.0
143
25.3999999999999986
144
1.0
145
0.0
146
1.0
147
0.09
 71
     1
 72
     0
 73
     1
 74
     1
 75
     0
 76
     0
 77
     0
 78
     4
170
     0
171
     2
172
     0
173
     0
174
     0
175
     0
176
     0
177
     0
178
     0
  0
ENDTAB
  0
ENDSEC
  0
SECTION
  2
BLOCKS
  0
BLOCK
  8
0
  2
$MODEL_SPACE
 70
     0
 10
0.0
 20
0.0
 30
0.0
  3
$MODEL_SPACE
  1

  0
ENDBLK
  5
21
  8
0
  0
BLOCK
 67
     1
  8
0
  2
$PAPER_SPACE
 70
     0
 10
0.0
 20
0.0
 30
0.0
  3
$PAPER_SPACE
  1

  0
ENDBLK
  5
1D
 67
     1
  8
0
  0
BLOCK
  8
0
  2
_FILLED
 70
     0
 10
0.0
 20
0.0
 30
0.0
  3
_FILLED
  1

  0
SOLID
  5
3321D
  8
0
  6
BYBLOCK
 62
     0
 10
0.0
 20
0.0
 30
0.0
 11
-1.0
 21
0.1666666667
 31
0.0
 12
-1.0
 22
-0.1666666667
 32
0.0
 13
-1.0
 23
-0.1666666667
 33
0.0
  0
ENDBLK
  5
3321E
  8
0
  6
BYBLOCK
 62
     0
  0
ENDSEC
  0
SECTION
  2
ENTITIES
  0
ATTDEF
  5
2842F
  8
DEFPOINTS
 10
6504.7458236605907587
 20
385.2830281285441174
 30
0.0
 40
0.001
  1
K-30960X-1
  3

  2
MODELNUMBER
 70
     0
1001
ACDBATTR
1070
     0
1070
     1
  0
ATTDEF
  5
28430
  8
DEFPOINTS
 10
6504.7456978509326291
 20
385.2813612881648737
 30
0.0
 40
0.001
  1
ESSENTIAL
  3

  2
TRADENAME
 70
     0
1001
ACDBATTR
1070
     0
1070
     1
  0
ATTDEF
  5
28431
  8
DEFPOINTS
 10
6504.7458236605907587
 20
385.2796947952106734
 30
0.0
 40
0.001
  1
BATHROOM SINK
  3

  2
PRODUCT
 70
     0
1001
ACDBATTR
1070
     0
1070
     1
  0
LINE
  5
3330E
  8
0
 10
6484.86572174876801
 20
385.9124652054587727
 30
0.0
 11
6504.4808055690627953
 21
385.9124652054587727
 31
0.0
  0
LINE
  5
3330F
  8
0
 10
6484.6014123725572063
 20
385.2825439455587002
 30
0.0
 11
6504.7451149452572281
 21
385.2825439455587002
 31
0.0
  0
LINE
  5
33310
  8
0
 10
6484.6382904991951364
 20
385.7040628615434912
 30
0.0
 11
6484.6014123725572063
 21
385.2825439455587002
 31
0.0
  0
LINE
  5
33311
  8
0
 10
6494.7165890449978178
 20
377.9481377348587898
 30
0.0
 11
6497.4612085962171477
 21
377.9481377348587898
 31
0.0
  0
ARC
  5
33312
  8
0
 10
6484.86572174876801
 20
385.6841652054587826
 30
0.0
 40
0.2283
 50
90.0
 51
174.9999999961187029
  0
LINE
  5
33313
  8
0
 10
6504.7082368186347594
 20
385.704062861534112
 30
0.0
 11
6504.7451149452572281
 21
385.2825439455587002
 31
0.0
  0
ARC
  5
33314
  8
0
 10
6504.4808055690627953
 20
385.6841652054587826
 30
0.0
 40
0.2283
 50
5.0000000015206378
 51
90.0
  0
LINE
  5
33315
  8
0
 10
6497.7074274398555644
 20
379.5254864613588097
 30
0.0
 11
6497.578859190060939
 21
378.0559446416407923
 31
0.0
  0
LINE
  5
33316
  8
0
 10
6498.7661029527562278
 20
380.524386439758814
 30
0.0
 11
6500.0175827856082833
 21
385.1949727448014187
 31
0.0
  0
ARC
  5
33317
  8
0
 10
6496.5517680007178569
 20
386.6869466784277165
 30
0.0
 40
9.7902448306131955
 50
188.9095367574043109
 51
209.7770152686562994
  0
ARC
  5
33318
  8
0
 10
6493.3209488511038217
 20
384.4112490636453003
 30
0.0
 40
5.8675603412761168
 50
206.1546095568862995
 51
230.7666797289354861
  0
ARC
  5
33319
  8
0
 10
6493.1100155806898329
 20
383.8606911787744025
 30
0.0
 40
5.3109172172893766
 50
228.7722453434830072
 51
256.6357814571466065
  0
ARC
  5
3331A
  8
0
 10
6494.1959002563899048
 20
388.431417771918575
 30
0.0
 40
10.0088622061328092
 50
256.6357814571466065
 51
267.2815275069308996
  0
ARC
  5
3331B
  8
0
 10
6497.012333005461187
 20
447.7473030147065174
 30
0.0
 40
69.3915746363140755
 50
267.2815275069308996
 51
267.9392101023346981
  0
ARC
  5
3331C
  8
0
 10
6488.7750327415851643
 20
377.6314971516109722
 30
0.0
 40
5.8427184235679261
 50
4.1660449670564441
 51
7.0519397477057257
  0
ARC
  5
3331D
  8
0
 10
6494.5148996353136681
 20
378.3415465243343192
 30
0.0
 40
0.0591
 50
7.0519397477057257
 51
87.9392101023868946
  0
ARC
  5
3331E
  8
0
 10
6494.7182814078778392
 20
378.0644010810622149
 30
0.0
 40
0.1162756628126396
 50
184.1660449670629021
 51
269.1660449668888191
  0
ARC
  5
3331F
  8
0
 10
6497.7958326477391893
 20
380.6064987305014142
 30
0.0
 40
0.9737386164103536
 50
271.204581465082299
 51
355.1626839123838977
  0
ARC
  5
33320
  8
0
 10
6497.8251214516258187
 20
379.5151585861855779
 30
0.0
 40
0.1181462881852659
 50
94.2805754722992333
 51
174.9850315940570908
  0
ARC
  5
33321
  8
0
 10
6495.7748189716976412
 20
414.9891452062839221
 30
0.0
 40
35.4150590409958781
 50
268.7175642451366002
 51
273.3046193950244742
  0
ARC
  5
33322
  8
0
 10
6495.3638203423161031
 20
396.6292327967909728
 30
0.0
 40
17.0505469713233886
 50
261.6137480001211202
 51
268.7175141685963808
  0
ARC
  5
33323
  8
0
 10
6494.0845766816146352
 20
387.9518045725105821
 30
0.0
 40
8.2793312670450874
 50
248.6276609600118093
 51
261.6137480001211202
  0
ARC
  5
33324
  8
0
 10
6492.8909503598770243
 20
383.6382550802708806
 30
0.0
 40
3.8550216632877481
 50
207.775780950138909
 51
241.7680510404163101
  0
ARC
  5
33325
  8
0
 10
6540.1023091145962098
 20
409.680691901719797
 30
0.0
 40
57.7720749682081731
 50
205.0516963146299076
 51
208.8079411212808907
  0
ARC
  5
33326
  8
0
 10
6487.6447557356359539
 20
385.1399558995025245
 30
0.0
 40
0.1433765663282271
 50
32.9434664053561974
 51
83.9882042948999441
  0
ARC
  5
33327
  8
0
 10
6486.7617065961212575
 20
385.1644337655911841
 30
0.0
 40
0.1181101838290528
 50
3.0335283785105931
 51
90.014651033103533
  0
ARC
  5
33328
  8
0
 10
6500.1320104053693285
 20
385.1641655358374123
 30
0.0
 40
0.1185021699728812
 50
92.6188032698638466
 51
164.9316178808574023
  0
ARC
  5
33329
  8
0
 10
6497.4612085962171477
 20
378.0662377348587029
 30
0.0
 40
0.1181
 50
270.0
 51
355.0000000002709726
  0
ARC
  5
3332B
  8
0
 10
6492.995833529715128
 20
379.7444788950438124
 30
0.0
 40
2.0297810815278319
 50
318.5415595382124252
 51
343.5589078417565929
  0
ARC
  5
3332C
  8
0
 10
6493.98247629119669
 20
379.4181202130621955
 30
0.0
 40
0.9916868189189811
 50
345.5101158684507254
 51
9.6080047024402688
  0
ENDSEC
  0
EOF
