  0
SECTION
  2
HEADER
  9
$ACADVER
  1
AC1009
  9
$INSBASE
 10
6739.9018283600080395
 20
301.54250830320359
 30
0.0
  9
$EXTMIN
 10
6722.0463696703627647
 20
294.198258510049186
 30
-0.0000000000112498
  9
$EXTMAX
 10
6757.6220197786124118
 20
302.1753593291272182
 30
0.0000000000002956
  9
$LIMMIN
 10
0.0
 20
0.0
  9
$LIMMAX
 10
11.6929133858000007
 20
8.2677165353999982
  9
$ORTHOMODE
 70
     0
  9
$REGENMODE
 70
     1
  9
$FILLMODE
 70
     1
  9
$QTEXTMODE
 70
     0
  9
$MIRRTEXT
 70
     0
  9
$DRAGMODE
 70
     2
  9
$LTSCALE
 40
0.6431102362
  9
$OSMODE
 70
  4095
  9
$ATTMODE
 70
     1
  9
$TEXTSIZE
 40
0.2
  9
$TRACEWID
 40
0.05
  9
$TEXTSTYLE
  7
STANDARD
  9
$CLAYER
  8
0
  9
$CELTYPE
  6
BYLAYER
  9
$CECOLOR
 62
   256
  9
$DIMSCALE
 40
1.0
  9
$DIMASZ
 40
0.1875
  9
$DIMEXO
 40
0.0625
  9
$DIMDLI
 40
0.4443307087
  9
$DIMRND
 40
0.0
  9
$DIMDLE
 40
0.0
  9
$DIMEXE
 40
0.125
  9
$DIMTP
 40
0.01
  9
$DIMTM
 40
0.01
  9
$DIMTXT
 40
2.0
  9
$DIMCEN
 40
0.1052362205
  9
$DIMTSZ
 40
0.0
  9
$DIMTOL
 70
     1
  9
$DIMLIM
 70
     0
  9
$DIMTIH
 70
     1
  9
$DIMTOH
 70
     1
  9
$DIMSE1
 70
     0
  9
$DIMSE2
 70
     0
  9
$DIMTAD
 70
     0
  9
$DIMZIN
 70
     0
  9
$DIMBLK
  1

  9
$DIMASO
 70
     1
  9
$DIMSHO
 70
     1
  9
$DIMPOST
  1
\X
  9
$DIMAPOST
  1

  9
$DIMALT
 70
     1
  9
$DIMALTD
 70
     2
  9
$DIMALTF
 40
25.3999999999999986
  9
$DIMLFAC
 40
1.0
  9
$DIMTOFL
 70
     0
  9
$DIMTVP
 40
0.0
  9
$DIMTIX
 70
     0
  9
$DIMSOXD
 70
     0
  9
$DIMSAH
 70
     0
  9
$DIMBLK1
  1

  9
$DIMBLK2
  1

  9
$DIMSTYLE
  2
STANDARD
  9
$DIMCLRD
 70
     0
  9
$DIMCLRE
 70
     0
  9
$DIMCLRT
 70
     0
  9
$DIMTFAC
 40
1.0
  9
$DIMGAP
 40
0.09
  9
$LUNITS
 70
     2
  9
$LUPREC
 70
     4
  9
$SKETCHINC
 40
0.1
  9
$FILLETRAD
 40
0.0
  9
$AUNITS
 70
     0
  9
$AUPREC
 70
     0
  9
$MENU
  1
.
  9
$ELEVATION
 40
0.0
  9
$PELEVATION
 40
0.0
  9
$THICKNESS
 40
0.0
  9
$LIMCHECK
 70
     0
  9
$BLIPMODE
 70
     0
  9
$CHAMFERA
 40
0.0
  9
$CHAMFERB
 40
0.0
  9
$SKPOLY
 70
     0
  9
$TDCREATE
 40
2458060.468368056230247
  9
$TDUPDATE
 40
2460581.7892939820885658
  9
$TDINDWG
 40
1.1702501157
  9
$TDUSRTIMER
 40
1.1702501157
  9
$USRTIMER
 70
     1
  9
$ANGBASE
 50
0.0
  9
$ANGDIR
 70
     0
  9
$PDMODE
 70
     0
  9
$PDSIZE
 40
0.3125
  9
$PLINEWID
 40
0.0
  9
$COORDS
 70
     2
  9
$SPLFRAME
 70
     0
  9
$SPLINETYPE
 70
     6
  9
$SPLINESEGS
 70
     8
  9
$ATTDIA
 70
     1
  9
$ATTREQ
 70
     1
  9
$HANDLING
 70
     1
  9
$HANDSEED
  5
3141C
  9
$SURFTAB1
 70
     6
  9
$SURFTAB2
 70
     6
  9
$SURFTYPE
 70
     6
  9
$SURFU
 70
     6
  9
$SURFV
 70
     6
  9
$UCSNAME
  2

  9
$UCSORG
 10
0.0
 20
0.0
 30
0.0
  9
$UCSXDIR
 10
1.0
 20
0.0
 30
0.0
  9
$UCSYDIR
 10
0.0
 20
1.0
 30
0.0
  9
$PUCSNAME
  2

  9
$PUCSORG
 10
0.0
 20
0.0
 30
0.0
  9
$PUCSXDIR
 10
1.0
 20
0.0
 30
0.0
  9
$PUCSYDIR
 10
0.0
 20
1.0
 30
0.0
  9
$USERI1
 70
     0
  9
$USERI2
 70
     0
  9
$USERI3
 70
     0
  9
$USERI4
 70
     0
  9
$USERI5
 70
     0
  9
$USERR1
 40
0.0
  9
$USERR2
 40
0.0
  9
$USERR3
 40
0.0
  9
$USERR4
 40
0.0
  9
$USERR5
 40
0.0
  9
$WORLDVIEW
 70
     1
  9
$SHADEDGE
 70
     3
  9
$SHADEDIF
 70
    70
  9
$TILEMODE
 70
     1
  9
$MAXACTVP
 70
    64
  9
$PLIMCHECK
 70
     0
  9
$PEXTMIN
 10
1.0000000000000000E+20
 20
1.0000000000000000E+20
 30
1.0000000000000000E+20
  9
$PEXTMAX
 10
-1.0000000000000000E+20
 20
-1.0000000000000000E+20
 30
-1.0000000000000000E+20
  9
$PLIMMIN
 10
0.0
 20
0.0
  9
$PLIMMAX
 10
12.0
 20
9.0
  9
$UNITMODE
 70
     0
  9
$VISRETAIN
 70
     1
  9
$PLINEGEN
 70
     0
  9
$PSLTSCALE
 70
     1
  0
ENDSEC
  0
SECTION
  2
TABLES
  0
TABLE
  2
VPORT
 70
     1
  0
VPORT
  2
*ACTIVE
 70
     0
 10
0.0
 20
0.0
 11
1.0
 21
1.0
 12
2828.4688382791759977
 22
165.6072038170491112
 13
0.0
 23
0.0
 14
1.0
 24
1.0
 15
0.0
 25
0.0
 16
0.0
 26
0.0
 36
60.4960186965801583
 17
3911.3653564453120453
 27
132.5796051025390057
 37
0.0
 40
15.8968860802130703
 41
2.244970414201183
 42
50.0
 43
0.0
 44
0.0
 50
0.0
 51
0.0
 71
     0
 72
   100
 73
     1
 74
     1
 75
     0
 76
     0
 77
     0
 78
     0
  0
ENDTAB
  0
TABLE
  2
LTYPE
 70
     2
  0
LTYPE
  2
CONTINUOUS
 70
     0
  3
Solid line
 72
    65
 73
     0
 40
0.0
  0
LTYPE
  2
PHANTOM2
 70
     0
  3
___ _ _ ___ _ _ ___ _ _ ___ _ _
 72
    65
 73
     6
 40
1.25
 49
0.625
 49
-0.125
 49
0.125
 49
-0.125
 49
0.125
 49
-0.125
  0
ENDTAB
  0
TABLE
  2
LAYER
 70
     2
  0
LAYER
  2
0
 70
     0
 62
   255
  6
CONTINUOUS
  0
LAYER
  2
DEFPOINTS
 70
     0
 62
     7
  6
CONTINUOUS
  0
ENDTAB
  0
TABLE
  2
STYLE
 70
     1
  0
STYLE
  2
STANDARD
 70
     0
 40
0.0
 41
0.8
 50
0.0
 71
     0
 42
0.2
  3
txt
  4

  0
ENDTAB
  0
TABLE
  2
VIEW
 70
     0
  0
ENDTAB
  0
TABLE
  2
UCS
 70
     0
  0
ENDTAB
  0
TABLE
  2
APPID
 70
    11
  0
APPID
  2
ACAD
 70
     0
  0
APPID
  2
ACAD_MLEADERVER
 70
     0
  0
APPID
  2
ACAD_EXEMPT_FROM_CAD_STANDARDS
 70
     0
  0
APPID
  2
ACAD_NAV_VCDISPLAY
 70
     0
  0
APPID
  2
ACAECLAYERSTANDARD
 70
     0
  0
APPID
  2
ACCMTRANSPARENCY
 70
     0
  0
APPID
  2
ACAD_DSTYLE_DIMJAG
 70
     0
  0
APPID
  2
ACAD_DSTYLE_DIMTALN
 70
     0
  0
APPID
  2
ACDBATTR
 70
     0
  0
APPID
  2
ACADANNOTATIVE
 70
     0
  0
APPID
  2
DCO15
 70
     0
  0
ENDTAB
  0
TABLE
  2
DIMSTYLE
 70
     1
  0
DIMSTYLE
  2
STANDARD
 70
     0
  3

  4

  5

  6

  7

 40
1.0
 41
0.1875
 42
0.0625
 43
0.38
 44
0.125
 45
0.0
 46
0.0
 47
0.01
 48
0.01
140
0.15625
141
0.09
142
0.0
143
25.3999999999999986
144
1.0
145
0.0
146
1.0
147
0.09
 71
     1
 72
     0
 73
     1
 74
     1
 75
     0
 76
     0
 77
     0
 78
     4
170
     0
171
     2
172
     0
173
     0
174
     0
175
     0
176
     0
177
     0
178
     0
  0
ENDTAB
  0
ENDSEC
  0
SECTION
  2
BLOCKS
  0
BLOCK
  8
0
  2
$MODEL_SPACE
 70
     0
 10
0.0
 20
0.0
 30
0.0
  3
$MODEL_SPACE
  1

  0
ENDBLK
  5
21
  8
0
  0
BLOCK
 67
     1
  8
0
  2
$PAPER_SPACE
 70
     0
 10
0.0
 20
0.0
 30
0.0
  3
$PAPER_SPACE
  1

  0
ENDBLK
  5
1D
 67
     1
  8
0
  0
BLOCK
  8
0
  2
_FILLED
 70
     0
 10
0.0
 20
0.0
 30
0.0
  3
_FILLED
  1

  0
SOLID
  5
2EA64
  8
0
  6
BYBLOCK
 62
     0
 10
0.0
 20
0.0
 30
0.0
 11
-1.0
 21
0.1666666667
 31
0.0
 12
-1.0
 22
-0.1666666667
 32
0.0
 13
-1.0
 23
-0.1666666667
 33
0.0
  0
ENDBLK
  5
2EA65
  8
0
  6
BYBLOCK
 62
     0
  0
ENDSEC
  0
SECTION
  2
ENTITIES
  0
ATTDEF
  5
26A5B
  8
DEFPOINTS
 10
6739.9018525912697442
 20
301.5410327272388145
 30
0.0
 40
0.001
  1
K-30967X-1
  3

  2
MODELNUMBER
 70
     0
1001
ACDBATTR
1070
     0
1070
     1
  0
ATTDEF
  5
26A5C
  8
DEFPOINTS
 10
6739.9017267816116146
 20
301.5393658868596845
 30
0.0
 40
0.001
  1
ESSENTIAL
  3

  2
TRADENAME
 70
     0
1001
ACDBATTR
1070
     0
1070
     1
  0
ATTDEF
  5
26A5D
  8
DEFPOINTS
 10
6739.9018525912697442
 20
301.5376993939054842
 30
0.0
 40
0.001
  1
BATHROOM SINK
  3

  2
PRODUCT
 70
     0
1001
ACDBATTR
1070
     0
1070
     1
  0
LINE
  5
31118
  8
0
 10
6757.3474404451271766
 20
302.172429563003675
 30
0.0
 11
6722.4562162748879928
 21
302.172429563003675
 31
0.0
  0
LINE
  5
31119
  8
0
 10
6757.6114749219495934
 20
301.54250830320359
 30
0.0
 11
6722.192181798067395
 21
301.54250830320359
 31
0.0
  0
ARC
  5
3111A
  8
0
 10
6728.8478170934013178
 20
301.4245083032037087
 30
0.0
 40
0.118
 50
29.9999997711059017
 51
90.0
  0
ARC
  5
3111B
  8
0
 10
6738.178431978529261
 20
295.7210434890355941
 30
0.0
 40
0.1117893753802596
 50
3.765503181623489
 51
92.5491280186983971
  0
LINE
  5
3111C
  8
0
 10
6738.5311146243402618
 20
294.2081020924035784
 30
0.0
 11
6741.2725420956776361
 21
294.2081020924035784
 31
0.0
  0
LINE
  5
3111D
  8
0
 10
6738.2899800218683595
 20
295.7283850471126243
 30
0.0
 11
6738.4135636499649991
 21
294.3158177147553829
 31
0.0
  0
ARC
  5
3111E
  8
0
 10
6738.5311146243402618
 20
294.3261020924035734
 30
0.0
 40
0.118
 50
185.0000000019533957
 51
270.0
  0
LINE
  5
3111F
  8
0
 10
6738.6133778916382653
 20
295.843472346732085
 30
0.0
 11
6738.1734600341787882
 21
295.8327222435830777
 31
0.0
  0
ARC
  5
31120
  8
0
 10
6749.3027293394652588
 20
300.4395336841579933
 30
0.0
 40
10.9027869347972697
 50
174.8723905425399892
 51
182.3942879449915893
  0
ARC
  5
31121
  8
0
 10
6738.3260463403958056
 20
301.4245083032037087
 30
0.0
 40
0.118
 50
354.8723905425433145
 51
90.0
  0
ARC
  5
31122
  8
0
 10
6796.7091822824449991
 20
300.1101838134255786
 30
0.0
 40
58.2998581732020824
 50
180.1239533471456866
 51
182.0754059375665008
  0
ARC
  5
31123
  8
0
 10
6766.112812577578552
 20
298.7117718871442094
 30
0.0
 40
27.6744293947683708
 50
181.4761219129970016
 51
185.137420007002504
  0
ARC
  5
31124
  8
0
 10
6741.4893690103381232
 20
296.514188100096419
 30
0.0
 40
2.9531651725986658
 50
185.4506691982385007
 51
198.1548539835036991
  0
ARC
  5
31125
  8
0
 10
6740.0621945166876685
 20
296.0362114610003914
 30
0.0
 40
1.4481386310522291
 50
197.7792229190129945
 51
225.361247631759511
  0
ARC
  5
31126
  8
0
 10
6739.8603359932239982
 20
295.8373212725172721
 30
0.0
 40
1.1647918459341959
 50
225.552375922531013
 51
253.1625793127477095
  0
ARC
  5
31127
  8
0
 10
6739.9020131204079007
 20
296.1218069160264008
 30
0.0
 40
1.449777258995707
 50
254.842943126029212
 51
269.9926981947731974
  0
LINE
  5
31128
  8
0
 10
6728.9500080912848716
 20
301.4835083027954283
 30
0.0
 11
6729.5842163650577277
 21
300.3850273399036723
 31
0.0
  0
ARC
  5
31129
  8
0
 10
7088.1528187562062158
 20
507.4047045435403902
 30
0.0
 40
414.0393572720353745
 50
209.9999997711059052
 51
210.206313116593293
  0
ARC
  5
3112A
  8
0
 10
6740.6440946932825682
 20
305.0985335524654261
 30
0.0
 40
11.9322818295453104
 50
210.206313116593293
 51
219.0793801113285895
  0
ARC
  5
3112B
  8
0
 10
6734.3796632797811981
 20
300.0113105769800086
 30
0.0
 40
3.862403358542347
 50
219.0793801113285895
 51
242.0159114070926023
  0
ARC
  5
3112C
  8
0
 10
6734.9445185246750043
 20
301.3649630019922938
 30
0.0
 40
5.3245752063036553
 50
243.4833716137437136
 51
263.535551230974022
  0
ARC
  5
3112D
  8
0
 10
6737.3129948108253302
 20
317.6717115704856269
 30
0.0
 40
21.8004457927269293
 50
262.175348377509124
 51
268.2422797072458138
  0
ARC
  5
3112E
  8
0
 10
6739.0505844350691405
 20
347.2986245646562224
 30
0.0
 40
51.4733761175315934
 50
267.3205586324406227
 51
269.0236125443220772
  0
LINE
  5
3112F
  8
0
 10
6722.2290838837243427
 20
301.9643010723498264
 30
0.0
 11
6722.192181798067395
 21
301.54250830320359
 31
0.0
  0
ARC
  5
31130
  8
0
 10
6722.4562162748879928
 20
301.9444295630037232
 30
0.0
 40
0.228
 50
90.0
 51
175.000000000089301
  0
ARC
  5
31131
  8
0
 10
6750.9558396266138516
 20
301.4245083032037087
 30
0.0
 40
0.118
 50
90.0
 51
150.0000002288940948
  0
ARC
  5
31132
  8
0
 10
6741.6252247414868179
 20
295.7210434890355941
 30
0.0
 40
0.1117893753802596
 50
87.4508719813016171
 51
176.234496818376499
  0
LINE
  5
31133
  8
0
 10
6741.5136766981468099
 20
295.7283850471126243
 30
0.0
 11
6741.3900930700510798
 21
294.3158177147553829
 31
0.0
  0
ARC
  5
31134
  8
0
 10
6741.2725420956776361
 20
294.3261020924035734
 30
0.0
 40
0.118
 50
270.0
 51
354.9999999980465191
  0
LINE
  5
31135
  8
0
 10
6741.1902788283778136
 20
295.843472346732085
 30
0.0
 11
6741.6301966858372907
 21
295.8327222435830777
 31
0.0
  0
ARC
  5
31136
  8
0
 10
6730.5009273805517296
 20
300.4395336841579933
 30
0.0
 40
10.9027869347972697
 50
357.6057120550050854
 51
5.1276094574599966
  0
ARC
  5
31137
  8
0
 10
6741.4776103796202733
 20
301.4245083032037087
 30
0.0
 40
0.118
 50
90.0
 51
185.1276094574567139
  0
ARC
  5
31138
  8
0
 10
6683.0944744375710798
 20
300.1101838134255786
 30
0.0
 40
58.2998581732020824
 50
357.9245940624301738
 51
359.8760466528543134
  0
ARC
  5
31139
  8
0
 10
6713.6908441424366174
 20
298.7117718871442094
 30
0.0
 40
27.6744293947683708
 50
354.862579992997496
 51
358.5238780870030268
  0
ARC
  5
3113A
  8
0
 10
6738.3142877096788652
 20
296.514188100096419
 30
0.0
 40
2.9531651725986658
 50
341.8451460164963009
 51
354.549330801761414
  0
ARC
  5
3113B
  8
0
 10
6739.7414622033256819
 20
296.0362114610003914
 30
0.0
 40
1.4481386310522291
 50
314.638752368240489
 51
342.2207770809869771
  0
ARC
  5
3113C
  8
0
 10
6739.9433207267929902
 20
295.8373212725172721
 30
0.0
 40
1.1647918459341959
 50
286.8374206872023819
 51
314.4476240774690154
  0
ARC
  5
3113D
  8
0
 10
6739.9016435996081782
 20
296.1218069160264008
 30
0.0
 40
1.449777258995707
 50
270.0073018052266889
 51
285.1570568739708165
  0
LINE
  5
3113E
  8
0
 10
6750.8536486287330263
 20
301.4835083027954283
 30
0.0
 11
6750.2194403549583512
 21
300.3850273399036723
 31
0.0
  0
ARC
  5
3113F
  8
0
 10
6391.6508379638080442
 20
507.4047045435403902
 30
0.0
 40
414.0393572720353745
 50
329.7936868834037796
 51
330.0000002288941232
  0
ARC
  5
31140
  8
0
 10
6739.1595620267344202
 20
305.0985335524654261
 30
0.0
 40
11.9322818295453104
 50
320.9206198886687957
 51
329.7936868834037796
  0
ARC
  5
31141
  8
0
 10
6745.4239934402330618
 20
300.0113105769800086
 30
0.0
 40
3.862403358542347
 50
297.9840885929074261
 51
320.9206198886687957
  0
ARC
  5
31142
  8
0
 10
6744.8591381953410746
 20
301.3649630019922938
 30
0.0
 40
5.3245752063036553
 50
276.464448769025978
 51
296.5166283862562864
  0
ARC
  5
31143
  8
0
 10
6742.4906619091898392
 20
317.6717115704856269
 30
0.0
 40
21.8004457927269293
 50
271.7577202927542999
 51
277.824651622490876
  0
ARC
  5
31144
  8
0
 10
6740.7530722849451195
 20
347.2986245646562224
 30
0.0
 40
51.4733761175315934
 50
270.9763874556779228
 51
272.6794413675593773
  0
LINE
  5
31145
  8
0
 10
6757.5745728362926457
 20
301.9643010723498264
 30
0.0
 11
6757.6114749219495934
 21
301.54250830320359
 31
0.0
  0
ARC
  5
31146
  8
0
 10
6757.3474404451271766
 20
301.9444295630037232
 30
0.0
 40
0.228
 50
4.9999999999107221
 51
90.0
  0
ENDSEC
  0
EOF
