  0
SECTION
  2
HEADER
  9
$ACADVER
  1
AC1009
  9
$INSBASE
 10
6725.1321308542410407
 20
301.1885965179369009
 30
0.0
  9
$EXTMIN
 10
6704.6774684092515599
 20
293.8387659369062135
 30
-0.0000000000112498
  9
$EXTMAX
 10
6725.2020881117568933
 20
301.8291462523018254
 30
0.0000000000002956
  9
$LIMMIN
 10
0.0
 20
0.0
  9
$LIMMAX
 10
11.6929133858000007
 20
8.2677165353999982
  9
$ORTHOMODE
 70
     0
  9
$REGENMODE
 70
     1
  9
$FILLMODE
 70
     1
  9
$QTEXTMODE
 70
     0
  9
$MIRRTEXT
 70
     0
  9
$DRAGMODE
 70
     2
  9
$LTSCALE
 40
0.6431102362
  9
$OSMODE
 70
  4095
  9
$ATTMODE
 70
     1
  9
$TEXTSIZE
 40
0.2
  9
$TRACEWID
 40
0.05
  9
$TEXTSTYLE
  7
STANDARD
  9
$CLAYER
  8
0
  9
$CELTYPE
  6
BYLAYER
  9
$CECOLOR
 62
   256
  9
$DIMSCALE
 40
1.0
  9
$DIMASZ
 40
0.1875
  9
$DIMEXO
 40
0.0625
  9
$DIMDLI
 40
0.4443307087
  9
$DIMRND
 40
0.0
  9
$DIMDLE
 40
0.0
  9
$DIMEXE
 40
0.125
  9
$DIMTP
 40
0.01
  9
$DIMTM
 40
0.01
  9
$DIMTXT
 40
2.0
  9
$DIMCEN
 40
0.1052362205
  9
$DIMTSZ
 40
0.0
  9
$DIMTOL
 70
     1
  9
$DIMLIM
 70
     0
  9
$DIMTIH
 70
     1
  9
$DIMTOH
 70
     1
  9
$DIMSE1
 70
     0
  9
$DIMSE2
 70
     0
  9
$DIMTAD
 70
     0
  9
$DIMZIN
 70
     0
  9
$DIMBLK
  1

  9
$DIMASO
 70
     1
  9
$DIMSHO
 70
     1
  9
$DIMPOST
  1
\X
  9
$DIMAPOST
  1

  9
$DIMALT
 70
     1
  9
$DIMALTD
 70
     2
  9
$DIMALTF
 40
25.3999999999999986
  9
$DIMLFAC
 40
1.0
  9
$DIMTOFL
 70
     0
  9
$DIMTVP
 40
0.0
  9
$DIMTIX
 70
     0
  9
$DIMSOXD
 70
     0
  9
$DIMSAH
 70
     0
  9
$DIMBLK1
  1

  9
$DIMBLK2
  1

  9
$DIMSTYLE
  2
STANDARD
  9
$DIMCLRD
 70
     0
  9
$DIMCLRE
 70
     0
  9
$DIMCLRT
 70
     0
  9
$DIMTFAC
 40
1.0
  9
$DIMGAP
 40
0.09
  9
$LUNITS
 70
     2
  9
$LUPREC
 70
     4
  9
$SKETCHINC
 40
0.1
  9
$FILLETRAD
 40
0.0
  9
$AUNITS
 70
     0
  9
$AUPREC
 70
     0
  9
$MENU
  1
.
  9
$ELEVATION
 40
0.0
  9
$PELEVATION
 40
0.0
  9
$THICKNESS
 40
0.0
  9
$LIMCHECK
 70
     0
  9
$BLIPMODE
 70
     0
  9
$CHAMFERA
 40
0.0
  9
$CHAMFERB
 40
0.0
  9
$SKPOLY
 70
     0
  9
$TDCREATE
 40
2458060.468368056230247
  9
$TDUPDATE
 40
2460581.7897222228348255
  9
$TDINDWG
 40
1.1740579861
  9
$TDUSRTIMER
 40
1.1740579861
  9
$USRTIMER
 70
     1
  9
$ANGBASE
 50
0.0
  9
$ANGDIR
 70
     0
  9
$PDMODE
 70
     0
  9
$PDSIZE
 40
0.3125
  9
$PLINEWID
 40
0.0
  9
$COORDS
 70
     2
  9
$SPLFRAME
 70
     0
  9
$SPLINETYPE
 70
     6
  9
$SPLINESEGS
 70
     8
  9
$ATTDIA
 70
     1
  9
$ATTREQ
 70
     1
  9
$HANDLING
 70
     1
  9
$HANDSEED
  5
3071D
  9
$SURFTAB1
 70
     6
  9
$SURFTAB2
 70
     6
  9
$SURFTYPE
 70
     6
  9
$SURFU
 70
     6
  9
$SURFV
 70
     6
  9
$UCSNAME
  2

  9
$UCSORG
 10
0.0
 20
0.0
 30
0.0
  9
$UCSXDIR
 10
1.0
 20
0.0
 30
0.0
  9
$UCSYDIR
 10
0.0
 20
1.0
 30
0.0
  9
$PUCSNAME
  2

  9
$PUCSORG
 10
0.0
 20
0.0
 30
0.0
  9
$PUCSXDIR
 10
1.0
 20
0.0
 30
0.0
  9
$PUCSYDIR
 10
0.0
 20
1.0
 30
0.0
  9
$USERI1
 70
     0
  9
$USERI2
 70
     0
  9
$USERI3
 70
     0
  9
$USERI4
 70
     0
  9
$USERI5
 70
     0
  9
$USERR1
 40
0.0
  9
$USERR2
 40
0.0
  9
$USERR3
 40
0.0
  9
$USERR4
 40
0.0
  9
$USERR5
 40
0.0
  9
$WORLDVIEW
 70
     1
  9
$SHADEDGE
 70
     3
  9
$SHADEDIF
 70
    70
  9
$TILEMODE
 70
     1
  9
$MAXACTVP
 70
    64
  9
$PLIMCHECK
 70
     0
  9
$PEXTMIN
 10
1.0000000000000000E+20
 20
1.0000000000000000E+20
 30
1.0000000000000000E+20
  9
$PEXTMAX
 10
-1.0000000000000000E+20
 20
-1.0000000000000000E+20
 30
-1.0000000000000000E+20
  9
$PLIMMIN
 10
0.0
 20
0.0
  9
$PLIMMAX
 10
12.0
 20
9.0
  9
$UNITMODE
 70
     0
  9
$VISRETAIN
 70
     1
  9
$PLINEGEN
 70
     0
  9
$PSLTSCALE
 70
     1
  0
ENDSEC
  0
SECTION
  2
TABLES
  0
TABLE
  2
VPORT
 70
     1
  0
VPORT
  2
*ACTIVE
 70
     0
 10
0.0
 20
0.0
 11
1.0
 21
1.0
 12
2803.5744218151921814
 22
165.2543509920650138
 13
0.0
 23
0.0
 14
1.0
 24
1.0
 15
0.0
 25
0.0
 16
0.0
 26
0.0
 36
60.4960186965801583
 17
3911.3653564453120453
 27
132.5796051025390057
 37
0.0
 40
9.1713725612209291
 41
2.244970414201183
 42
50.0
 43
0.0
 44
0.0
 50
0.0
 51
0.0
 71
     0
 72
   100
 73
     1
 74
     1
 75
     0
 76
     0
 77
     0
 78
     0
  0
ENDTAB
  0
TABLE
  2
LTYPE
 70
     2
  0
LTYPE
  2
CONTINUOUS
 70
     0
  3
Solid line
 72
    65
 73
     0
 40
0.0
  0
LTYPE
  2
PHANTOM2
 70
     0
  3
___ _ _ ___ _ _ ___ _ _ ___ _ _
 72
    65
 73
     6
 40
1.25
 49
0.625
 49
-0.125
 49
0.125
 49
-0.125
 49
0.125
 49
-0.125
  0
ENDTAB
  0
TABLE
  2
LAYER
 70
     2
  0
LAYER
  2
0
 70
     0
 62
   255
  6
CONTINUOUS
  0
LAYER
  2
DEFPOINTS
 70
     0
 62
     7
  6
CONTINUOUS
  0
ENDTAB
  0
TABLE
  2
STYLE
 70
     1
  0
STYLE
  2
STANDARD
 70
     0
 40
0.0
 41
0.8
 50
0.0
 71
     0
 42
0.2
  3
txt
  4

  0
ENDTAB
  0
TABLE
  2
VIEW
 70
     0
  0
ENDTAB
  0
TABLE
  2
UCS
 70
     0
  0
ENDTAB
  0
TABLE
  2
APPID
 70
    11
  0
APPID
  2
ACAD
 70
     0
  0
APPID
  2
ACAD_MLEADERVER
 70
     0
  0
APPID
  2
ACAD_EXEMPT_FROM_CAD_STANDARDS
 70
     0
  0
APPID
  2
ACAD_NAV_VCDISPLAY
 70
     0
  0
APPID
  2
ACAECLAYERSTANDARD
 70
     0
  0
APPID
  2
ACCMTRANSPARENCY
 70
     0
  0
APPID
  2
ACAD_DSTYLE_DIMJAG
 70
     0
  0
APPID
  2
ACAD_DSTYLE_DIMTALN
 70
     0
  0
APPID
  2
ACDBATTR
 70
     0
  0
APPID
  2
ACADANNOTATIVE
 70
     0
  0
APPID
  2
DCO15
 70
     0
  0
ENDTAB
  0
TABLE
  2
DIMSTYLE
 70
     1
  0
DIMSTYLE
  2
STANDARD
 70
     0
  3

  4

  5

  6

  7

 40
1.0
 41
0.1875
 42
0.0625
 43
0.38
 44
0.125
 45
0.0
 46
0.0
 47
0.01
 48
0.01
140
0.15625
141
0.09
142
0.0
143
25.3999999999999986
144
1.0
145
0.0
146
1.0
147
0.09
 71
     1
 72
     0
 73
     1
 74
     1
 75
     0
 76
     0
 77
     0
 78
     4
170
     0
171
     2
172
     0
173
     0
174
     0
175
     0
176
     0
177
     0
178
     0
  0
ENDTAB
  0
ENDSEC
  0
SECTION
  2
BLOCKS
  0
BLOCK
  8
0
  2
$MODEL_SPACE
 70
     0
 10
0.0
 20
0.0
 30
0.0
  3
$MODEL_SPACE
  1

  0
ENDBLK
  5
21
  8
0
  0
BLOCK
 67
     1
  8
0
  2
$PAPER_SPACE
 70
     0
 10
0.0
 20
0.0
 30
0.0
  3
$PAPER_SPACE
  1

  0
ENDBLK
  5
1D
 67
     1
  8
0
  0
BLOCK
  8
0
  2
_FILLED
 70
     0
 10
0.0
 20
0.0
 30
0.0
  3
_FILLED
  1

  0
SOLID
  5
2E9D1
  8
0
  6
BYBLOCK
 62
     0
 10
0.0
 20
0.0
 30
0.0
 11
-1.0
 21
0.1666666667
 31
0.0
 12
-1.0
 22
-0.1666666667
 32
0.0
 13
-1.0
 23
-0.1666666667
 33
0.0
  0
ENDBLK
  5
2E9D2
  8
0
  6
BYBLOCK
 62
     0
  0
ENDSEC
  0
SECTION
  2
ENTITIES
  0
ATTDEF
  5
26A5B
  8
DEFPOINTS
 10
6725.1208684747743973
 20
301.1869799295266716
 30
0.0
 40
0.001
  1
K-30967X-1
  3

  2
MODELNUMBER
 70
     0
1001
ACDBATTR
1070
     0
1070
     1
  0
ATTDEF
  5
26A5C
  8
DEFPOINTS
 10
6725.1207426651162677
 20
301.1853130891475985
 30
0.0
 40
0.001
  1
ESSENTIAL
  3

  2
TRADENAME
 70
     0
1001
ACDBATTR
1070
     0
1070
     1
  0
ATTDEF
  5
26A5D
  8
DEFPOINTS
 10
6725.1208684747743973
 20
301.1836465961933982
 30
0.0
 40
0.001
  1
BATHROOM SINK
  3

  2
PRODUCT
 70
     0
1001
ACDBATTR
1070
     0
1070
     1
  0
LINE
  5
30466
  8
0
 10
6705.2527376577763789
 20
301.8185177777368722
 30
0.0
 11
6724.8678214781175484
 21
301.8185177777368722
 31
0.0
  0
LINE
  5
30467
  8
0
 10
6704.9884282815419283
 20
301.1885965179369009
 30
0.0
 11
6725.1321308542410407
 21
301.1885965179369009
 31
0.0
  0
LINE
  5
30468
  8
0
 10
6715.1068886668726918
 20
293.8541903071368893
 30
0.0
 11
6717.8483161383101105
 21
293.8541903071368893
 31
0.0
  0
LINE
  5
30469
  8
0
 10
6705.0253064082044148
 20
301.610115433837791
 30
0.0
 11
6704.9884282815419283
 21
301.1885965179369009
 31
0.0
  0
LINE
  5
3046A
  8
0
 10
6725.0952527276967885
 20
301.6101154337785033
 30
0.0
 11
6725.1321308542410407
 21
301.1885965179369009
 31
0.0
  0
ARC
  5
3046B
  8
0
 10
6724.8678214781175484
 20
301.590217777736882
 30
0.0
 40
0.2283
 50
4.9999999930246144
 51
90.0
  0
ARC
  5
3046C
  8
0
 10
6705.2527376577763789
 20
301.590217777736882
 30
0.0
 40
0.2283
 50
90.0
 51
174.9999999920198945
  0
ARC
  5
3046D
  8
0
 10
6715.2489878459600732
 20
302.1035844324308073
 30
0.0
 40
8.0458756145028545
 50
187.2741539925820859
 51
208.9394451658548917
  0
ARC
  5
3046E
  8
0
 10
6707.1507307985557418
 20
301.0705965179369059
 30
0.0
 40
0.118
 50
6.9322300747885848
 51
90.0
  0
ARC
  5
3046F
  8
0
 10
6716.8197555656015538
 20
302.5513252437311849
 30
0.0
 40
9.6441918349716715
 50
206.7512206011751914
 51
219.4031841253853941
  0
ARC
  5
30470
  8
0
 10
6713.5142205635602295
 20
299.7429759632541959
 30
0.0
 40
5.3078298349739867
 50
218.62874857270441
 51
242.7557734870891863
  0
ARC
  5
30471
  8
0
 10
6713.5949075606486076
 20
300.4128174374877176
 30
0.0
 40
5.9449413788222127
 50
245.0203356604399119
 51
261.6880360980017031
  0
ARC
  5
30472
  8
0
 10
6715.3625393433467252
 20
309.9151007056370872
 30
0.0
 40
15.6074579467616292
 50
260.3098380732162127
 51
267.8796707458989204
  0
LINE
  5
30473
  8
0
 10
6714.9738600910477544
 20
294.1388157225662212
 30
0.0
 11
6714.9893376925037956
 21
293.9619059294340104
 31
0.0
  0
ARC
  5
30474
  8
0
 10
6714.7778089744733734
 20
294.1216634722957224
 30
0.0
 40
0.1968
 50
5.000000028584564
 51
87.8796707458989346
  0
ARC
  5
30475
  8
0
 10
6715.1068886668726918
 20
293.9721903071368843
 30
0.0
 40
0.118
 50
185.0000000285797057
 51
270.0
  0
LINE
  5
30476
  8
0
 10
6720.4046314439683556
 20
301.1011372256659797
 30
0.0
 11
6719.0984598891527639
 21
296.2264489536901806
 31
0.0
  0
ARC
  5
30477
  8
0
 10
6720.5186106752844353
 20
301.0705965179369059
 30
0.0
 40
0.118
 50
90.0
 51
164.9999696342401876
  0
ARC
  5
30478
  8
0
 10
2151.2861941231158198
 20
-1922.832542553642952
 30
0.0
 40
5070.602342348838647
 50
25.9955264869142404
 51
26.0144477002398311
  0
ARC
  5
30479
  8
0
 10
6708.0466984762142602
 20
301.0705965179369059
 30
0.0
 40
0.118
 50
26.0144477000794012
 51
90.0
  0
ARC
  5
3047A
  8
0
 10
6795.8917085701068572
 20
342.0440398675381743
 30
0.0
 40
96.7980019665944837
 50
205.9955264869142013
 51
206.7062526373526055
  0
ARC
  5
3047B
  8
0
 10
6718.9233578063413006
 20
303.3224675525228236
 30
0.0
 40
10.6383409770032902
 50
206.7062526373526055
 51
212.6665841427384009
  0
ARC
  5
3047C
  8
0
 10
6715.1458985436565854
 20
300.9004917165383972
 30
0.0
 40
6.1511185141289229
 50
212.6665841427384009
 51
219.0982770257440961
  0
ARC
  5
3047D
  8
0
 10
6713.0188457039375862
 20
299.1719889694638823
 30
0.0
 40
3.410301933325941
 50
219.0982770257440961
 51
233.0490300163110078
  0
ARC
  5
3047E
  8
0
 10
6712.8969252330489326
 20
299.0099066476906842
 30
0.0
 40
3.2074835903366199
 50
233.0490300163110078
 51
253.1422725765775112
  0
ARC
  5
3047F
  8
0
 10
6714.3483668930539352
 20
303.9968573957435751
 30
0.0
 40
8.4012408716685556
 50
253.5318747049595913
 51
263.2505426565895732
  0
ARC
  5
30480
  8
0
 10
6716.3596078500513613
 20
319.8717249288714015
 30
0.0
 40
24.4028204987822299
 50
262.9416472076334799
 51
267.5742514293407908
  0
ARC
  5
30481
  8
0
 10
6716.1572668493727178
 20
322.6202289701097925
 30
0.0
 40
27.1421662793345391
 50
268.2465818360370235
 51
271.3291558304824207
  0
ARC
  5
30482
  8
0
 10
6716.1515130032612433
 20
330.9753844466035844
 30
0.0
 40
35.4957052981241006
 50
271.0256043021780101
 51
273.4050159531702775
  0
ARC
  5
30483
  8
0
 10
6718.2047854415795882
 20
296.4659088078508944
 30
0.0
 40
0.9252
 50
273.4050159531702775
 51
344.9999696342370044
  0
LINE
  5
30484
  8
0
 10
6718.0944741014709507
 20
295.4318905380413867
 30
0.0
 11
6717.9658671126853733
 21
293.9619059294940939
 31
0.0
  0
ARC
  5
30485
  8
0
 10
6717.8483161383101105
 20
293.9721903071368843
 30
0.0
 40
0.118
 50
270.0
 51
355.0000000007021868
  0
ARC
  5
30486
  8
0
 10
6718.2121379370410068
 20
295.421209890136879
 30
0.0
 40
0.118147596000028
 50
94.2051774275150393
 51
174.8133296141394908
  0
ARC
  5
30487
  8
0
 10
6713.4396300394737409
 20
295.4231011765737094
 30
0.0
 40
2.0008125795615461
 50
320.067705634171773
 51
358.4714577665037041
  0
ARC
  5
30488
  8
0
 10
6715.3217726403927372
 20
295.372877282276022
 30
0.0
 40
0.118
 50
358.4714577665037041
 51
87.574251429340876
  0
ENDSEC
  0
EOF
