  0
SECTION
  2
HEADER
  9
$ACADVER
  1
AC1009
  9
$INSBASE
 10
-36061.1669987806380959
 20
-17233.1400148959801299
 30
0.0
  9
$EXTMIN
 10
-36068.8424888302906766
 20
-17260.9298381877088104
 30
0.0
  9
$EXTMAX
 10
-36053.4915087310073432
 20
-17233.1412483787098608
 30
0.0
  9
$LIMMIN
 10
0.0
 20
0.0
  9
$LIMMAX
 10
11.6929133858000007
 20
8.2677165353999982
  9
$ORTHOMODE
 70
     0
  9
$REGENMODE
 70
     1
  9
$FILLMODE
 70
     1
  9
$QTEXTMODE
 70
     0
  9
$MIRRTEXT
 70
     0
  9
$DRAGMODE
 70
     2
  9
$LTSCALE
 40
0.6431102362
  9
$OSMODE
 70
  4095
  9
$ATTMODE
 70
     1
  9
$TEXTSIZE
 40
0.2
  9
$TRACEWID
 40
0.05
  9
$TEXTSTYLE
  7
STANDARD
  9
$CLAYER
  8
0
  9
$CELTYPE
  6
BYLAYER
  9
$CECOLOR
 62
   256
  9
$DIMSCALE
 40
1.0
  9
$DIMASZ
 40
0.1875
  9
$DIMEXO
 40
0.0625
  9
$DIMDLI
 40
0.4443307087
  9
$DIMRND
 40
0.0
  9
$DIMDLE
 40
0.0
  9
$DIMEXE
 40
0.125
  9
$DIMTP
 40
0.01
  9
$DIMTM
 40
0.01
  9
$DIMTXT
 40
2.0
  9
$DIMCEN
 40
0.1052362205
  9
$DIMTSZ
 40
0.0
  9
$DIMTOL
 70
     1
  9
$DIMLIM
 70
     0
  9
$DIMTIH
 70
     1
  9
$DIMTOH
 70
     1
  9
$DIMSE1
 70
     0
  9
$DIMSE2
 70
     0
  9
$DIMTAD
 70
     0
  9
$DIMZIN
 70
     0
  9
$DIMBLK
  1

  9
$DIMASO
 70
     1
  9
$DIMSHO
 70
     1
  9
$DIMPOST
  1
\X
  9
$DIMAPOST
  1

  9
$DIMALT
 70
     1
  9
$DIMALTD
 70
     2
  9
$DIMALTF
 40
25.3999999999999986
  9
$DIMLFAC
 40
1.0
  9
$DIMTOFL
 70
     0
  9
$DIMTVP
 40
0.0
  9
$DIMTIX
 70
     0
  9
$DIMSOXD
 70
     0
  9
$DIMSAH
 70
     0
  9
$DIMBLK1
  1

  9
$DIMBLK2
  1

  9
$DIMSTYLE
  2
STANDARD
  9
$DIMCLRD
 70
     0
  9
$DIMCLRE
 70
     0
  9
$DIMCLRT
 70
     0
  9
$DIMTFAC
 40
1.0
  9
$DIMGAP
 40
0.09
  9
$LUNITS
 70
     2
  9
$LUPREC
 70
     4
  9
$SKETCHINC
 40
0.1
  9
$FILLETRAD
 40
0.0
  9
$AUNITS
 70
     0
  9
$AUPREC
 70
     0
  9
$MENU
  1
.
  9
$ELEVATION
 40
0.0
  9
$PELEVATION
 40
0.0
  9
$THICKNESS
 40
0.0
  9
$LIMCHECK
 70
     0
  9
$BLIPMODE
 70
     0
  9
$CHAMFERA
 40
0.0
  9
$CHAMFERB
 40
0.0
  9
$SKPOLY
 70
     0
  9
$TDCREATE
 40
2458060.468368056230247
  9
$TDUPDATE
 40
2459951.7118402780033648
  9
$TDINDWG
 40
0.3981667824
  9
$TDUSRTIMER
 40
0.3981667824
  9
$USRTIMER
 70
     1
  9
$ANGBASE
 50
0.0
  9
$ANGDIR
 70
     0
  9
$PDMODE
 70
     0
  9
$PDSIZE
 40
0.3125
  9
$PLINEWID
 40
0.0
  9
$COORDS
 70
     1
  9
$SPLFRAME
 70
     0
  9
$SPLINETYPE
 70
     6
  9
$SPLINESEGS
 70
     8
  9
$ATTDIA
 70
     1
  9
$ATTREQ
 70
     1
  9
$HANDLING
 70
     1
  9
$HANDSEED
  5
9351
  9
$SURFTAB1
 70
     6
  9
$SURFTAB2
 70
     6
  9
$SURFTYPE
 70
     6
  9
$SURFU
 70
     6
  9
$SURFV
 70
     6
  9
$UCSNAME
  2

  9
$UCSORG
 10
0.0
 20
0.0
 30
0.0
  9
$UCSXDIR
 10
1.0
 20
0.0
 30
0.0
  9
$UCSYDIR
 10
0.0
 20
1.0
 30
0.0
  9
$PUCSNAME
  2

  9
$PUCSORG
 10
0.0
 20
0.0
 30
0.0
  9
$PUCSXDIR
 10
1.0
 20
0.0
 30
0.0
  9
$PUCSYDIR
 10
0.0
 20
1.0
 30
0.0
  9
$USERI1
 70
     0
  9
$USERI2
 70
     0
  9
$USERI3
 70
     0
  9
$USERI4
 70
     0
  9
$USERI5
 70
     0
  9
$USERR1
 40
0.0
  9
$USERR2
 40
0.0
  9
$USERR3
 40
0.0
  9
$USERR4
 40
0.0
  9
$USERR5
 40
0.0
  9
$WORLDVIEW
 70
     1
  9
$SHADEDGE
 70
     3
  9
$SHADEDIF
 70
    70
  9
$TILEMODE
 70
     1
  9
$MAXACTVP
 70
    64
  9
$PLIMCHECK
 70
     0
  9
$PEXTMIN
 10
1.0000000000000000E+20
 20
1.0000000000000000E+20
 30
1.0000000000000000E+20
  9
$PEXTMAX
 10
-1.0000000000000000E+20
 20
-1.0000000000000000E+20
 30
-1.0000000000000000E+20
  9
$PLIMMIN
 10
0.0
 20
0.0
  9
$PLIMMAX
 10
12.0
 20
9.0
  9
$UNITMODE
 70
     0
  9
$VISRETAIN
 70
     1
  9
$PLINEGEN
 70
     0
  9
$PSLTSCALE
 70
     1
  0
ENDSEC
  0
SECTION
  2
TABLES
  0
TABLE
  2
VPORT
 70
     1
  0
VPORT
  2
*ACTIVE
 70
     0
 10
0.0
 20
0.0
 11
1.0
 21
1.0
 12
-39975.9896306165901478
 22
-17366.2367647492683318
 13
0.0
 23
0.0
 14
1.0
 24
1.0
 15
0.0
 25
0.0
 16
0.0
 26
0.0
 36
60.2538140246172205
 17
3914.8226318359379547
 27
119.2012214660643963
 37
0.0
 40
27.9761393465159891
 41
1.7905405405405399
 42
50.0
 43
0.0
 44
0.0
 50
0.0
 51
0.0
 71
     0
 72
   100
 73
     1
 74
     1
 75
     0
 76
     0
 77
     0
 78
     0
  0
ENDTAB
  0
TABLE
  2
LTYPE
 70
     2
  0
LTYPE
  2
CONTINUOUS
 70
     0
  3
Solid line
 72
    65
 73
     0
 40
0.0
  0
LTYPE
  2
PHANTOM2
 70
     0
  3
___ _ _ ___ _ _ ___ _ _ ___ _ _
 72
    65
 73
     6
 40
1.25
 49
0.625
 49
-0.125
 49
0.125
 49
-0.125
 49
0.125
 49
-0.125
  0
ENDTAB
  0
TABLE
  2
LAYER
 70
     2
  0
LAYER
  2
0
 70
     0
 62
   255
  6
CONTINUOUS
  0
LAYER
  2
DEFPOINTS
 70
     0
 62
     7
  6
CONTINUOUS
  0
ENDTAB
  0
TABLE
  2
STYLE
 70
     1
  0
STYLE
  2
STANDARD
 70
     0
 40
0.0
 41
0.8
 50
0.0
 71
     0
 42
0.2
  3
txt
  4

  0
ENDTAB
  0
TABLE
  2
VIEW
 70
     0
  0
ENDTAB
  0
TABLE
  2
UCS
 70
     0
  0
ENDTAB
  0
TABLE
  2
APPID
 70
    10
  0
APPID
  2
ACAD
 70
     0
  0
APPID
  2
ACAD_MLEADERVER
 70
     0
  0
APPID
  2
ACAD_EXEMPT_FROM_CAD_STANDARDS
 70
     0
  0
APPID
  2
ACAD_NAV_VCDISPLAY
 70
     0
  0
APPID
  2
ACAECLAYERSTANDARD
 70
     0
  0
APPID
  2
ACCMTRANSPARENCY
 70
     0
  0
APPID
  2
ACAD_DSTYLE_DIMJAG
 70
     0
  0
APPID
  2
ACAD_DSTYLE_DIMTALN
 70
     0
  0
APPID
  2
ACDBATTR
 70
     0
  0
APPID
  2
ACADANNOTATIVE
 70
     0
  0
ENDTAB
  0
TABLE
  2
DIMSTYLE
 70
     1
  0
DIMSTYLE
  2
STANDARD
 70
     0
  3

  4

  5

  6

  7

 40
1.0
 41
0.1875
 42
0.0625
 43
0.38
 44
0.125
 45
0.0
 46
0.0
 47
0.01
 48
0.01
140
0.15625
141
0.09
142
0.0
143
25.3999999999999986
144
1.0
145
0.0
146
1.0
147
0.09
 71
     1
 72
     0
 73
     1
 74
     1
 75
     0
 76
     0
 77
     0
 78
     4
170
     0
171
     2
172
     0
173
     0
174
     0
175
     0
176
     0
177
     0
178
     0
  0
ENDTAB
  0
ENDSEC
  0
SECTION
  2
BLOCKS
  0
BLOCK
  8
0
  2
$MODEL_SPACE
 70
     0
 10
0.0
 20
0.0
 30
0.0
  3
$MODEL_SPACE
  1

  0
ENDBLK
  5
21
  8
0
  0
BLOCK
 67
     1
  8
0
  2
$PAPER_SPACE
 70
     0
 10
0.0
 20
0.0
 30
0.0
  3
$PAPER_SPACE
  1

  0
ENDBLK
  5
1D
 67
     1
  8
0
  0
ENDSEC
  0
SECTION
  2
ENTITIES
  0
ATTDEF
  5
761E
  8
DEFPOINTS
 10
-36061.1706799807434436
 20
-17233.1422483787100646
 30
0.0
 40
0.001
  1
K-31116K-HC
  3

  2
MODELNUMBER
 70
     0
1001
ACDBATTR
1070
     0
1070
     1
  0
ATTDEF
  5
761F
  8
DEFPOINTS
 10
-36061.1706799807434436
 20
-17233.1439150453807088
 30
0.0
 40
0.001
  1
REACH UP
  3

  2
TRADENAME
 70
     0
1001
ACDBATTR
1070
     0
1070
     1
  0
ATTDEF
  5
7620
  8
DEFPOINTS
 10
-36061.1706799807434436
 20
-17233.145581712051353
 30
0.0
 40
0.001
  1
TOILET
  3

  2
PRODUCT
 70
     0
1001
ACDBATTR
1070
     0
1070
     1
  0
LINE
  5
91BA
  8
0
 10
-36068.4486888302926673
 20
-17234.1300148959817307
 30
0.0
 11
-36053.8853087310126284
 21
-17234.1300148959817307
 31
0.0
  0
ARC
  5
91BB
  8
0
 10
-36061.7857457370628254
 20
-17190.4679078274093627
 30
0.0
 40
49.5835601333062712
 50
263.6843682941774887
 51
270.7150053214999161
  0
ARC
  5
91BC
  8
0
 10
-36067.0314964956196491
 20
-17237.9504741840282804
 30
0.0
 40
1.812129587222665
 50
182.0299913087692119
 51
263.3862571267926
  0
LINE
  5
91BD
  8
0
 10
-36068.0399419459427008
 20
-17242.5945818823784066
 30
0.0
 11
-36065.5087043075909605
 21
-17242.5945818823784066
 31
0.0
  0
LINE
  5
91BE
  8
0
 10
-36068.3604105978665757
 20
-17239.1824648291694757
 30
0.0
 11
-36068.3500702105811797
 21
-17243.9517752170504536
 31
0.0
  0
LINE
  5
91BF
  8
0
 10
-36068.3321741753679817
 20
-17242.8725161370093701
 30
0.0
 11
-36068.3461852541804546
 21
-17243.1517033650816302
 31
0.0
  0
ARC
  5
91C0
  8
0
 10
-36068.0399419459427008
 20
-17242.8871818823790818
 30
0.0
 40
0.2926
 50
90.0
 51
177.1270077121799034
  0
ARC
  5
91C1
  8
0
 10
-36056.0470585011207731
 20
-17251.8650131066206086
 30
0.0
 40
12.0074261487163199
 50
192.8813163121301955
 51
208.2930529293157065
  0
ARC
  5
91C2
  8
0
 10
-36044.9548355177466874
 20
-17249.3551917548684287
 30
0.0
 40
23.3800363415514596
 50
183.84444904874141
 51
192.8172198689574088
  0
ARC
  5
91C3
  8
0
 10
-36038.0634124491480179
 20
-17248.7765596672106767
 30
0.0
 40
30.2949674252198804
 50
182.4585131310601867
 51
184.0624634847594052
  0
ARC
  5
91C4
  8
0
 10
-36096.0723485299313325
 20
-17243.4171171457783203
 30
0.0
 40
27.72743360768294
 50
358.732004625237721
 51
0.548457600391159
  0
ARC
  5
91C5
  8
0
 10
-36356.0332248723134398
 20
-17244.4691353589114442
 30
0.0
 40
287.6818543302443913
 50
359.4017051419075983
 51
0.0873215504528626
  0
ARC
  5
91C6
  8
0
 10
-36011.9019906511821318
 20
-17247.981780576028541
 30
0.0
 40
56.4673552389261317
 50
179.4838664989918016
 51
179.556841396539113
  0
ARC
  5
91C7
  8
0
 10
-36011.9019906406392693
 20
-17247.9817805761304044
 30
0.0
 40
56.4673552494628694
 50
180.443158603460887
 51
182.1255243223315006
  0
LINE
  5
91C8
  8
0
 10
-36065.4647809835078078
 20
-17242.6148848013508541
 30
0.0
 11
-36065.4611780985578662
 21
-17242.729102023611631
 31
0.0
  0
ARC
  5
91C9
  8
0
 10
-36065.5128955428299378
 20
-17242.6613125059084268
 30
0.0
 40
0.0668621161000163
 50
43.9778179548734869
 51
86.4060719295978004
  0
LINE
  5
91CA
  8
0
 10
-36065.3761096921516582
 20
-17242.7571281482814811
 30
0.0
 11
-36056.9578878691609134
 21
-17242.7571281482814811
 31
0.0
  0
ARC
  5
91CB
  8
0
 10
-36065.4424152563515236
 20
-17242.7225871328009816
 30
0.0
 40
0.0198617232443865
 50
199.1481784310346086
 51
242.728070673117486
  0
ARC
  5
91CC
  8
0
 10
-36065.3843902838125359
 20
-17242.6039689669887593
 30
0.0
 40
0.1519077680681567
 50
243.7757314155375923
 51
266.3051210673198739
  0
ARC
  5
91CD
  8
0
 10
-36065.2598022749007214
 20
-17241.3111052950116573
 30
0.0
 40
1.4506927681191011
 50
264.6850827717794914
 51
265.40144950199101
  0
LINE
  5
91CE
  8
0
 10
-36065.442588981881272
 20
-17242.6339818823798851
 30
0.0
 11
-36065.442588981881272
 21
-17242.7442860420196666
 31
0.0
  0
LINE
  5
91CF
  8
0
 10
-36065.4031889818797936
 20
-17242.5945818823784066
 30
0.0
 11
-36064.930777958179533
 21
-17242.5945818823784066
 31
0.0
  0
LINE
  5
91D0
  8
0
 10
-36064.930777958179533
 20
-17242.7571281482814811
 30
0.0
 11
-36064.930777958179533
 21
-17242.5945818823784066
 31
0.0
  0
ARC
  5
91D1
  8
0
 10
-36065.4031889818797936
 20
-17242.6339818823798851
 30
0.0
 40
0.0394
 50
90.0
 51
180.0
  0
LINE
  5
91D2
  8
0
 10
-36064.867793258788879
 20
-17242.7520621980802389
 30
0.0
 11
-36057.4032196031184867
 21
-17242.7520621980693249
 31
0.0
  0
ARC
  5
91D3
  8
0
 10
-36064.8677858322771499
 20
-17242.7914322760807408
 30
0.0
 40
0.0393700787002716
 50
90.0108079018923064
 51
119.3870378558629
  0
LINE
  5
91D4
  8
0
 10
-36063.8763646958468598
 20
-17242.7158707707785652
 30
0.0
 11
-36058.4576328654511599
 21
-17242.7158707707785652
 31
0.0
  0
ARC
  5
91D5
  8
0
 10
-36063.8551844483081368
 20
-17244.0871974799883901
 30
0.0
 40
1.3714902647424889
 50
90.8848674080288532
 51
103.2216993639485025
  0
LINE
  5
91D6
  8
0
 10
-36068.3676568560986198
 20
-17248.4185273138282355
 30
0.0
 11
-36068.3676568560986198
 21
-17247.5450338384216593
 31
0.0
  0
CIRCLE
  5
91D7
  8
0
 10
-36061.1669985475309659
 20
-17237.021008885189076
 30
0.0
 40
0.9448818898000004
  0
CIRCLE
  5
91D8
  8
0
 10
-36061.1669985475309659
 20
-17237.021008885189076
 30
0.0
 40
0.6822648631999968
  0
ARC
  5
91D9
  8
0
 10
-36061.1669985475818976
 20
-17237.021008885189076
 30
0.0
 40
0.6692913385999973
 50
277.4943510985738726
 51
82.5067431813952936
  0
ARC
  5
91DA
  8
0
 10
-36061.1669985475818976
 20
-17237.021008885189076
 30
0.0
 40
0.6692913385999973
 50
86.7307093080178362
 51
273.2692907166214127
  0
ARC
  5
91DB
  8
0
 10
-36060.9990209114330355
 20
-17237.6479099578791647
 30
0.0
 40
0.0333271255099494
 50
231.3139199574621045
 51
280.9796381775468035
  0
ARC
  5
91DC
  8
0
 10
-36060.9990209114403115
 20
-17237.6479099578791647
 30
0.0
 40
0.0333271255126645
 50
289.0203618919009045
 51
338.6860800681791943
  0
ARC
  5
91DD
  8
0
 10
-36061.0816368007508572
 20
-17237.6625042111190851
 30
0.0
 40
0.0221631876293191
 50
183.4082402071549893
 51
275.0031963972463132
  0
ARC
  5
91DE
  8
0
 10
-36061.1359173822565936
 20
-17237.6716736852213216
 30
0.0
 40
0.0189154249636605
 50
292.0064042698784874
 51
336.6957676040465799
  0
ARC
  5
91DF
  8
0
 10
-36061.1359172751399456
 20
-17236.3703439527089358
 30
0.0
 40
0.0189152619277436
 50
356.4257726650283757
 51
67.9937471432952663
  0
ARC
  5
91E0
  8
0
 10
-36061.0814290549533325
 20
-17236.3797536416714138
 30
0.0
 40
0.0223860866634296
 50
85.6127774937769033
 51
175.9970287662656006
  0
ARC
  5
91E1
  8
0
 10
-36064.817735484939476
 20
-17237.0111998791689985
 30
0.0
 40
3.7675337195446459
 50
7.8328011586105877
 51
9.6725317539626516
  0
ARC
  5
91E2
  8
0
 10
-36064.5568864320302964
 20
-17236.9820616509787214
 30
0.0
 40
3.5051537259288752
 50
6.1296373720401149
 51
7.9420402134532919
  0
ARC
  5
91E3
  8
0
 10
-36064.5380456944403704
 20
-17236.9892706212012854
 30
0.0
 40
3.487202547972228
 50
3.2320451602222162
 51
6.28046011717145
  0
ARC
  5
91E4
  8
0
 10
-36065.5412990537297446
 20
-17237.0540316218903172
 30
0.0
 40
4.4925186322344901
 50
358.8251243657247187
 51
3.335281122698031
  0
ARC
  5
91E5
  8
0
 10
-36064.2134630629516323
 20
-17237.0489091542112874
 30
0.0
 40
3.1652321152332989
 50
353.0079841867097912
 51
358.2395751545503231
  0
ARC
  5
91E6
  8
0
 10
-36064.9027711546877981
 20
-17237.0174835024299682
 30
0.0
 40
3.8536000019545611
 50
350.344529815755493
 51
353.7918296688400801
  0
LINE
  5
91E7
  8
0
 10
-36061.1156388715680805
 20
-17236.3796816748399579
 30
0.0
 11
-36061.1033175269403728
 21
-17236.3807877244398696
 31
0.0
  0
LINE
  5
91E8
  8
0
 10
-36061.1136098011629656
 20
-17236.3916999069915619
 30
0.0
 11
-36061.1012740020814817
 21
-17236.3928684292404796
 31
0.0
  0
LINE
  5
91E9
  8
0
 10
-36061.1002838328568032
 20
-17236.4773786600089807
 30
0.0
 11
-36061.088209097928484
 21
-17236.477378640891402
 31
0.0
  0
LINE
  5
91EA
  8
0
 10
-36061.0974080366868293
 20
-17236.497750053411437
 30
0.0
 11
-36061.0853529207233805
 21
-17236.4977500547101954
 31
0.0
  0
LINE
  5
91EB
  8
0
 10
-36061.096915073110722
 20
-17236.5013238458886917
 30
0.0
 11
-36061.0848562182873138
 21
-17236.5013238458886917
 31
0.0
  0
LINE
  5
91EC
  8
0
 10
-36061.1025817149275099
 20
-17236.4619537670914724
 30
0.0
 11
-36061.0904640627268236
 21
-17236.4619537670914724
 31
0.0
  0
LINE
  5
91ED
  8
0
 10
-36061.1037103883863892
 20
-17236.4540797513909638
 30
0.0
 11
-36061.0916212232623366
 21
-17236.4540797513909638
 31
0.0
  0
LINE
  5
91EE
  8
0
 10
-36061.0707670086121652
 20
-17236.7532923497892625
 30
0.0
 11
-36061.0588319089292781
 21
-17236.7532923497892625
 31
0.0
  0
LINE
  5
91EF
  8
0
 10
-36061.0705173683672911
 20
-17236.7568661408513435
 30
0.0
 11
-36061.0585913933973643
 21
-17236.7568652282097901
 31
0.0
  0
LINE
  5
91F0
  8
0
 10
-36061.0693849401723128
 20
-17236.7772377195287845
 30
0.0
 11
-36061.0572925671804114
 21
-17236.777230032501393
 31
0.0
  0
LINE
  5
91F1
  8
0
 10
-36061.0683529271409498
 20
-17236.7926624284882564
 30
0.0
 11
-36061.0563899347325787
 21
-17236.7926624284882564
 31
0.0
  0
LINE
  5
91F2
  8
0
 10
-36061.1136098011629656
 20
-17237.6503178633793141
 30
0.0
 11
-36061.1012764594415785
 21
-17237.6491495982481865
 31
0.0
  0
LINE
  5
91F3
  8
0
 10
-36061.1156388715680805
 20
-17237.6623360955309181
 30
0.0
 11
-36061.1033174531621626
 21
-17237.6612300385895651
 31
0.0
  0
LINE
  5
91F4
  8
0
 10
-36061.1038134100381285
 20
-17237.5879380190890515
 30
0.0
 11
-36061.0916166446113493
 21
-17237.5879380190890515
 31
0.0
  0
LINE
  5
91F5
  8
0
 10
-36061.1026641445278074
 20
-17237.5800640032903175
 30
0.0
 11
-36061.0904640435328474
 21
-17237.5800640032903175
 31
0.0
  0
LINE
  5
91F6
  8
0
 10
-36061.1002838328713551
 20
-17237.5646391104382928
 30
0.0
 11
-36061.0882010247223661
 21
-17237.5646391104382928
 31
0.0
  0
LINE
  5
91F7
  8
0
 10
-36061.0974080367013812
 20
-17237.5442677170613024
 30
0.0
 11
-36061.0853464511019411
 21
-17237.5442677157916478
 31
0.0
  0
LINE
  5
91F8
  8
0
 10
-36061.0848550299269846
 20
-17237.5406939245913236
 30
0.0
 11
-36061.0969150731325499
 21
-17237.5406939245913236
 31
0.0
  0
LINE
  5
91F9
  8
0
 10
-36061.0677389397969819
 20
-17237.2414813261893869
 30
0.0
 11
-36061.0540944073727587
 21
-17237.2414813261893869
 31
0.0
  0
LINE
  5
91FA
  8
0
 10
-36061.0682595216276241
 20
-17237.2493553418898955
 30
0.0
 11
-36061.0545924481702968
 21
-17237.2494852803501999
 31
0.0
  0
LINE
  5
91FB
  8
0
 10
-36061.0691587145483936
 20
-17237.2647801947205153
 30
0.0
 11
-36061.0556009264328168
 21
-17237.2647819639314548
 31
0.0
  0
LINE
  5
91FC
  8
0
 10
-36061.070517368381843
 20
-17237.2851516296286718
 30
0.0
 11
-36061.0570490931277163
 21
-17237.2850133567808371
 31
0.0
  0
LINE
  5
91FD
  8
0
 10
-36061.0707670086194412
 20
-17237.2887254206907528
 30
0.0
 11
-36061.0573263394398964
 21
-17237.288690983739798
 31
0.0
  0
ARC
  5
91FE
  8
0
 10
-36064.8776284691266483
 20
-17237.0210088851417822
 30
0.0
 40
3.816263398004172
 50
350.0691934607019107
 51
350.3254756022899983
  0
ARC
  5
91FF
  8
0
 10
-36064.3489255463791778
 20
-17237.1102712196116045
 30
0.0
 40
3.2800790156263488
 50
350.3105191543889987
 51
351.7654324619351769
  0
ARC
  5
9200
  8
0
 10
-36061.624749797716504
 20
-17237.4916015949711436
 30
0.0
 40
0.5295271730015961
 50
350.3831190112892955
 51
352.071936375836799
  0
ARC
  5
9201
  8
0
 10
-36064.877628468660987
 20
-17237.0210088852109038
 30
0.0
 40
3.816263397524529
 50
351.8103047559760057
 51
352.1733486738281158
  0
ARC
  5
9202
  8
0
 10
-36064.877628468828334
 20
-17237.021008885189076
 30
0.0
 40
3.8162633977011451
 50
352.1733486738281158
 51
355.9773120766269017
  0
ARC
  5
9203
  8
0
 10
-36064.88952513843833
 20
-17237.0201822836315841
 30
0.0
 40
3.8281887495379952
 50
355.9774618077425998
 51
356.0310804003560747
  0
ARC
  5
9204
  8
0
 10
-36064.8776284689374734
 20
-17237.0210088851818
 30
0.0
 40
3.8162633978194869
 50
356.0310982254150076
 51
356.6880742536243929
  0
ARC
  5
9205
  8
0
 10
-36067.3955202714714687
 20
-17237.0219538224191638
 30
0.0
 40
6.3315881806720036
 50
358.0130539472531268
 51
2.0040577589343531
  0
ARC
  5
9206
  8
0
 10
-36056.7453396399869234
 20
-17236.4956779313906736
 30
0.0
 40
4.3332024730401919
 50
183.7255477514381994
 51
184.0343251715985957
  0
ARC
  5
9207
  8
0
 10
-36061.9126647530865739
 20
-17236.8138970977815916
 30
0.0
 40
0.8440762688491966
 50
2.4892262267139862
 51
4.117384722805447
  0
ARC
  5
9208
  8
0
 10
-36709.0997774521165411
 20
-17303.8752442966906528
 30
0.0
 40
651.4959361410463998
 50
5.9135302225305004
 51
5.9358085843592372
  0
ARC
  5
9209
  8
0
 10
-36064.7758459162287181
 20
-17237.0066894738411065
 30
0.0
 40
3.713479038091779
 50
7.8216270108062966
 51
8.1947195562349116
  0
ARC
  5
920A
  8
0
 10
-36058.9889333594401251
 20
-17236.154962276621518
 30
0.0
 40
2.135826103848923
 50
188.0506048592338004
 51
188.682348982547694
  0
ARC
  5
920B
  8
0
 10
-36064.877628468821058
 20
-17237.0210088851818
 30
0.0
 40
3.8162633976851059
 50
8.5432585990478582
 51
9.7988031226954178
  0
ARC
  5
920C
  8
0
 10
-36060.7080751110333949
 20
-17237.4799323217885103
 30
0.0
 40
0.0333271255000354
 50
261.3139198672747057
 51
310.9796372338170158
  0
ARC
  5
920D
  8
0
 10
-36060.7080751110624988
 20
-17237.4799323217885103
 30
0.0
 40
0.0333271255322251
 50
319.0203629584058262
 51
8.6860801084944015
  0
ARC
  5
920E
  8
0
 10
-36060.5405256090671173
 20
-17237.1883482813391311
 30
0.0
 40
0.0340776646573385
 50
291.5694748543903074
 51
337.9340880278559212
  0
ARC
  5
920F
  8
0
 10
-36060.5404302791284863
 20
-17237.1891640357389406
 30
0.0
 40
0.0336979341056409
 50
350.9402171681343816
 51
38.5679860388536611
  0
ARC
  5
9210
  8
0
 10
-36060.8237946441513486
 20
-17237.0076932132506045
 30
0.0
 40
0.3396868699332757
 50
339.1012977455250734
 51
356.391162598272274
  0
ARC
  5
9211
  8
0
 10
-36060.8242650156607851
 20
-17237.0344922889998998
 30
0.0
 40
0.3401861298695601
 50
3.6944847357210011
 51
20.8968340509133803
  0
ARC
  5
9212
  8
0
 10
-36060.5407528305368032
 20
-17236.852681889798987
 30
0.0
 40
0.0340573279040434
 50
321.5442797924814045
 51
7.7817250913800624
  0
ARC
  5
9213
  8
0
 10
-36060.5399486912574503
 20
-17236.8528066452417988
 30
0.0
 40
0.0330638534839738
 50
16.8775303418188791
 51
68.7848002488134398
  0
ARC
  5
9214
  8
0
 10
-36060.7080751110406709
 20
-17236.5620854487387987
 30
0.0
 40
0.0333271255510291
 50
49.0203611906917516
 51
98.6860799480386959
  0
ARC
  5
9215
  8
0
 10
-36060.7080751110770507
 20
-17236.562085448691505
 30
0.0
 40
0.0333271255494488
 50
351.3139200507250166
 51
40.9796388106418306
  0
ARC
  5
9216
  8
0
 10
-36060.9990209114330355
 20
-17236.3941078124917112
 30
0.0
 40
0.0333271254999934
 50
75.1961841976851133
 51
128.686080051001511
  0
ARC
  5
9217
  8
0
 10
-36060.9990209114330355
 20
-17236.3941078124917112
 30
0.0
 40
0.0333271254999874
 50
21.313919959924629
 51
70.9796381905628522
  0
ARC
  5
9218
  8
0
 10
-36061.2221586899322574
 20
-17236.3765769581696077
 30
0.0
 40
0.0355315095758315
 50
98.1664719602468381
 51
146.8040227572815013
  0
ARC
  5
9219
  8
0
 10
-36061.2236737790008192
 20
-17236.3734506504988531
 30
0.0
 40
0.032238564897331
 50
40.1791858732064071
 51
93.7480555160344835
  0
ARC
  5
921A
  8
0
 10
-36061.5737686890497571
 20
-17236.5174678457988193
 30
0.0
 40
0.034958960369745
 50
130.2047367329938936
 51
181.1739589261194965
  0
ARC
  5
921B
  8
0
 10
-36061.5758563135532313
 20
-17236.5169712224014802
 30
0.0
 40
0.0332562486116085
 50
75.1169045440656333
 51
128.0194323738600986
  0
ARC
  5
921C
  8
0
 10
-36061.7880602050790912
 20
-17236.8306699334207224
 30
0.0
 40
0.0327799527237747
 50
167.2936696614303003
 51
217.1298020198960046
  0
ARC
  5
921D
  8
0
 10
-36061.787935007501801
 20
-17236.8315433251809736
 30
0.0
 40
0.0331044545986185
 50
109.247812960024504
 51
165.8664314727936926
  0
ARC
  5
921E
  8
0
 10
-36061.5156915046318318
 20
-17237.0346140387009655
 30
0.0
 40
0.3338492425301561
 50
159.390402990713909
 51
177.6644134445494103
  0
ARC
  5
921F
  8
0
 10
-36061.5070939443830866
 20
-17237.0006606773713429
 30
0.0
 40
0.3443153355496688
 50
186.8550988202349004
 51
201.179010267162397
  0
ARC
  5
9220
  8
0
 10
-36061.7674246778478846
 20
-17237.2149317080693436
 30
0.0
 40
0.0521534561522262
 50
153.3773748977828859
 51
187.1026613800513019
  0
ARC
  5
9221
  8
0
 10
-36061.7853520145217772
 20
-17237.2088739463615639
 30
0.0
 40
0.0360638610259816
 50
200.2908033750616141
 51
248.4333524908660138
  0
ARC
  5
9222
  8
0
 10
-36061.5729890821603476
 20
-17237.519471546591376
 30
0.0
 40
0.0393926969429765
 50
231.8519748050732119
 51
280.0221987732675188
  0
ARC
  5
9223
  8
0
 10
-36061.5753050307612284
 20
-17237.5259777512292203
 30
0.0
 40
0.0329189849747569
 50
177.0898423328517026
 51
228.0242747637149137
  0
ARC
  5
9224
  8
0
 10
-36061.2244739983725594
 20
-17237.6637793127301848
 30
0.0
 40
0.0369722930084718
 50
267.6804669177029723
 51
315.7416081439400273
  0
ARC
  5
9225
  8
0
 10
-36061.2214563040106441
 20
-17237.662128818428755
 30
0.0
 40
0.0388555953217443
 50
215.5955661461997863
 51
263.3285918788282061
  0
LINE
  5
9226
  8
0
 10
-36068.8424888302906766
 20
-17238.0146645619897754
 30
0.0
 11
-36068.8424888302906766
 21
-17234.52381489597974
 31
0.0
  0
ARC
  5
9227
  8
0
 10
-36068.4486888302926673
 20
-17234.52381489597974
 30
0.0
 40
0.3938
 50
90.0
 51
180.0
  0
ARC
  5
9229
  8
0
 10
-36061.2173548079881584
 20
-17255.0350123695097864
 30
0.0
 40
5.9016893745690311
 50
245.7278299473024106
 51
258.9385025904157942
  0
ARC
  5
922A
  8
0
 10
-36060.6725624706086819
 20
-17254.1296463338185276
 30
0.0
 40
6.9520867211197839
 50
226.5044553988761891
 51
244.7020016627845962
  0
ARC
  5
922B
  8
0
 10
-36060.2052978411011281
 20
-17254.1701762853299442
 30
0.0
 40
7.2535858913001299
 50
207.828207855405708
 51
223.6053787674395039
  0
ARC
  5
922C
  8
0
 10
-36061.1305859293206595
 20
-17253.6550236689618032
 30
0.0
 40
7.2749056473602733
 50
260.3532302082903129
 51
269.7132180794733927
  0
ARC
  5
922D
  8
0
 10
-36060.5482518242424703
 20
-17190.4679078274093627
 30
0.0
 40
49.5835601333062712
 50
269.2849946785000839
 51
276.3156317058225113
  0
ARC
  5
922E
  8
0
 10
-36055.3025010656929226
 20
-17237.9504741840282804
 30
0.0
 40
1.812129587222665
 50
276.6137428732074
 51
357.9700086912308166
  0
LINE
  5
922F
  8
0
 10
-36054.2940556153625948
 20
-17242.5945818823784066
 30
0.0
 11
-36056.8252932537070592
 21
-17242.5945818823784066
 31
0.0
  0
LINE
  5
9230
  8
0
 10
-36053.973586963431444
 20
-17239.1824648291694757
 30
0.0
 11
-36053.98392735071684
 21
-17243.9517752170504536
 31
0.0
  0
LINE
  5
9231
  8
0
 10
-36054.0018233859300381
 20
-17242.8725161370093701
 30
0.0
 11
-36053.9878123071175651
 21
-17243.1517033650816302
 31
0.0
  0
ARC
  5
9232
  8
0
 10
-36054.2940556153625948
 20
-17242.8871818823790818
 30
0.0
 40
0.2926
 50
2.8729922878201228
 51
90.0
  0
ARC
  5
9233
  8
0
 10
-36066.2869390601917985
 20
-17251.8650131066206086
 30
0.0
 40
12.0074261487163199
 50
331.7069470706841798
 51
347.1186836878696909
  0
ARC
  5
9234
  8
0
 10
-36077.3791620435513323
 20
-17249.3551917548684287
 30
0.0
 40
23.3800363415514596
 50
347.1827801310425912
 51
356.1555509512584763
  0
ARC
  5
9235
  8
0
 10
-36084.2705851121427258
 20
-17248.7765596672106767
 30
0.0
 40
30.2949674252198804
 50
355.9375365152404811
 51
357.5414868689397281
  0
ARC
  5
9236
  8
0
 10
-36026.2616490313812392
 20
-17243.4171171457783203
 30
0.0
 40
27.72743360768294
 50
179.4515423996087975
 51
181.2679953747623074
  0
ARC
  5
9237
  8
0
 10
-35766.3007726889918558
 20
-17244.4691353589114442
 30
0.0
 40
287.6818543302443913
 50
179.9126784495470872
 51
180.5982948580924017
  0
ARC
  5
9238
  8
0
 10
-36110.4320069101304398
 20
-17247.981780576028541
 30
0.0
 40
56.4673552389261317
 50
0.4431586034609085
 51
0.516133501008164
  0
ARC
  5
9239
  8
0
 10
-36110.4320069206587505
 20
-17247.9817805761304044
 30
0.0
 40
56.4673552494628694
 50
357.8744756776684994
 51
359.5568413965390846
  0
LINE
  5
923A
  8
0
 10
-36056.8692165777902119
 20
-17242.6148848013508541
 30
0.0
 11
-36056.8728194627401535
 21
-17242.729102023611631
 31
0.0
  0
ARC
  5
923B
  8
0
 10
-36056.821102018468082
 20
-17242.6613125059084268
 30
0.0
 40
0.0668621161000163
 50
93.5939280704022138
 51
136.0221820451264989
  0
ARC
  5
923C
  8
0
 10
-36056.8915823049610481
 20
-17242.7225871328009816
 30
0.0
 40
0.0198617232443865
 50
297.2719293268824003
 51
340.8518215689654198
  0
ARC
  5
923D
  8
0
 10
-36056.9496072774927597
 20
-17242.6039689669887593
 30
0.0
 40
0.1519077680681567
 50
273.6948789326801261
 51
296.2242685844623793
  0
ARC
  5
923E
  8
0
 10
-36057.0741952863972983
 20
-17241.3111052950116573
 30
0.0
 40
1.4506927681191011
 50
274.59855049800899
 51
275.3149172282203949
  0
LINE
  5
923F
  8
0
 10
-36056.8914085794167477
 20
-17242.6339818823798851
 30
0.0
 11
-36056.8914085794167477
 21
-17242.7442860420196666
 31
0.0
  0
LINE
  5
9240
  8
0
 10
-36056.9308085794182261
 20
-17242.5945818823784066
 30
0.0
 11
-36057.4032196031184867
 21
-17242.5945818823784066
 31
0.0
  0
LINE
  5
9241
  8
0
 10
-36057.4032196031184867
 20
-17242.7571281482814811
 30
0.0
 11
-36057.4032196031184867
 21
-17242.5945818823784066
 31
0.0
  0
ARC
  5
9242
  8
0
 10
-36056.9308085794182261
 20
-17242.6339818823798851
 30
0.0
 40
0.0394
 50
0.0
 51
90.0
  0
ARC
  5
9243
  8
0
 10
-36057.4662117290208698
 20
-17242.7914322760807408
 30
0.0
 40
0.0393700787002716
 50
60.6129621441370503
 51
89.9891920981076936
  0
ARC
  5
9244
  8
0
 10
-36058.4788131129898829
 20
-17244.0871974799883901
 30
0.0
 40
1.3714902647424889
 50
76.7783006360515117
 51
89.1151325919711184
  0
LINE
  5
9245
  8
0
 10
-36053.9663407051994
 20
-17248.4185273138282355
 30
0.0
 11
-36053.9663407051994
 21
-17247.5450338384216593
 31
0.0
  0
LINE
  5
9246
  8
0
 10
-36053.4915087310073432
 20
-17238.0146645619897754
 30
0.0
 11
-36053.4915087310073432
 21
-17234.52381489597974
 31
0.0
  0
ARC
  5
9247
  8
0
 10
-36053.8853087310126284
 20
-17234.52381489597974
 30
0.0
 40
0.3938
 50
0.0
 51
90.0
  0
ARC
  5
9248
  8
0
 10
-36061.1166427533098613
 20
-17255.0350123695097864
 30
0.0
 40
5.9016893745690311
 50
281.0614974095842058
 51
294.2721700526976178
  0
ARC
  5
9249
  8
0
 10
-36061.6614350906893378
 20
-17254.1296463338185276
 30
0.0
 40
6.9520867211197839
 50
295.2979983372154038
 51
313.4955446011239246
  0
ARC
  5
924A
  8
0
 10
-36062.1286997201896156
 20
-17254.1701762853299442
 30
0.0
 40
7.2535858913001299
 50
316.3946212325604961
 51
332.171792144594292
  0
ARC
  5
924B
  8
0
 10
-36061.2034116319773602
 20
-17253.6550236689508893
 30
0.0
 40
7.274905647365661
 50
270.2867819205266073
 51
279.6467697917095734
  0
ENDSEC
  0
EOF
