  0
SECTION
  2
HEADER
  9
$ACADVER
  1
AC1009
  9
$INSBASE
 10
4302.2338969301426914
 20
253.7631873217659972
 30
0.0
  9
$EXTMIN
 10
4214.089266847536237
 20
214.3724823316657933
 30
0.0
  9
$EXTMAX
 10
4315.660166614935406
 20
267.1983586630802847
 30
0.0
  9
$LIMMIN
 10
0.0
 20
0.0
  9
$LIMMAX
 10
11.6929133858000007
 20
8.2677165353999982
  9
$ORTHOMODE
 70
     0
  9
$REGENMODE
 70
     1
  9
$FILLMODE
 70
     1
  9
$QTEXTMODE
 70
     0
  9
$MIRRTEXT
 70
     0
  9
$DRAGMODE
 70
     2
  9
$LTSCALE
 40
0.6431102362
  9
$OSMODE
 70
  4095
  9
$ATTMODE
 70
     1
  9
$TEXTSIZE
 40
0.2
  9
$TRACEWID
 40
0.05
  9
$TEXTSTYLE
  7
STANDARD
  9
$CLAYER
  8
0
  9
$CELTYPE
  6
BYLAYER
  9
$CECOLOR
 62
   256
  9
$DIMSCALE
 40
1.0
  9
$DIMASZ
 40
0.1875
  9
$DIMEXO
 40
0.0625
  9
$DIMDLI
 40
0.4443307087
  9
$DIMRND
 40
0.0
  9
$DIMDLE
 40
0.0
  9
$DIMEXE
 40
0.125
  9
$DIMTP
 40
0.01
  9
$DIMTM
 40
0.01
  9
$DIMTXT
 40
2.0
  9
$DIMCEN
 40
0.1052362205
  9
$DIMTSZ
 40
0.0
  9
$DIMTOL
 70
     1
  9
$DIMLIM
 70
     0
  9
$DIMTIH
 70
     1
  9
$DIMTOH
 70
     1
  9
$DIMSE1
 70
     0
  9
$DIMSE2
 70
     0
  9
$DIMTAD
 70
     0
  9
$DIMZIN
 70
     0
  9
$DIMBLK
  1

  9
$DIMASO
 70
     1
  9
$DIMSHO
 70
     1
  9
$DIMPOST
  1
\X
  9
$DIMAPOST
  1

  9
$DIMALT
 70
     1
  9
$DIMALTD
 70
     2
  9
$DIMALTF
 40
25.3999999999999986
  9
$DIMLFAC
 40
1.0
  9
$DIMTOFL
 70
     0
  9
$DIMTVP
 40
0.0
  9
$DIMTIX
 70
     0
  9
$DIMSOXD
 70
     0
  9
$DIMSAH
 70
     0
  9
$DIMBLK1
  1

  9
$DIMBLK2
  1

  9
$DIMSTYLE
  2
STANDARD
  9
$DIMCLRD
 70
     0
  9
$DIMCLRE
 70
     0
  9
$DIMCLRT
 70
     0
  9
$DIMTFAC
 40
1.0
  9
$DIMGAP
 40
0.09
  9
$LUNITS
 70
     2
  9
$LUPREC
 70
     4
  9
$SKETCHINC
 40
0.1
  9
$FILLETRAD
 40
0.0
  9
$AUNITS
 70
     0
  9
$AUPREC
 70
     0
  9
$MENU
  1
.
  9
$ELEVATION
 40
0.0
  9
$PELEVATION
 40
0.0
  9
$THICKNESS
 40
0.0
  9
$LIMCHECK
 70
     0
  9
$BLIPMODE
 70
     0
  9
$CHAMFERA
 40
0.0
  9
$CHAMFERB
 40
0.0
  9
$SKPOLY
 70
     0
  9
$TDCREATE
 40
2458060.468368056230247
  9
$TDUPDATE
 40
2459978.5672685191966593
  9
$TDINDWG
 40
0.6119283565
  9
$TDUSRTIMER
 40
0.6119283565
  9
$USRTIMER
 70
     1
  9
$ANGBASE
 50
0.0
  9
$ANGDIR
 70
     0
  9
$PDMODE
 70
     0
  9
$PDSIZE
 40
0.3125
  9
$PLINEWID
 40
0.0
  9
$COORDS
 70
     1
  9
$SPLFRAME
 70
     0
  9
$SPLINETYPE
 70
     6
  9
$SPLINESEGS
 70
     8
  9
$ATTDIA
 70
     1
  9
$ATTREQ
 70
     1
  9
$HANDLING
 70
     1
  9
$HANDSEED
  5
A77D
  9
$SURFTAB1
 70
     6
  9
$SURFTAB2
 70
     6
  9
$SURFTYPE
 70
     6
  9
$SURFU
 70
     6
  9
$SURFV
 70
     6
  9
$UCSNAME
  2

  9
$UCSORG
 10
0.0
 20
0.0
 30
0.0
  9
$UCSXDIR
 10
1.0
 20
0.0
 30
0.0
  9
$UCSYDIR
 10
0.0
 20
1.0
 30
0.0
  9
$PUCSNAME
  2

  9
$PUCSORG
 10
0.0
 20
0.0
 30
0.0
  9
$PUCSXDIR
 10
1.0
 20
0.0
 30
0.0
  9
$PUCSYDIR
 10
0.0
 20
1.0
 30
0.0
  9
$USERI1
 70
     0
  9
$USERI2
 70
     0
  9
$USERI3
 70
     0
  9
$USERI4
 70
     0
  9
$USERI5
 70
     0
  9
$USERR1
 40
0.0
  9
$USERR2
 40
0.0
  9
$USERR3
 40
0.0
  9
$USERR4
 40
0.0
  9
$USERR5
 40
0.0
  9
$WORLDVIEW
 70
     1
  9
$SHADEDGE
 70
     3
  9
$SHADEDIF
 70
    70
  9
$TILEMODE
 70
     1
  9
$MAXACTVP
 70
    64
  9
$PLIMCHECK
 70
     0
  9
$PEXTMIN
 10
1.0000000000000000E+20
 20
1.0000000000000000E+20
 30
1.0000000000000000E+20
  9
$PEXTMAX
 10
-1.0000000000000000E+20
 20
-1.0000000000000000E+20
 30
-1.0000000000000000E+20
  9
$PLIMMIN
 10
0.0
 20
0.0
  9
$PLIMMAX
 10
12.0
 20
9.0
  9
$UNITMODE
 70
     0
  9
$VISRETAIN
 70
     1
  9
$PLINEGEN
 70
     0
  9
$PSLTSCALE
 70
     1
  0
ENDSEC
  0
SECTION
  2
TABLES
  0
TABLE
  2
VPORT
 70
     1
  0
VPORT
  2
*ACTIVE
 70
     0
 10
0.0
 20
0.0
 11
1.0
 21
1.0
 12
18.1693042293175218
 22
28.5093708689657284
 13
0.0
 23
0.0
 14
1.0
 24
1.0
 15
0.0
 25
0.0
 16
0.0
 26
0.0
 36
27.5337298366232197
 17
4284.0688476562490905
 27
225.2483596801758097
 37
0.0
 40
0.0211225961824084
 41
2.498684210526315
 42
50.0
 43
0.0
 44
0.0
 50
0.0
 51
0.0
 71
     0
 72
   100
 73
     1
 74
     1
 75
     0
 76
     0
 77
     0
 78
     0
  0
ENDTAB
  0
TABLE
  2
LTYPE
 70
     2
  0
LTYPE
  2
CONTINUOUS
 70
     0
  3
Solid line
 72
    65
 73
     0
 40
0.0
  0
LTYPE
  2
PHANTOM2
 70
     0
  3
___ _ _ ___ _ _ ___ _ _ ___ _ _
 72
    65
 73
     6
 40
1.25
 49
0.625
 49
-0.125
 49
0.125
 49
-0.125
 49
0.125
 49
-0.125
  0
ENDTAB
  0
TABLE
  2
LAYER
 70
     2
  0
LAYER
  2
0
 70
     0
 62
   255
  6
CONTINUOUS
  0
LAYER
  2
DEFPOINTS
 70
     0
 62
     7
  6
CONTINUOUS
  0
ENDTAB
  0
TABLE
  2
STYLE
 70
     1
  0
STYLE
  2
STANDARD
 70
     0
 40
0.0
 41
0.8
 50
0.0
 71
     0
 42
0.2
  3
txt
  4

  0
ENDTAB
  0
TABLE
  2
VIEW
 70
     0
  0
ENDTAB
  0
TABLE
  2
UCS
 70
     0
  0
ENDTAB
  0
TABLE
  2
APPID
 70
     9
  0
APPID
  2
ACAD
 70
     0
  0
APPID
  2
ACAD_MLEADERVER
 70
     0
  0
APPID
  2
ACAD_EXEMPT_FROM_CAD_STANDARDS
 70
     0
  0
APPID
  2
ACAD_NAV_VCDISPLAY
 70
     0
  0
APPID
  2
ACAECLAYERSTANDARD
 70
     0
  0
APPID
  2
ACCMTRANSPARENCY
 70
     0
  0
APPID
  2
ACAD_DSTYLE_DIMJAG
 70
     0
  0
APPID
  2
ACAD_DSTYLE_DIMTALN
 70
     0
  0
APPID
  2
ACDBATTR
 70
     0
  0
ENDTAB
  0
TABLE
  2
DIMSTYLE
 70
     1
  0
DIMSTYLE
  2
STANDARD
 70
     0
  3

  4

  5

  6

  7

 40
1.0
 41
0.1875
 42
0.0625
 43
0.38
 44
0.125
 45
0.0
 46
0.0
 47
0.01
 48
0.01
140
0.15625
141
0.09
142
0.0
143
25.3999999999999986
144
1.0
145
0.0
146
1.0
147
0.09
 71
     1
 72
     0
 73
     1
 74
     1
 75
     0
 76
     0
 77
     0
 78
     4
170
     0
171
     2
172
     0
173
     0
174
     0
175
     0
176
     0
177
     0
178
     0
  0
ENDTAB
  0
ENDSEC
  0
SECTION
  2
BLOCKS
  0
BLOCK
  8
0
  2
$MODEL_SPACE
 70
     0
 10
0.0
 20
0.0
 30
0.0
  3
$MODEL_SPACE
  1

  0
ENDBLK
  5
21
  8
0
  0
BLOCK
 67
     1
  8
0
  2
$PAPER_SPACE
 70
     0
 10
0.0
 20
0.0
 30
0.0
  3
$PAPER_SPACE
  1

  0
ENDBLK
  5
1D
 67
     1
  8
0
  0
BLOCK
  8
0
  2
_FILLED
 70
     0
 10
0.0
 20
0.0
 30
0.0
  3
_FILLED
  1

  0
SOLID
  5
A158
  8
0
  6
BYBLOCK
 62
     0
 10
0.0
 20
0.0
 30
0.0
 11
-1.0
 21
0.1666666667
 31
0.0
 12
-1.0
 22
-0.1666666667
 32
0.0
 13
-1.0
 23
-0.1666666667
 33
0.0
  0
ENDBLK
  5
A159
  8
0
  6
BYBLOCK
 62
     0
  0
ENDSEC
  0
SECTION
  2
ENTITIES
  0
ATTDEF
  5
3930
  8
DEFPOINTS
 10
4302.2271718682695791
 20
253.7613573860058978
 30
0.0
 40
0.001
  1
K-31119K
  3

  2
MODELNUMBER
 70
     0
1001
ACDBATTR
1070
     0
1070
     1
  0
ATTDEF
  5
3931
  8
DEFPOINTS
 10
4302.2271718682695791
 20
253.7596907193392042
 30
0.0
 40
0.001
  1
REACH
  3

  2
TRADENAME
 70
     0
1001
ACDBATTR
1070
     0
1070
     1
  0
ATTDEF
  5
3932
  8
DEFPOINTS
 10
4302.2271718682695791
 20
253.7580240526725106
 30
0.0
 40
0.001
  1
TOILET
  3

  2
PRODUCT
 70
     0
1001
ACDBATTR
1070
     0
1070
     1
  0
LINE
  5
A62F
  8
0
 10
4294.5539158906158264
 20
252.3793873217659893
 30
0.0
 11
4294.5539158906158264
 21
248.9518277489991078
 31
0.0
  0
LINE
  5
A630
  8
0
 10
4294.8928764810925713
 20
247.8974386828002139
 30
0.0
 11
4294.8928764810925713
 21
237.5425873215966135
 31
0.0
  0
LINE
  5
A631
  8
0
 10
4294.9477158906165641
 20
252.7731873217659881
 30
0.0
 11
4309.5200779696688187
 21
252.7731873217659881
 31
0.0
  0
ARC
  5
A632
  8
0
 10
4294.9477158906165641
 20
252.3793873217659893
 30
0.0
 40
0.3938
 50
90.0
 51
180.0
  0
ARC
  5
A633
  8
0
 10
4301.6769255548460933
 20
302.6187331954849924
 30
0.0
 40
55.7387165900128778
 50
264.3455213777485824
 51
267.8726638647586924
  0
ARC
  5
A634
  8
0
 10
4302.9057563159512938
 20
341.241186810608724
 30
0.0
 40
94.3803904593437011
 50
267.9975391932152888
 51
269.595164354900021
  0
ARC
  5
A635
  8
0
 10
4296.3633158906168319
 20
248.9518277489991078
 30
0.0
 40
1.809399999999999
 50
180.0
 51
264.3455213777485824
  0
LINE
  5
A636
  8
0
 10
4297.665510089410418
 20
244.1174931274659912
 30
0.0
 11
4295.089776481093395
 21
244.1174931274659912
 31
0.0
  0
LINE
  5
A637
  8
0
 10
4298.3846967219451471
 20
244.1174931274659912
 30
0.0
 11
4309.3780173791938068
 21
244.1174931274659912
 31
0.0
  0
LINE
  5
A638
  8
0
 10
4299.7158800766455897
 20
244.2105430273074944
 30
0.0
 11
4304.7519137836407026
 21
244.2105430273074944
 31
0.0
  0
LINE
  5
A639
  8
0
 10
4298.2458117904734536
 20
244.191517656565992
 30
0.0
 11
4297.8833542698566816
 21
244.191517656565992
 31
0.0
  0
LINE
  5
A63A
  8
0
 10
4297.7130237751989625
 20
244.191517656565992
 30
0.0
 11
4295.089776481093395
 21
244.191517656565992
 31
0.0
  0
LINE
  5
A63B
  8
0
 10
4298.383609528593297
 20
244.191517656565992
 30
0.0
 11
4299.2252504156685973
 21
244.191517656565992
 31
0.0
  0
ARC
  5
A63C
  8
0
 10
4299.4099262197933058
 20
243.1279706686414102
 30
0.0
 40
1.0794616010549369
 50
97.6200200564372267
 51
99.8507000282103263
  0
ARC
  5
A63D
  8
0
 10
4299.4120787444917369
 20
243.1118811330019014
 30
0.0
 40
1.0956944849537951
 50
90.7497122515240306
 51
97.6200200564372267
  0
ARC
  5
A63E
  8
0
 10
4299.9987997382686444
 20
198.2750546873205906
 30
0.0
 40
45.9363595920269034
 50
90.3528839720762846
 51
90.7497122515240306
  0
ARC
  5
A63F
  8
0
 10
4299.0290495609588106
 20
254.038499277117495
 30
0.0
 40
9.9419089516335113
 50
265.9344429637195049
 51
266.2839537225880235
  0
ARC
  5
A640
  8
0
 10
4298.245720381870342
 20
244.1125242023078101
 30
0.0
 40
0.0789935071456572
 50
6.6035224868909692
 51
89.933699254563777
  0
LINE
  5
A641
  8
0
 10
4298.3442394497933492
 20
244.1202050447660099
 30
0.0
 11
4298.3442394497933492
 21
244.1521476347660098
 31
0.0
  0
ARC
  5
A642
  8
0
 10
4298.3836094715934451
 20
244.1521476347660098
 30
0.0
 40
0.0393700218000372
 50
89.9999170471149057
 51
179.9999999999984084
  0
ARC
  5
A643
  8
0
 10
4297.8838217216252815
 20
244.1200671514596934
 30
0.0
 40
0.0714520341984684
 50
90.3748417348266031
 51
173.6268647623209063
  0
ARC
  5
A644
  8
0
 10
4297.8287205917640676
 20
242.8669843706964002
 30
0.0
 40
1.261114514560951
 50
90.7228225812311848
 51
97.4359430121654668
  0
ARC
  5
A645
  8
0
 10
4297.7134672448810306
 20
244.1120523264955011
 30
0.0
 40
0.0794665674896075
 50
11.24361473075062
 51
90.3197454453255375
  0
ARC
  5
A646
  8
0
 10
4295.089776481093395
 20
243.9946176565659925
 30
0.0
 40
0.1969
 50
90.0
 51
180.0000000000015916
  0
ARC
  5
A647
  8
0
 10
4295.089776481093395
 20
243.9205931274659918
 30
0.0
 40
0.1969
 50
90.0
 51
180.0000000000015916
  0
ARC
  5
A648
  8
0
 10
4365.0473945037956582
 20
240.7022836169207949
 30
0.0
 40
70.2256369118595671
 50
182.5788075172067124
 51
184.4124476190922053
  0
ARC
  5
A649
  8
0
 10
4311.3927660141316665
 20
236.5620591734605114
 30
0.0
 40
16.4115066410285486
 50
184.4124476190922053
 51
191.6878505866891942
  0
ARC
  5
A64A
  8
0
 10
4316.288590328538703
 20
237.5748530273801009
 30
0.0
 40
21.410991325279749
 50
191.6878505866891942
 51
197.6343985065904008
  0
ARC
  5
A64B
  8
0
 10
4304.5728009411686799
 20
233.8506426734674903
 30
0.0
 40
9.1175189220335096
 50
197.6343985065904008
 51
210.788019674793901
  0
ARC
  5
A64C
  8
0
 10
4304.3704157939628203
 20
233.7300542611436924
 30
0.0
 40
8.8819317555823716
 50
210.788019674793901
 51
220.0400101642873949
  0
ARC
  5
A64D
  8
0
 10
4301.9105984896068549
 20
231.6630936175411932
 30
0.0
 40
5.668984903701447
 50
220.0400101642873949
 51
245.8486567907646929
  0
ARC
  5
A64E
  8
0
 10
4302.2276690116023019
 20
232.9204848026024877
 30
0.0
 40
6.9496906942853993
 50
247.7051406789090038
 51
263.9864836254647003
  0
ARC
  5
A64F
  8
0
 10
4302.3086688563398639
 20
233.0690539542507906
 30
0.0
 40
7.1062252788720413
 50
263.462481193483427
 51
269.437436757868511
  0
LINE
  5
A650
  8
0
 10
4309.913877969668647
 20
252.3793873217659893
 30
0.0
 11
4309.913877969668647
 21
248.9518277489991078
 31
0.0
  0
LINE
  5
A651
  8
0
 10
4309.5749173791928115
 20
247.8974386828002139
 30
0.0
 11
4309.5749173791928115
 21
237.5425873215966135
 31
0.0
  0
ARC
  5
A652
  8
0
 10
4309.5200779696688187
 20
252.3793873217659893
 30
0.0
 40
0.3938
 50
0.0
 51
90.0
  0
ARC
  5
A653
  8
0
 10
4302.7908683054411085
 20
302.6187331954849924
 30
0.0
 40
55.7387165900128778
 50
272.1273361352413076
 51
275.6544786221995196
  0
ARC
  5
A654
  8
0
 10
4301.5745695509012876
 20
340.5254575890864999
 30
0.0
 40
93.664661247647885
 50
270.4063803111383777
 51
272.0100980026202251
  0
ARC
  5
A655
  8
0
 10
4308.1044779696703699
 20
248.9518277489991078
 30
0.0
 40
1.809399999999999
 50
275.6544786221995196
 51
0.0
  0
LINE
  5
A656
  8
0
 10
4306.8022837708767838
 20
244.1174931274659912
 30
0.0
 11
4309.3780173791938068
 21
244.1174931274659912
 31
0.0
  0
LINE
  5
A657
  8
0
 10
4306.2219820698128387
 20
244.191517656565992
 30
0.0
 11
4306.5844395904287012
 21
244.191517656565992
 31
0.0
  0
LINE
  5
A658
  8
0
 10
4306.7547700850873298
 20
244.191517656565992
 30
0.0
 11
4309.3780173791938068
 21
244.191517656565992
 31
0.0
  0
LINE
  5
A659
  8
0
 10
4306.0841843316929953
 20
244.191517656565992
 30
0.0
 11
4305.2425434446167856
 21
244.191517656565992
 31
0.0
  0
ARC
  5
A65A
  8
0
 10
4305.057867640493896
 20
243.1279706686414102
 30
0.0
 40
1.0794616010549369
 50
80.1492999717896879
 51
82.3799799435627875
  0
ARC
  5
A65B
  8
0
 10
4305.0557151157945555
 20
243.1118811330019014
 30
0.0
 40
1.0956944849537951
 50
82.3799799435627875
 51
89.2502877484759836
  0
ARC
  5
A65C
  8
0
 10
4304.4689941220167384
 20
198.2750546873205906
 30
0.0
 40
45.9363595920269034
 50
89.2502877484759836
 51
89.6471160279237438
  0
ARC
  5
A65D
  8
0
 10
4305.4387442993256627
 20
254.038499277117495
 30
0.0
 40
9.9419089516335113
 50
273.7160462774119765
 51
274.0655570362803815
  0
ARC
  5
A65E
  8
0
 10
4306.2220734784177694
 20
244.1125242023078101
 30
0.0
 40
0.078993507145659
 50
90.0663007453840976
 51
173.396477513109005
  0
LINE
  5
A65F
  8
0
 10
4306.1235544104929431
 20
244.1202050447660099
 30
0.0
 11
4306.1235544104929431
 21
244.1521476347660098
 31
0.0
  0
ARC
  5
A660
  8
0
 10
4306.0841843886928473
 20
244.1521476347660098
 30
0.0
 40
0.0393700218000372
 50
0.0
 51
90.0000829528851085
  0
ARC
  5
A661
  8
0
 10
4306.5839721386610108
 20
244.1200671514596934
 30
0.0
 40
0.0714520341984747
 50
6.3731352376855721
 51
89.6251582651734111
  0
ARC
  5
A662
  8
0
 10
4306.6390732685222247
 20
242.8669843706964002
 30
0.0
 40
1.261114514560951
 50
82.5640569878345474
 51
89.2771774187688152
  0
ARC
  5
A663
  8
0
 10
4306.7543266154052617
 20
244.1120523264955011
 30
0.0
 40
0.0794665674896075
 50
89.6802545546744483
 51
168.7563852692493924
  0
ARC
  5
A664
  8
0
 10
4309.3780173791938068
 20
243.9946176565659925
 30
0.0
 40
0.1969
 50
359.9999999999984084
 51
90.0
  0
ARC
  5
A665
  8
0
 10
4309.3780173791938068
 20
243.9205931274659918
 30
0.0
 40
0.1969
 50
359.9999999999984084
 51
90.0
  0
ARC
  5
A666
  8
0
 10
4239.4203993564906341
 20
240.7022836169207949
 30
0.0
 40
70.2256369118595671
 50
355.5875523809078231
 51
357.4211924827931739
  0
ARC
  5
A667
  8
0
 10
4293.0750278461528069
 20
236.5620591734605114
 30
0.0
 40
16.4115066410285486
 50
348.3121494133106921
 51
355.5875523809078231
  0
ARC
  5
A668
  8
0
 10
4288.1792035317494083
 20
237.5748530273801009
 30
0.0
 40
21.410991325279749
 50
342.3656014934095992
 51
348.3121494133106921
  0
ARC
  5
A669
  8
0
 10
4299.894992919116703
 20
233.8506426734674903
 30
0.0
 40
9.1175189220335096
 50
329.2119803252061274
 51
342.3656014934095992
  0
ARC
  5
A66A
  8
0
 10
4300.0973780663243815
 20
233.7300542611436924
 30
0.0
 40
8.8819317555823716
 50
319.9599898357125767
 51
329.2119803252061274
  0
ARC
  5
A66B
  8
0
 10
4302.557195370680347
 20
231.6630936175411932
 30
0.0
 40
5.668984903701447
 50
294.1513432092353924
 51
319.9599898357125767
  0
ARC
  5
A66C
  8
0
 10
4302.2534959786671607
 20
232.8525108247667106
 30
0.0
 40
6.8817386249910593
 50
276.0448927388173956
 51
292.4065574958829075
  0
ARC
  5
A66D
  8
0
 10
4302.1691250039457373
 20
233.0690539542507906
 30
0.0
 40
7.1062252788720413
 50
270.562563242131489
 51
276.537518806516573
  0
ARC
  5
A66F
  8
0
 10
4302.2388969300936878
 20
249.8991715737660115
 30
0.0
 40
0.6692913386
 50
87.5285393608266986
 51
272.4709965816206818
  0
ARC
  5
A670
  8
0
 10
4302.2388969300936878
 20
249.8991715737660115
 30
0.0
 40
0.6692913386
 50
277.4857875786709087
 51
82.5127503384949534
  0
ARC
  5
A671
  8
0
 10
4302.2669127577337349
 20
250.5482585855397986
 30
0.0
 40
0.0196
 50
9.8492610095857636
 51
87.5285393608266986
  0
CIRCLE
  5
A672
  8
0
 10
4302.2388969300936878
 20
249.8991715737660115
 30
0.0
 40
0.9055118109999966
  0
ARC
  5
A673
  8
0
 10
4298.5282670087926817
 20
249.8991715737660968
 30
0.0
 40
3.8141732282998979
 50
7.2563368189565312
 51
9.8492610095889717
  0
ARC
  5
A674
  8
0
 10
4298.5282670087917722
 20
249.8991715737658978
 30
0.0
 40
3.8141732283020522
 50
1.196084708463016
 51
7.2563368189565312
  0
ARC
  5
A675
  8
0
 10
4298.5282670087954102
 20
249.8991715737658978
 30
0.0
 40
3.8141732282976171
 50
355.9929316404429187
 51
1.196084708463016
  0
ARC
  5
A676
  8
0
 10
4298.5282670087908627
 20
249.8991715737662958
 30
0.0
 40
3.8141732283025318
 50
351.0740160772352851
 51
355.9929316404429187
  0
ARC
  5
A677
  8
0
 10
4298.5669787101078327
 20
249.8930914953755007
 30
0.0
 40
3.7749869657587261
 50
350.1410881752506157
 51
351.0740160772352851
  0
ARC
  5
A678
  8
0
 10
4302.2669075005624109
 20
249.2500843351039919
 30
0.0
 40
0.0196
 50
272.4709965816206818
 51
350.1410881752426008
  0
ARC
  5
A679
  8
0
 10
4298.5190338425582013
 20
249.8983435686986923
 30
0.0
 40
3.839205888924226
 50
2.117415120747292
 51
9.6218629460738878
  0
ARC
  5
A67A
  8
0
 10
4302.3235553221229566
 20
250.5433235683377973
 30
0.0
 40
0.0196
 50
82.5127503384949534
 51
189.6218629460738043
  0
ARC
  5
A67B
  8
0
 10
4298.5392316725037745
 20
249.8990903369789862
 30
0.0
 40
3.8189942586746088
 50
357.0335958002502252
 51
2.117415120747292
  0
ARC
  5
A67C
  8
0
 10
4298.5151315331386286
 20
249.9003392020914021
 30
0.0
 40
3.8431267343350699
 50
352.8069245811548171
 51
357.0335958002502252
  0
ARC
  5
A67D
  8
0
 10
4298.5508253795796918
 20
249.8958344032762113
 30
0.0
 40
3.80714974326964
 50
350.359989086896519
 51
352.8069245811548171
  0
ARC
  5
A67E
  8
0
 10
4302.3235388845223497
 20
249.2550174190776033
 30
0.0
 40
0.0196
 50
170.3599890869029139
 51
277.4857875786709087
  0
ARC
  5
A67F
  8
0
 10
4302.1824515769922073
 20
250.544344911666002
 30
0.0
 40
0.0343579363999991
 50
42.8970343023699598
 51
147.102965701939894
  0
ARC
  5
A680
  8
0
 10
4301.8313252594925871
 20
250.402480670865998
 30
0.0
 40
0.0346270679013499
 50
76.5213004659625255
 51
181.4786995349483902
  0
ARC
  5
A681
  8
0
 10
4301.6195578262932031
 20
250.088522539965993
 30
0.0
 40
0.0343579364000007
 50
110.8970341821359966
 51
215.1029658278017962
  0
ARC
  5
A682
  8
0
 10
4301.6195578262932031
 20
249.7098206074660141
 30
0.0
 40
0.0343579363999992
 50
144.8970341168547975
 51
249.1029658900997958
  0
ARC
  5
A683
  8
0
 10
4301.8313252594925871
 20
249.3958624766659966
 30
0.0
 40
0.0343579364000001
 50
178.8970341722859132
 51
283.102965826814625
  0
ARC
  5
A684
  8
0
 10
4302.1824515769922073
 20
249.2539982357660051
 30
0.0
 40
0.0343579364000015
 50
212.8970340814435929
 51
317.1029659157533729
  0
ARC
  5
A685
  8
0
 10
4302.4068745661943467
 20
249.2722705010660036
 30
0.0
 40
0.0333271255000034
 50
231.3139199494927141
 51
338.6860800395468232
  0
ARC
  5
A686
  8
0
 10
4302.6978203665930778
 20
249.4402481371660087
 30
0.0
 40
0.0333271254999994
 50
261.3139198681524249
 51
8.686080119354596
  0
ARC
  5
A687
  8
0
 10
4302.8657980027937811
 20
249.7311939375659904
 30
0.0
 40
0.0333271255
 50
291.3139198950073023
 51
38.6860800988565714
  0
ARC
  5
A688
  8
0
 10
4302.8657980027937811
 20
250.0671492098659883
 30
0.0
 40
0.0333271255000007
 50
321.3139199495012122
 51
68.6860800395502622
  0
ARC
  5
A689
  8
0
 10
4302.6978203665930778
 20
250.3580950102659983
 30
0.0
 40
0.0334065006311821
 50
351.2052562753852953
 51
98.7947437245983053
  0
ARC
  5
A68A
  8
0
 10
4302.4068745661943467
 20
250.5260726464659911
 30
0.0
 40
0.0333271255000012
 50
21.3139199604319813
 51
128.6860800505183988
  0
ARC
  5
A68B
  8
0
 10
4302.246199549668745
 20
250.5616055568789022
 30
0.0
 40
0.0078415690872289
 50
89.4341260806534706
 51
119.1518135555838001
  0
ARC
  5
A68C
  8
0
 10
4302.2399581135923654
 20
249.9296691738356913
 30
0.0
 40
0.6398087737253773
 50
87.2297662824062741
 51
89.4341260806534706
  0
ARC
  5
A68D
  8
0
 10
4302.2699650274798842
 20
250.549808042942999
 30
0.0
 40
0.0189443506353383
 50
11.1700854306323105
 51
87.2297662824062741
  0
ARC
  5
A68E
  8
0
 10
4302.270481918328187
 20
250.5499101096627044
 30
0.0
 40
0.0184174789581168
 50
356.0987084339548119
 51
11.17008543062272
  0
ARC
  5
A68F
  8
0
 10
4298.5282344840497899
 20
249.899166092012706
 30
0.0
 40
3.8162963811302122
 50
9.4915347111565946
 51
9.7987969483225896
  0
ARC
  5
A690
  8
0
 10
4299.4176864011906218
 20
250.0413609698966013
 30
0.0
 40
2.915579956139172
 50
7.4392740359736909
 51
9.6177779882083332
  0
ARC
  5
A691
  8
0
 10
4298.6189978203019564
 20
249.9044738002525889
 30
0.0
 40
3.7254094401385229
 50
1.8140329547650089
 51
7.9364219991167202
  0
ARC
  5
A692
  8
0
 10
4298.5282670087926817
 20
249.8991715737660115
 30
0.0
 40
3.8162633977000211
 50
354.0007628255693248
 51
1.8504774445215411
  0
ARC
  5
A693
  8
0
 10
4298.5282670087917722
 20
249.8991715737662105
 30
0.0
 40
3.8162633977010052
 50
350.0691934606963969
 51
354.0007628255676764
  0
ARC
  5
A694
  8
0
 10
4302.2699780953216759
 20
249.248506773779809
 30
0.0
 40
0.0189154250125352
 50
272.7348442609634844
 51
336.6957675107777277
  0
ARC
  5
A695
  8
0
 10
4302.2389506477011309
 20
249.8977794083469064
 30
0.0
 40
0.6689290067929625
 50
270.6239546272691996
 51
272.7359380570590019
  0
ARC
  5
A696
  8
0
 10
4302.2462443002250438
 20
249.2369018666263969
 30
0.0
 40
0.0080118053485441
 50
241.0788487216773035
 51
269.9347952625557809
  0
ARC
  5
A697
  8
0
 10
4302.3234218237221285
 20
250.5409307398174121
 30
0.0
 40
0.0213131916740964
 50
128.8748148615098899
 51
177.1524525775020038
  0
ARC
  5
A698
  8
0
 10
4298.5722031292607426
 20
249.9062880698600111
 30
0.0
 40
3.7837161292907409
 50
7.7856231122795547
 51
9.6721261161898422
  0
ARC
  5
A699
  8
0
 10
4298.5876643977208005
 20
249.9060419704171068
 30
0.0
 40
3.7684314487259112
 50
6.190249738882958
 51
7.8211753019784718
  0
ARC
  5
A69A
  8
0
 10
4302.3659008447339147
 20
250.2959620332482871
 30
0.0
 40
0.0357738995277683
 50
152.6587580164811015
 51
219.1462370645976989
  0
ARC
  5
A69B
  8
0
 10
4299.2964242317902972
 20
249.9690061719861092
 30
0.0
 40
3.0569232080807609
 50
3.6443698522282322
 51
5.7142945827018243
  0
ARC
  5
A69C
  8
0
 10
4298.8431348186213654
 20
249.9095137070034127
 30
0.0
 40
3.5132104362202741
 50
1.132634952254733
 51
4.1427617590686259
  0
ARC
  5
A69D
  8
0
 10
4298.5302362374377481
 20
249.8991341538971085
 30
0.0
 40
3.8262553505085481
 50
352.1944804892933121
 51
1.195414779604359
  0
ARC
  5
A69E
  8
0
 10
4298.5811999590086998
 20
249.8907478337985992
 30
0.0
 40
3.774625120212022
 50
350.3246564200675834
 51
352.215536831468512
  0
ARC
  5
A69F
  8
0
 10
4302.3239806518404293
 20
249.2575731344313112
 30
0.0
 40
0.0218796675835435
 50
183.1658969501953891
 51
233.3737885617962888
  0
LINE
  5
A6A0
  8
0
 10
4302.2880138570935742
 20
249.2448246036391026
 30
0.0
 11
4302.3052032248469914
 21
249.2463424581798961
 31
0.0
  0
LINE
  5
A6A1
  8
0
 10
4302.2900477109833446
 20
249.2566201989671129
 30
0.0
 11
4302.3023721946728983
 21
249.2577479837065084
 31
0.0
  0
LINE
  5
A6A2
  8
0
 10
4302.2902566060529352
 20
249.2578443634197924
 30
0.0
 11
4302.3025742207801159
 21
249.2589500797913047
 31
0.0
  0
LINE
  5
A6A3
  8
0
 10
4302.2922856764662356
 20
249.2698625955711123
 30
0.0
 11
4302.3046053980888246
 21
249.2710294357831913
 31
0.0
  0
LINE
  5
A6A4
  8
0
 10
4302.3021306183927663
 20
249.3322424398660075
 30
0.0
 11
4302.3142788330096664
 21
249.3322424398660075
 31
0.0
  0
LINE
  5
A6A5
  8
0
 10
4302.3032313330932084
 20
249.3401164556659921
 30
0.0
 11
4302.3154495434619093
 21
249.3401164556659921
 31
0.0
  0
LINE
  5
A6A6
  8
0
 10
4302.3056115793933714
 20
249.3555408943641964
 30
0.0
 11
4302.3176887292338506
 21
249.3555408942659994
 31
0.0
  0
LINE
  5
A6A7
  8
0
 10
4302.3084874691439836
 20
249.3759129457679933
 30
0.0
 11
4302.3205501480533712
 21
249.3759129458659913
 31
0.0
  0
LINE
  5
A6A8
  8
0
 10
4302.3089804044957418
 20
249.3794865343660092
 30
0.0
 11
4302.3210404210940396
 21
249.3794865343660092
 31
0.0
  0
LINE
  5
A6A9
  8
0
 10
4302.3351284690052125
 20
249.6314550382660116
 30
0.0
 11
4302.3471168877022137
 21
249.6314550382660116
 31
0.0
  0
LINE
  5
A6AA
  8
0
 10
4302.3365541428929646
 20
249.6554006791660072
 30
0.0
 11
4302.3487207537082213
 21
249.6554006799809997
 31
0.0
  0
LINE
  5
A6AB
  8
0
 10
4302.3376359559933917
 20
249.6708251170659878
 30
0.0
 11
4302.3496740221125947
 21
249.6708251170659878
 31
0.0
  0
LINE
  5
A6AC
  8
0
 10
4302.3381882262247018
 20
250.1196440146659938
 30
0.0
 11
4302.350020239393416
 21
250.1196440146659938
 31
0.0
  0
LINE
  5
A6AD
  8
0
 10
4302.337724318452274
 20
250.1275180304660068
 30
0.0
 11
4302.349574848640259
 21
250.1275180304660068
 31
0.0
  0
LINE
  5
A6AE
  8
0
 10
4302.3367670695979541
 20
250.142942468348906
 30
0.0
 11
4302.3485818062272301
 21
250.1429424675604025
 31
0.0
  0
LINE
  5
A6AF
  8
0
 10
4302.335404280597686
 20
250.163314520666006
 30
0.0
 11
4302.3471657425943704
 21
250.1633145206668019
 31
0.0
  0
LINE
  5
A6B0
  8
0
 10
4302.2885505045369428
 20
250.5534779834773929
 30
0.0
 11
4302.3059482100434252
 21
250.5519345847824866
 31
0.0
  0
LINE
  5
A6B1
  8
0
 10
4302.2900134905139566
 20
250.5417256766089906
 30
0.0
 11
4302.302346927203871
 21
250.5407445252025127
 31
0.0
  0
LINE
  5
A6B2
  8
0
 10
4302.2922856764662356
 20
250.5284805519607971
 30
0.0
 11
4302.3046065145490502
 21
250.5273136060052082
 31
0.0
  0
LINE
  5
A6B3
  8
0
 10
4302.3021625470246363
 20
250.4661007075659995
 30
0.0
 11
4302.3142770940194168
 21
250.4661007075659995
 31
0.0
  0
LINE
  5
A6B4
  8
0
 10
4302.3054337364937965
 20
250.4428022531660076
 30
0.0
 11
4302.3176884486902054
 21
250.4428022532659952
 31
0.0
  0
LINE
  5
A6B5
  8
0
 10
4302.3087248858928433
 20
250.4188566130661115
 30
0.0
 11
4302.3210404470937647
 21
250.4188566130576135
 31
0.0
  0
CIRCLE
  5
A6B6
  8
0
 10
4302.2388969300936878
 20
249.8991715737660115
 30
0.0
 40
0.6822648632000027
  0
CIRCLE
  5
A6B7
  8
0
 10
4302.2388969300936878
 20
249.8991715737660115
 30
0.0
 40
0.6888738461000031
  0
ENDSEC
  0
EOF
