  0
SECTION
  2
HEADER
  9
$ACADVER
  1
AC1009
  9
$INSBASE
 10
4633.71075834743624
 20
228.312327218912003
 30
0.0
  9
$EXTMIN
 10
4627.9049800736083853
 20
228.3092437566934052
 30
-0.0000000000112498
  9
$EXTMAX
 10
4639.5857040246055476
 20
265.5450272276892179
 30
0.0000000000002956
  9
$LIMMIN
 10
0.0
 20
0.0
  9
$LIMMAX
 10
11.6929133858000007
 20
8.2677165353999982
  9
$ORTHOMODE
 70
     0
  9
$REGENMODE
 70
     1
  9
$FILLMODE
 70
     1
  9
$QTEXTMODE
 70
     0
  9
$MIRRTEXT
 70
     0
  9
$DRAGMODE
 70
     2
  9
$LTSCALE
 40
0.6431102362
  9
$OSMODE
 70
  4095
  9
$ATTMODE
 70
     1
  9
$TEXTSIZE
 40
0.2
  9
$TRACEWID
 40
0.05
  9
$TEXTSTYLE
  7
STANDARD
  9
$CLAYER
  8
0
  9
$CELTYPE
  6
BYLAYER
  9
$CECOLOR
 62
   256
  9
$DIMSCALE
 40
1.0
  9
$DIMASZ
 40
0.1875
  9
$DIMEXO
 40
0.0625
  9
$DIMDLI
 40
0.4443307087
  9
$DIMRND
 40
0.0
  9
$DIMDLE
 40
0.0
  9
$DIMEXE
 40
0.125
  9
$DIMTP
 40
0.01
  9
$DIMTM
 40
0.01
  9
$DIMTXT
 40
2.0
  9
$DIMCEN
 40
0.1052362205
  9
$DIMTSZ
 40
0.0
  9
$DIMTOL
 70
     1
  9
$DIMLIM
 70
     0
  9
$DIMTIH
 70
     1
  9
$DIMTOH
 70
     1
  9
$DIMSE1
 70
     0
  9
$DIMSE2
 70
     0
  9
$DIMTAD
 70
     0
  9
$DIMZIN
 70
     0
  9
$DIMBLK
  1

  9
$DIMASO
 70
     1
  9
$DIMSHO
 70
     1
  9
$DIMPOST
  1
\X
  9
$DIMAPOST
  1

  9
$DIMALT
 70
     1
  9
$DIMALTD
 70
     2
  9
$DIMALTF
 40
25.3999999999999986
  9
$DIMLFAC
 40
1.0
  9
$DIMTOFL
 70
     0
  9
$DIMTVP
 40
0.0
  9
$DIMTIX
 70
     0
  9
$DIMSOXD
 70
     0
  9
$DIMSAH
 70
     0
  9
$DIMBLK1
  1

  9
$DIMBLK2
  1

  9
$DIMSTYLE
  2
STANDARD
  9
$DIMCLRD
 70
     0
  9
$DIMCLRE
 70
     0
  9
$DIMCLRT
 70
     0
  9
$DIMTFAC
 40
1.0
  9
$DIMGAP
 40
0.09
  9
$LUNITS
 70
     2
  9
$LUPREC
 70
     4
  9
$SKETCHINC
 40
0.1
  9
$FILLETRAD
 40
0.0
  9
$AUNITS
 70
     0
  9
$AUPREC
 70
     0
  9
$MENU
  1
.
  9
$ELEVATION
 40
0.0
  9
$PELEVATION
 40
0.0
  9
$THICKNESS
 40
0.0
  9
$LIMCHECK
 70
     0
  9
$BLIPMODE
 70
     0
  9
$CHAMFERA
 40
0.0
  9
$CHAMFERB
 40
0.0
  9
$SKPOLY
 70
     0
  9
$TDCREATE
 40
2458060.468368056230247
  9
$TDUPDATE
 40
2460286.5948958331719041
  9
$TDINDWG
 40
0.5009561343
  9
$TDUSRTIMER
 40
0.5009561343
  9
$USRTIMER
 70
     1
  9
$ANGBASE
 50
0.0
  9
$ANGDIR
 70
     0
  9
$PDMODE
 70
     0
  9
$PDSIZE
 40
0.3125
  9
$PLINEWID
 40
0.0
  9
$COORDS
 70
     1
  9
$SPLFRAME
 70
     0
  9
$SPLINETYPE
 70
     6
  9
$SPLINESEGS
 70
     8
  9
$ATTDIA
 70
     1
  9
$ATTREQ
 70
     1
  9
$HANDLING
 70
     1
  9
$HANDSEED
  5
21FA2
  9
$SURFTAB1
 70
     6
  9
$SURFTAB2
 70
     6
  9
$SURFTYPE
 70
     6
  9
$SURFU
 70
     6
  9
$SURFV
 70
     6
  9
$UCSNAME
  2

  9
$UCSORG
 10
0.0
 20
0.0
 30
0.0
  9
$UCSXDIR
 10
1.0
 20
0.0
 30
0.0
  9
$UCSYDIR
 10
0.0
 20
1.0
 30
0.0
  9
$PUCSNAME
  2

  9
$PUCSORG
 10
0.0
 20
0.0
 30
0.0
  9
$PUCSXDIR
 10
1.0
 20
0.0
 30
0.0
  9
$PUCSYDIR
 10
0.0
 20
1.0
 30
0.0
  9
$USERI1
 70
     0
  9
$USERI2
 70
     0
  9
$USERI3
 70
     0
  9
$USERI4
 70
     0
  9
$USERI5
 70
     0
  9
$USERR1
 40
0.0
  9
$USERR2
 40
0.0
  9
$USERR3
 40
0.0
  9
$USERR4
 40
0.0
  9
$USERR5
 40
0.0
  9
$WORLDVIEW
 70
     1
  9
$SHADEDGE
 70
     3
  9
$SHADEDIF
 70
    70
  9
$TILEMODE
 70
     1
  9
$MAXACTVP
 70
    64
  9
$PLIMCHECK
 70
     0
  9
$PEXTMIN
 10
1.0000000000000000E+20
 20
1.0000000000000000E+20
 30
1.0000000000000000E+20
  9
$PEXTMAX
 10
-1.0000000000000000E+20
 20
-1.0000000000000000E+20
 30
-1.0000000000000000E+20
  9
$PLIMMIN
 10
0.0
 20
0.0
  9
$PLIMMAX
 10
12.0
 20
9.0
  9
$UNITMODE
 70
     0
  9
$VISRETAIN
 70
     1
  9
$PLINEGEN
 70
     0
  9
$PSLTSCALE
 70
     1
  0
ENDSEC
  0
SECTION
  2
TABLES
  0
TABLE
  2
VPORT
 70
     1
  0
VPORT
  2
*ACTIVE
 70
     0
 10
0.0
 20
0.0
 11
1.0
 21
1.0
 12
722.3799856037949212
 22
114.3475303896522064
 13
0.0
 23
0.0
 14
1.0
 24
1.0
 15
0.0
 25
0.0
 16
0.0
 26
0.0
 36
60.4960186965801583
 17
3911.3653564453120453
 27
132.5796051025390057
 37
0.0
 40
37.4893756399242406
 41
2.1579545454545448
 42
50.0
 43
0.0
 44
0.0
 50
0.0
 51
0.0
 71
     0
 72
   100
 73
     1
 74
     1
 75
     0
 76
     0
 77
     0
 78
     0
  0
ENDTAB
  0
TABLE
  2
LTYPE
 70
     2
  0
LTYPE
  2
CONTINUOUS
 70
     0
  3
Solid line
 72
    65
 73
     0
 40
0.0
  0
LTYPE
  2
PHANTOM2
 70
     0
  3
___ _ _ ___ _ _ ___ _ _ ___ _ _
 72
    65
 73
     6
 40
1.25
 49
0.625
 49
-0.125
 49
0.125
 49
-0.125
 49
0.125
 49
-0.125
  0
ENDTAB
  0
TABLE
  2
LAYER
 70
     2
  0
LAYER
  2
0
 70
     0
 62
   255
  6
CONTINUOUS
  0
LAYER
  2
DEFPOINTS
 70
     0
 62
     7
  6
CONTINUOUS
  0
ENDTAB
  0
TABLE
  2
STYLE
 70
     1
  0
STYLE
  2
STANDARD
 70
     0
 40
0.0
 41
0.8
 50
0.0
 71
     0
 42
0.2
  3
txt
  4

  0
ENDTAB
  0
TABLE
  2
VIEW
 70
     0
  0
ENDTAB
  0
TABLE
  2
UCS
 70
     0
  0
ENDTAB
  0
TABLE
  2
APPID
 70
    11
  0
APPID
  2
ACAD
 70
     0
  0
APPID
  2
ACAD_MLEADERVER
 70
     0
  0
APPID
  2
ACAD_EXEMPT_FROM_CAD_STANDARDS
 70
     0
  0
APPID
  2
ACAD_NAV_VCDISPLAY
 70
     0
  0
APPID
  2
ACAECLAYERSTANDARD
 70
     0
  0
APPID
  2
ACCMTRANSPARENCY
 70
     0
  0
APPID
  2
ACAD_DSTYLE_DIMJAG
 70
     0
  0
APPID
  2
ACAD_DSTYLE_DIMTALN
 70
     0
  0
APPID
  2
ACDBATTR
 70
     0
  0
APPID
  2
ACADANNOTATIVE
 70
     0
  0
APPID
  2
DCO15
 70
     0
  0
ENDTAB
  0
TABLE
  2
DIMSTYLE
 70
     1
  0
DIMSTYLE
  2
STANDARD
 70
     0
  3

  4

  5

  6

  7

 40
1.0
 41
0.1875
 42
0.0625
 43
0.38
 44
0.125
 45
0.0
 46
0.0
 47
0.01
 48
0.01
140
0.15625
141
0.09
142
0.0
143
25.3999999999999986
144
1.0
145
0.0
146
1.0
147
0.09
 71
     1
 72
     0
 73
     1
 74
     1
 75
     0
 76
     0
 77
     0
 78
     4
170
     0
171
     2
172
     0
173
     0
174
     0
175
     0
176
     0
177
     0
178
     0
  0
ENDTAB
  0
ENDSEC
  0
SECTION
  2
BLOCKS
  0
BLOCK
  8
0
  2
$MODEL_SPACE
 70
     0
 10
0.0
 20
0.0
 30
0.0
  3
$MODEL_SPACE
  1

  0
ENDBLK
  5
21
  8
0
  0
BLOCK
 67
     1
  8
0
  2
$PAPER_SPACE
 70
     0
 10
0.0
 20
0.0
 30
0.0
  3
$PAPER_SPACE
  1

  0
ENDBLK
  5
1D
 67
     1
  8
0
  0
ENDSEC
  0
SECTION
  2
ENTITIES
  0
ATTDEF
  5
21B1A
  8
DEFPOINTS
 10
4633.7062344244359338
 20
228.3164261330178135
 30
0.0
 40
0.001
  1
K-31129MY-ER
  3

  2
MODELNUMBER
 70
     0
1001
ACDBATTR
1070
     0
1070
     1
  0
ATTDEF
  5
21B1B
  8
DEFPOINTS
 10
4633.7061086147787137
 20
228.3147592926385983
 30
0.0
 40
0.001
  1
PATIO
  3

  2
TRADENAME
 70
     0
1001
ACDBATTR
1070
     0
1070
     1
  0
ATTDEF
  5
21B1C
  8
DEFPOINTS
 10
4633.7062344244359338
 20
228.3130927996845116
 30
0.0
 40
0.001
  1
URINAL
  3

  2
PRODUCT
 70
     0
1001
ACDBATTR
1070
     0
1070
     1
  0
ARC
  5
21CC0
  8
0
 10
4633.8309163172070839
 20
250.6325833509424967
 30
0.0
 40
9.1584093516387721
 50
249.4610345261278894
 51
269.2482600631061018
  0
ARC
  5
21CC1
  8
0
 10
4632.0716290095879231
 20
245.574368332963104
 30
0.0
 40
3.806615357307503
 50
218.0262032215366048
 51
247.5462632420625937
  0
ARC
  5
21CC2
  8
0
 10
4630.982457215804061
 20
244.572884408135792
 30
0.0
 40
2.3346881869881781
 50
180.23384839540131
 51
215.1304852698617083
  0
ARC
  5
21CC3
  8
0
 10
4725.3381165014498038
 20
253.9123004135801978
 30
0.0
 40
97.1412492376509533
 50
181.3233084533584076
 51
185.5227357008706974
  0
LINE
  5
21CC4
  8
0
 10
4628.2187176035358789
 20
251.695724689640997
 30
0.0
 11
4628.1363784243358168
 21
254.9882643798410129
 31
0.0
  0
ARC
  5
21CC5
  8
0
 10
4653.2500728959112166
 20
255.9217082389241114
 30
0.0
 40
25.1310359406386006
 50
169.3692258930429944
 51
182.1286308594307002
  0
ARC
  5
21CC6
  8
0
 10
4634.9993960676902134
 20
259.3473765217311779
 30
0.0
 40
6.5616415543907056
 50
132.1639408689964057
 51
169.3692258930429944
  0
ARC
  5
21CC7
  8
0
 10
4634.570793335826238
 20
259.82065771272039
 30
0.0
 40
5.9231312666858136
 50
116.5519218548115958
 51
132.1639408689964057
  0
ARC
  5
21CC8
  8
0
 10
4633.73945213501338
 20
261.2991003051121766
 30
0.0
 40
4.2298140081300506
 50
90.388680337453124
 51
115.4305000771329048
  0
ARC
  5
21CC9
  8
0
 10
4638.9072194460559331
 20
258.4685489390861903
 30
0.0
 40
10.6504733939567107
 50
179.5505182904877017
 51
192.2492406331087977
  0
ARC
  5
21CCA
  8
0
 10
4635.0320388616255514
 20
257.6272185371608998
 30
0.0
 40
6.6850148571480261
 50
192.2492406331087977
 51
214.7903868781446874
  0
ARC
  5
21CCB
  8
0
 10
4633.6277761800811277
 20
256.6515799264315092
 30
0.0
 40
4.9750954504137104
 50
214.7903868781446874
 51
241.5755737813196902
  0
ARC
  5
21CCC
  8
0
 10
4633.7718482313612185
 20
257.5171702159836968
 30
0.0
 40
5.8119208655276333
 50
244.3894484502775128
 51
269.3977452503443146
  0
ARC
  5
21CCD
  8
0
 10
4633.7705928270061122
 20
258.6438252204262085
 30
0.0
 40
3.7565087062809299
 50
90.9126581079109144
 51
136.7312810672418095
  0
ARC
  5
21CCE
  8
0
 10
4635.4711361206245783
 20
257.0430662779576778
 30
0.0
 40
6.0919479980134748
 50
136.7312810672418095
 51
160.6039554539833034
  0
ARC
  5
21CCF
  8
0
 10
4635.4760575277587122
 20
257.0413335588012842
 30
0.0
 40
6.0971655226985551
 50
160.6039554539833034
 51
189.2993418264748868
  0
ARC
  5
21CD0
  8
0
 10
4635.6614398344390793
 20
257.0716888890946166
 30
0.0
 40
6.285016649146594
 50
189.2993418264748868
 51
210.6734278571416041
  0
ARC
  5
21CD1
  8
0
 10
4633.7004384968649902
 20
255.9085612449237033
 30
0.0
 40
4.0050183678750777
 50
210.6734278571416041
 51
229.3467971118191997
  0
ARC
  5
21CD2
  8
0
 10
4632.965741393949429
 20
255.0529845530070929
 30
0.0
 40
2.8772811162138869
 50
229.3467971118191997
 51
259.2149526659420076
  0
ARC
  5
21CD3
  8
0
 10
4633.7145938933290381
 20
258.2895106979293018
 30
0.0
 40
6.198129895381383
 50
258.013231031473822
 51
269.9645440464144031
  0
ARC
  5
21CD4
  8
0
 10
4633.7061590433077072
 20
261.4432476234100022
 30
0.0
 40
0.8224186277723065
 50
182.7661696655503079
 51
270.3204232978272898
  0
ARC
  5
21CD5
  8
0
 10
4633.7058715133744045
 20
261.3641781081548174
 30
0.0
 40
0.8221165084012096
 50
89.6594197866132276
 51
177.254467718229705
  0
ARC
  5
21CD6
  8
0
 10
4633.7051444032604195
 20
261.3740515641712818
 30
0.0
 40
0.8209761117042472
 50
177.9403292145750015
 51
270.3917992374729806
  0
ARC
  5
21CD7
  8
0
 10
4632.8410971455923573
 20
255.9061790304043882
 30
0.0
 40
2.0940208731877101
 50
94.2308704306710467
 51
136.4971006434645915
  0
ARC
  5
21CD8
  8
0
 10
4634.038596989213147
 20
254.7696789371059083
 30
0.0
 40
3.744971610652295
 50
136.4971006434645915
 51
159.6549057266639977
  0
ARC
  5
21CD9
  8
0
 10
4635.7577807011057303
 20
254.1321949042028052
 30
0.0
 40
5.578541496816098
 50
159.6549057266639977
 51
181.4081767013607873
  0
ARC
  5
21CDA
  8
0
 10
4632.6943096776803941
 20
256.6948776082523977
 30
0.0
 40
2.4037692029581739
 50
90.1709825022433336
 51
118.643565956456797
  0
ARC
  5
21CDB
  8
0
 10
4632.9382692080598645
 20
256.2482325748296716
 30
0.0
 40
2.9126975263439081
 50
118.643565956456797
 51
148.6295667995343024
  0
ARC
  5
21CDC
  8
0
 10
4634.517793987789446
 20
255.2852049713852978
 30
0.0
 40
4.762649064837106
 50
148.6295667995343024
 51
162.1454400241744054
  0
ARC
  5
21CDD
  8
0
 10
4635.1142954347305931
 20
255.0930625446015085
 30
0.0
 40
5.389332947168131
 50
162.1454400241744054
 51
180.9281946370207095
  0
LINE
  5
21CDE
  8
0
 10
4632.6871363419368208
 20
259.0986361078410027
 30
0.0
 11
4634.7343803529365687
 21
259.0986361078410027
 31
0.0
  0
LINE
  5
21CDF
  8
0
 10
4632.6866096454359649
 20
257.9944934295410235
 30
0.0
 11
4634.7349070494374246
 21
257.9944934295410235
 31
0.0
  0
ARC
  5
21CE0
  8
0
 10
4633.5906003776653961
 20
250.6325833509424967
 30
0.0
 40
9.1584093516387721
 50
270.7517399368938982
 51
290.5389654738719969
  0
ARC
  5
21CE1
  8
0
 10
4635.3498876852845569
 20
245.574368332963104
 30
0.0
 40
3.806615357307503
 50
292.4537367579374063
 51
321.9737967784633952
  0
ARC
  5
21CE2
  8
0
 10
4636.439059479068419
 20
244.572884408135792
 30
0.0
 40
2.3346881869881781
 50
324.8695147301382917
 51
359.76615160459869
  0
ARC
  5
21CE3
  8
0
 10
4542.0834001934235857
 20
253.9123004135801978
 30
0.0
 40
97.1412492376509533
 50
354.4772642991293878
 51
358.6766915466416208
  0
LINE
  5
21CE4
  8
0
 10
4639.2027990913366011
 20
251.695724689640997
 30
0.0
 11
4639.2851382705357537
 21
254.9882643798410129
 31
0.0
  0
ARC
  5
21CE5
  8
0
 10
4614.1714437989612634
 20
255.9217082389241114
 30
0.0
 40
25.1310359406386006
 50
357.8713691405691861
 51
10.6307741069570003
  0
ARC
  5
21CE6
  8
0
 10
4632.4221206271822666
 20
259.3473765217311779
 30
0.0
 40
6.5616415543907056
 50
10.6307741069570003
 51
47.8360591310035375
  0
ARC
  5
21CE7
  8
0
 10
4632.8507233590471515
 20
259.82065771272039
 30
0.0
 40
5.9231312666858136
 50
47.8360591310035375
 51
63.4480781451883686
  0
ARC
  5
21CE8
  8
0
 10
4633.6820645598600095
 20
261.2991003051121766
 30
0.0
 40
4.2298140081300506
 50
64.5694999228670525
 51
89.611319662546876
  0
ARC
  5
21CE9
  8
0
 10
4628.5142972488156374
 20
258.4685489390861903
 30
0.0
 40
10.6504733939567107
 50
347.7507593668910886
 51
0.4494817095122635
  0
ARC
  5
21CEA
  8
0
 10
4632.3894778332469286
 20
257.6272185371608998
 30
0.0
 40
6.6850148571480261
 50
325.2096131218552841
 51
347.7507593668910886
  0
ARC
  5
21CEB
  8
0
 10
4633.7937405147922618
 20
256.6515799264315092
 30
0.0
 40
4.9750954504137104
 50
298.4244262186804235
 51
325.2096131218552841
  0
ARC
  5
21CEC
  8
0
 10
4633.6822100785084331
 20
257.3774017163497092
 30
0.0
 40
5.6719031411687242
 50
270.2883868408273997
 51
295.9244194634645737
  0
ARC
  5
21CED
  8
0
 10
4633.6509238678672773
 20
258.6438252204262085
 30
0.0
 40
3.7565087062809299
 50
43.2687189327581692
 51
89.0873418920890856
  0
ARC
  5
21CEE
  8
0
 10
4631.9503805742479017
 20
257.0430662779576778
 30
0.0
 40
6.0919479980134748
 50
19.3960445460167108
 51
43.2687189327581692
  0
ARC
  5
21CEF
  8
0
 10
4631.9454591671137678
 20
257.0413335588012842
 30
0.0
 40
6.0971655226985551
 50
350.7006581735250847
 51
19.3960445460167108
  0
ARC
  5
21CF0
  8
0
 10
4631.7600768604334007
 20
257.0716888890946166
 30
0.0
 40
6.285016649146594
 50
329.3265721428584243
 51
350.7006581735250847
  0
ARC
  5
21CF1
  8
0
 10
4633.7210781980065804
 20
255.9085612449237033
 30
0.0
 40
4.0050183678750777
 50
310.653202888180715
 51
329.3265721428584243
  0
ARC
  5
21CF2
  8
0
 10
4634.455775300923051
 20
255.0529845530070929
 30
0.0
 40
2.8772811162138869
 50
280.7850473340579924
 51
310.653202888180715
  0
ARC
  5
21CF3
  8
0
 10
4632.7982574358466081
 20
266.9187843050992228
 30
0.0
 40
14.8554541279597494
 50
273.5216280890904272
 51
278.5005968330377755
  0
ARC
  5
21CF4
  8
0
 10
4633.7153576515656823
 20
261.4432476234100022
 30
0.0
 40
0.8224186277723065
 50
269.6795767021725965
 51
357.2338303344495785
  0
ARC
  5
21CF5
  8
0
 10
4633.7156451814980755
 20
261.3641781081548174
 30
0.0
 40
0.8221165084012096
 50
2.7455322817703052
 51
90.3405802133867866
  0
ARC
  5
21CF6
  8
0
 10
4633.71637229161297
 20
261.3740515641712818
 30
0.0
 40
0.8209761117042472
 50
269.6082007625270194
 51
2.0596707854249452
  0
ARC
  5
21CF7
  8
0
 10
4634.5804195492801227
 20
255.9061790304043882
 30
0.0
 40
2.0940208731877101
 50
43.5028993565354085
 51
85.7691295693289675
  0
ARC
  5
21CF8
  8
0
 10
4633.382919705661152
 20
254.7696789371059083
 30
0.0
 40
3.744971610652295
 50
20.3450942733360094
 51
43.5028993565354085
  0
ARC
  5
21CF9
  8
0
 10
4631.6637359937667497
 20
254.1321949042028052
 30
0.0
 40
5.578541496816098
 50
358.591823298639099
 51
20.3450942733360094
  0
ARC
  5
21CFA
  8
0
 10
4634.7272070171929954
 20
256.6948776082523977
 30
0.0
 40
2.4037692029581739
 50
61.3564340435431816
 51
89.8290174977566664
  0
ARC
  5
21CFB
  8
0
 10
4634.483247486811706
 20
256.2482325748296716
 30
0.0
 40
2.9126975263439081
 50
31.3704332004656408
 51
61.3564340435431816
  0
ARC
  5
21CFC
  8
0
 10
4632.9037227070839435
 20
255.2852049713852978
 30
0.0
 40
4.762649064837106
 50
17.8545599758256088
 51
31.3704332004656408
  0
ARC
  5
21CFD
  8
0
 10
4632.3072212601427964
 20
255.0930625446015085
 30
0.0
 40
5.389332947168131
 50
359.0718053629793189
 51
17.8545599758256088
  0
ENDSEC
  0
EOF
