  0
SECTION
  2
HEADER
  9
$ACADVER
  1
AC1009
  9
$INSBASE
 10
4759.9192576797513539
 20
293.0134928239734791
 30
0.0
  9
$EXTMIN
 10
4754.1508546293616746
 20
279.3875886912588271
 30
-0.0000000000112498
  9
$EXTMAX
 10
4765.7857130259535552
 20
293.0254121330236217
 30
0.0000000000002956
  9
$LIMMIN
 10
0.0
 20
0.0
  9
$LIMMAX
 10
11.6929133858000007
 20
8.2677165353999982
  9
$ORTHOMODE
 70
     0
  9
$REGENMODE
 70
     1
  9
$FILLMODE
 70
     1
  9
$QTEXTMODE
 70
     0
  9
$MIRRTEXT
 70
     0
  9
$DRAGMODE
 70
     2
  9
$LTSCALE
 40
0.6431102362
  9
$OSMODE
 70
  4095
  9
$ATTMODE
 70
     1
  9
$TEXTSIZE
 40
0.2
  9
$TRACEWID
 40
0.05
  9
$TEXTSTYLE
  7
STANDARD
  9
$CLAYER
  8
0
  9
$CELTYPE
  6
BYLAYER
  9
$CECOLOR
 62
   256
  9
$DIMSCALE
 40
1.0
  9
$DIMASZ
 40
0.1875
  9
$DIMEXO
 40
0.0625
  9
$DIMDLI
 40
0.4443307087
  9
$DIMRND
 40
0.0
  9
$DIMDLE
 40
0.0
  9
$DIMEXE
 40
0.125
  9
$DIMTP
 40
0.01
  9
$DIMTM
 40
0.01
  9
$DIMTXT
 40
2.0
  9
$DIMCEN
 40
0.1052362205
  9
$DIMTSZ
 40
0.0
  9
$DIMTOL
 70
     1
  9
$DIMLIM
 70
     0
  9
$DIMTIH
 70
     1
  9
$DIMTOH
 70
     1
  9
$DIMSE1
 70
     0
  9
$DIMSE2
 70
     0
  9
$DIMTAD
 70
     0
  9
$DIMZIN
 70
     0
  9
$DIMBLK
  1

  9
$DIMASO
 70
     1
  9
$DIMSHO
 70
     1
  9
$DIMPOST
  1
\X
  9
$DIMAPOST
  1

  9
$DIMALT
 70
     1
  9
$DIMALTD
 70
     2
  9
$DIMALTF
 40
25.3999999999999986
  9
$DIMLFAC
 40
1.0
  9
$DIMTOFL
 70
     0
  9
$DIMTVP
 40
0.0
  9
$DIMTIX
 70
     0
  9
$DIMSOXD
 70
     0
  9
$DIMSAH
 70
     0
  9
$DIMBLK1
  1

  9
$DIMBLK2
  1

  9
$DIMSTYLE
  2
STANDARD
  9
$DIMCLRD
 70
     0
  9
$DIMCLRE
 70
     0
  9
$DIMCLRT
 70
     0
  9
$DIMTFAC
 40
1.0
  9
$DIMGAP
 40
0.09
  9
$LUNITS
 70
     2
  9
$LUPREC
 70
     4
  9
$SKETCHINC
 40
0.1
  9
$FILLETRAD
 40
0.0
  9
$AUNITS
 70
     0
  9
$AUPREC
 70
     0
  9
$MENU
  1
.
  9
$ELEVATION
 40
0.0
  9
$PELEVATION
 40
0.0
  9
$THICKNESS
 40
0.0
  9
$LIMCHECK
 70
     0
  9
$BLIPMODE
 70
     0
  9
$CHAMFERA
 40
0.0
  9
$CHAMFERB
 40
0.0
  9
$SKPOLY
 70
     0
  9
$TDCREATE
 40
2458060.468368056230247
  9
$TDUPDATE
 40
2460286.5085185188800097
  9
$TDINDWG
 40
0.496233912
  9
$TDUSRTIMER
 40
0.496233912
  9
$USRTIMER
 70
     1
  9
$ANGBASE
 50
0.0
  9
$ANGDIR
 70
     0
  9
$PDMODE
 70
     0
  9
$PDSIZE
 40
0.3125
  9
$PLINEWID
 40
0.0
  9
$COORDS
 70
     1
  9
$SPLFRAME
 70
     0
  9
$SPLINETYPE
 70
     6
  9
$SPLINESEGS
 70
     8
  9
$ATTDIA
 70
     1
  9
$ATTREQ
 70
     1
  9
$HANDLING
 70
     1
  9
$HANDSEED
  5
21EF1
  9
$SURFTAB1
 70
     6
  9
$SURFTAB2
 70
     6
  9
$SURFTYPE
 70
     6
  9
$SURFU
 70
     6
  9
$SURFV
 70
     6
  9
$UCSNAME
  2

  9
$UCSORG
 10
0.0
 20
0.0
 30
0.0
  9
$UCSXDIR
 10
1.0
 20
0.0
 30
0.0
  9
$UCSYDIR
 10
0.0
 20
1.0
 30
0.0
  9
$PUCSNAME
  2

  9
$PUCSORG
 10
0.0
 20
0.0
 30
0.0
  9
$PUCSXDIR
 10
1.0
 20
0.0
 30
0.0
  9
$PUCSYDIR
 10
0.0
 20
1.0
 30
0.0
  9
$USERI1
 70
     0
  9
$USERI2
 70
     0
  9
$USERI3
 70
     0
  9
$USERI4
 70
     0
  9
$USERI5
 70
     0
  9
$USERR1
 40
0.0
  9
$USERR2
 40
0.0
  9
$USERR3
 40
0.0
  9
$USERR4
 40
0.0
  9
$USERR5
 40
0.0
  9
$WORLDVIEW
 70
     1
  9
$SHADEDGE
 70
     3
  9
$SHADEDIF
 70
    70
  9
$TILEMODE
 70
     1
  9
$MAXACTVP
 70
    64
  9
$PLIMCHECK
 70
     0
  9
$PEXTMIN
 10
1.0000000000000000E+20
 20
1.0000000000000000E+20
 30
1.0000000000000000E+20
  9
$PEXTMAX
 10
-1.0000000000000000E+20
 20
-1.0000000000000000E+20
 30
-1.0000000000000000E+20
  9
$PLIMMIN
 10
0.0
 20
0.0
  9
$PLIMMAX
 10
12.0
 20
9.0
  9
$UNITMODE
 70
     0
  9
$VISRETAIN
 70
     1
  9
$PLINEGEN
 70
     0
  9
$PSLTSCALE
 70
     1
  0
ENDSEC
  0
SECTION
  2
TABLES
  0
TABLE
  2
VPORT
 70
     1
  0
VPORT
  2
*ACTIVE
 70
     0
 10
0.0
 20
0.0
 11
1.0
 21
1.0
 12
848.6029273823460244
 22
153.626895309602105
 13
0.0
 23
0.0
 14
1.0
 24
1.0
 15
0.0
 25
0.0
 16
0.0
 26
0.0
 36
60.4960186965801583
 17
3911.3653564453120453
 27
132.5796051025390057
 37
0.0
 40
13.7307030565781893
 41
2.1579545454545448
 42
50.0
 43
0.0
 44
0.0
 50
0.0
 51
0.0
 71
     0
 72
   100
 73
     1
 74
     1
 75
     0
 76
     0
 77
     0
 78
     0
  0
ENDTAB
  0
TABLE
  2
LTYPE
 70
     2
  0
LTYPE
  2
CONTINUOUS
 70
     0
  3
Solid line
 72
    65
 73
     0
 40
0.0
  0
LTYPE
  2
PHANTOM2
 70
     0
  3
___ _ _ ___ _ _ ___ _ _ ___ _ _
 72
    65
 73
     6
 40
1.25
 49
0.625
 49
-0.125
 49
0.125
 49
-0.125
 49
0.125
 49
-0.125
  0
ENDTAB
  0
TABLE
  2
LAYER
 70
     2
  0
LAYER
  2
0
 70
     0
 62
   255
  6
CONTINUOUS
  0
LAYER
  2
DEFPOINTS
 70
     0
 62
     7
  6
CONTINUOUS
  0
ENDTAB
  0
TABLE
  2
STYLE
 70
     1
  0
STYLE
  2
STANDARD
 70
     0
 40
0.0
 41
0.8
 50
0.0
 71
     0
 42
0.2
  3
txt
  4

  0
ENDTAB
  0
TABLE
  2
VIEW
 70
     0
  0
ENDTAB
  0
TABLE
  2
UCS
 70
     0
  0
ENDTAB
  0
TABLE
  2
APPID
 70
    11
  0
APPID
  2
ACAD
 70
     0
  0
APPID
  2
ACAD_MLEADERVER
 70
     0
  0
APPID
  2
ACAD_EXEMPT_FROM_CAD_STANDARDS
 70
     0
  0
APPID
  2
ACAD_NAV_VCDISPLAY
 70
     0
  0
APPID
  2
ACAECLAYERSTANDARD
 70
     0
  0
APPID
  2
ACCMTRANSPARENCY
 70
     0
  0
APPID
  2
ACAD_DSTYLE_DIMJAG
 70
     0
  0
APPID
  2
ACAD_DSTYLE_DIMTALN
 70
     0
  0
APPID
  2
ACDBATTR
 70
     0
  0
APPID
  2
ACADANNOTATIVE
 70
     0
  0
APPID
  2
DCO15
 70
     0
  0
ENDTAB
  0
TABLE
  2
DIMSTYLE
 70
     1
  0
DIMSTYLE
  2
STANDARD
 70
     0
  3

  4

  5

  6

  7

 40
1.0
 41
0.1875
 42
0.0625
 43
0.38
 44
0.125
 45
0.0
 46
0.0
 47
0.01
 48
0.01
140
0.15625
141
0.09
142
0.0
143
25.3999999999999986
144
1.0
145
0.0
146
1.0
147
0.09
 71
     1
 72
     0
 73
     1
 74
     1
 75
     0
 76
     0
 77
     0
 78
     4
170
     0
171
     2
172
     0
173
     0
174
     0
175
     0
176
     0
177
     0
178
     0
  0
ENDTAB
  0
ENDSEC
  0
SECTION
  2
BLOCKS
  0
BLOCK
  8
0
  2
$MODEL_SPACE
 70
     0
 10
0.0
 20
0.0
 30
0.0
  3
$MODEL_SPACE
  1

  0
ENDBLK
  5
21
  8
0
  0
BLOCK
 67
     1
  8
0
  2
$PAPER_SPACE
 70
     0
 10
0.0
 20
0.0
 30
0.0
  3
$PAPER_SPACE
  1

  0
ENDBLK
  5
1D
 67
     1
  8
0
  0
ENDSEC
  0
SECTION
  2
ENTITIES
  0
ATTDEF
  5
21B1A
  8
DEFPOINTS
 10
4759.915333346605621
 20
293.0182102953875187
 30
0.0
 40
0.001
  1
K-31129X-ER
  3

  2
MODELNUMBER
 70
     0
1001
ACDBATTR
1070
     0
1070
     1
  0
ATTDEF
  5
21B1B
  8
DEFPOINTS
 10
4759.9152075369493105
 20
293.016543455008275
 30
0.0
 40
0.001
  1
PATIO
  3

  2
TRADENAME
 70
     0
1001
ACDBATTR
1070
     0
1070
     1
  0
ATTDEF
  5
21B1C
  8
DEFPOINTS
 10
4759.915333346605621
 20
293.0148769620541884
 30
0.0
 40
0.001
  1
URINAL
  3

  2
PRODUCT
 70
     0
1001
ACDBATTR
1070
     0
1070
     1
  0
LINE
  5
21D76
  8
0
 10
4765.0807939930464272
 20
293.0134928239734791
 30
0.0
 11
4754.757721366455371
 21
293.0134928239734222
 31
0.0
  0
LINE
  5
21D77
  8
0
 10
4754.757721366455371
 20
293.0134928239734791
 30
0.0
 11
4754.6704530842498571
 21
291.0361622263735057
 31
0.0
  0
ARC
  5
21D78
  8
0
 10
4759.977776617382915
 20
290.7496272761619025
 30
0.0
 40
11.3534645856348
 50
266.7226535969053884
 51
269.7046801908970224
  0
ARC
  5
21D79
  8
0
 10
4759.7048520987973461
 20
285.9834650460998091
 30
0.0
 40
6.5794945191055456
 50
252.9235578204497017
 51
266.7226535978970787
  0
ARC
  5
21D7A
  8
0
 10
4759.2399555207039157
 20
284.4700813143969071
 30
0.0
 40
4.9963144447914498
 50
222.7055126695215961
 51
252.9235578204497017
  0
ARC
  5
21D7B
  8
0
 10
4758.5430707275936584
 20
283.8268903805596892
 30
0.0
 40
4.0479774834544466
 50
184.6462256286025081
 51
222.7055126695215961
  0
ARC
  5
21D7C
  8
0
 10
4775.9211891969125645
 20
286.2639500214950772
 30
0.0
 40
21.5905703552062285
 50
182.9252799647790084
 51
187.3576884686187043
  0
ARC
  5
21D7D
  8
0
 10
4772.2162034961047539
 20
286.2480490468493031
 30
0.0
 40
17.8904393910143895
 50
180.8064639027996918
 51
183.4799726516230862
  0
ARC
  5
21D7E
  8
0
 10
4855.1822900489733001
 20
283.1632443592316122
 30
0.0
 40
100.8945351757416944
 50
176.6980827266604877
 51
178.3909920538895904
  0
ARC
  5
21D7F
  8
0
 10
4776.8206738583357946
 20
287.6819896749294116
 30
0.0
 40
22.402739873630189
 50
171.3892106761481955
 51
176.6924962282660942
  0
ARC
  5
21D80
  8
0
 10
4759.3371640680752535
 20
283.8992214448999221
 30
0.0
 40
4.8730691474417762
 50
139.6865292027659962
 51
180.3970274405226917
  0
ARC
  5
21D81
  8
0
 10
4759.6527366848113161
 20
283.6314688228919749
 30
0.0
 40
5.2869260587358022
 50
111.123417578874907
 51
139.6865292027659962
  0
ARC
  5
21D82
  8
0
 10
4760.0033481688687971
 20
282.7239424823424088
 30
0.0
 40
6.259825062509992
 50
90.7696980336865522
 51
111.1234175809942997
  0
CIRCLE
  5
21D83
  8
0
 10
4759.9192577692510895
 20
286.9111306629735054
 30
0.0
 40
0.7972440945000147
  0
CIRCLE
  5
21D84
  8
0
 10
4759.9192575903498437
 20
286.9111306629735054
 30
0.0
 40
1.1248293030885981
  0
ARC
  5
21D85
  8
0
 10
4759.0727638142943761
 20
284.8871107948452277
 30
0.0
 40
3.4825209119298322
 50
136.6313378172638124
 51
196.8248978496390862
  0
ARC
  5
21D86
  8
0
 10
4759.9616801813363054
 20
285.1559120134816112
 30
0.0
 40
4.4111900687004102
 50
196.8248978496390862
 51
232.8151960379778131
  0
ARC
  5
21D87
  8
0
 10
4760.2343386006159562
 20
286.5409532639328063
 30
0.0
 40
5.7131582835336161
 50
239.0440515081872093
 51
266.8385313389479734
  0
ARC
  5
21D88
  8
0
 10
4759.3673789170270538
 20
284.7817436899355812
 30
0.0
 40
3.771141929553508
 50
110.7844022969267996
 51
138.5416704964557937
  0
ARC
  5
21D89
  8
0
 10
4759.1167987804383301
 20
285.4419419046431017
 30
0.0
 40
3.0649889096238261
 50
93.9201623981320637
 51
110.7844022969267996
  0
ARC
  5
21D8A
  8
0
 10
4760.0902893189113456
 20
287.2584506649657783
 30
0.0
 40
4.0769139056221606
 50
219.0948654577119896
 51
267.5956647774127077
  0
ARC
  5
21D8B
  8
0
 10
4759.3033680194321278
 20
286.3648989785426124
 30
0.0
 40
2.9093969734570768
 50
161.6980204792610039
 51
215.2073582891634942
  0
LINE
  5
21D8C
  8
0
 10
4758.9072566091508634
 20
288.4997596059735088
 30
0.0
 11
4760.9312587503509349
 21
288.4997596059735088
 31
0.0
  0
LINE
  5
21D8D
  8
0
 10
4765.0807939930464272
 20
293.0134928239734791
 30
0.0
 11
4765.1680622752501222
 21
291.0361622263735057
 31
0.0
  0
ARC
  5
21D8E
  8
0
 10
4759.8607387421179737
 20
290.7496272761559908
 30
0.0
 40
11.3534645856288297
 50
270.2953198091029776
 51
273.2773464030946116
  0
ARC
  5
21D8F
  8
0
 10
4760.1336632607044521
 20
285.9834650460998091
 30
0.0
 40
6.5794945191055456
 50
273.2773464021029213
 51
287.0764421795503267
  0
ARC
  5
21D90
  8
0
 10
4760.5985598387978825
 20
284.4700813143969071
 30
0.0
 40
4.9963144447914498
 50
287.0764421795503267
 51
317.2944873304783755
  0
ARC
  5
21D91
  8
0
 10
4761.2954446319072304
 20
283.8268903805596892
 30
0.0
 40
4.0479774834544466
 50
317.2944873304783755
 51
355.3537743713957866
  0
ARC
  5
21D92
  8
0
 10
4743.9173261625883242
 20
286.2639500214950772
 30
0.0
 40
21.5905703552062285
 50
352.6423115313813241
 51
357.0747200352192863
  0
ARC
  5
21D93
  8
0
 10
4747.6223118633979539
 20
286.2480490468493031
 30
0.0
 40
17.8904393910143895
 50
356.5200273483753222
 51
359.1935360971986029
  0
ARC
  5
21D94
  8
0
 10
4664.6562253105294076
 20
283.1632443592316122
 30
0.0
 40
100.8945351757416944
 50
1.609007946110401
 51
3.301917273339507
  0
ARC
  5
21D95
  8
0
 10
4743.0178415011660036
 20
287.6819896749294116
 30
0.0
 40
22.402739873630189
 50
3.3075037717338498
 51
8.6107893238533446
  0
ARC
  5
21D96
  8
0
 10
4760.5013512914256353
 20
283.8992214448999221
 30
0.0
 40
4.8730691474417762
 50
359.6029725594756883
 51
40.3134707972339683
  0
ARC
  5
21D97
  8
0
 10
4760.1857786746895727
 20
283.6314688228919749
 30
0.0
 40
5.2869260587358022
 50
40.3134707972339683
 51
68.8765824211250646
  0
ARC
  5
21D98
  8
0
 10
4759.8351671906320917
 20
282.7239424823424088
 30
0.0
 40
6.2598250625099947
 50
68.8765824190056435
 51
89.2303019663134336
  0
ARC
  5
21D99
  8
0
 10
4760.7657515452083317
 20
284.8871107948452277
 30
0.0
 40
3.4825209119298322
 50
343.1751021503607717
 51
43.3686621827361591
  0
ARC
  5
21D9A
  8
0
 10
4759.8768351781645833
 20
285.1559120134816112
 30
0.0
 40
4.4111900687004102
 50
307.1848039620221016
 51
343.1751021503607717
  0
ARC
  5
21D9B
  8
0
 10
4759.5834781104285867
 20
286.608408207722789
 30
0.0
 40
5.7816769347370993
 50
273.3294118358043079
 51
300.7880053170947008
  0
ARC
  5
21D9C
  8
0
 10
4760.4711364424738349
 20
284.7817436899355812
 30
0.0
 40
3.771141929553508
 50
41.4583295035442134
 51
69.2155977030732288
  0
ARC
  5
21D9D
  8
0
 10
4760.7217165790643776
 20
285.4419419046431017
 30
0.0
 40
3.0649889096238261
 50
69.2155977030732288
 51
86.0798376018679221
  0
ARC
  5
21D9E
  8
0
 10
4759.6780729556594451
 20
287.398209503149701
 30
0.0
 40
4.2199815245891239
 50
273.2764126861483192
 51
320.0330570787277793
  0
ARC
  5
21D9F
  8
0
 10
4760.535147340068761
 20
286.3648989785426124
 30
0.0
 40
2.9093969734570768
 50
324.7926417108365058
 51
18.3019795207389784
  0
ENDSEC
  0
EOF
