  0
SECTION
  2
HEADER
  9
$ACADVER
  1
AC1009
  9
$INSBASE
 10
3474.6750524577178112
 20
166.4642157192737955
 30
0.0
  9
$EXTMIN
 10
3451.2577185960180941
 20
162.028728125891007
 30
0.0
  9
$EXTMAX
 10
3474.6750524577178112
 20
217.304722017523801
 30
0.0
  9
$LIMMIN
 10
0.0
 20
0.0
  9
$LIMMAX
 10
11.6929133858000007
 20
8.2677165353999982
  9
$ORTHOMODE
 70
     0
  9
$REGENMODE
 70
     1
  9
$FILLMODE
 70
     1
  9
$QTEXTMODE
 70
     0
  9
$MIRRTEXT
 70
     0
  9
$DRAGMODE
 70
     2
  9
$LTSCALE
 40
0.6431102362
  9
$OSMODE
 70
  3839
  9
$ATTMODE
 70
     1
  9
$TEXTSIZE
 40
0.2
  9
$TRACEWID
 40
0.05
  9
$TEXTSTYLE
  7
STANDARD
  9
$CLAYER
  8
0
  9
$CELTYPE
  6
BYLAYER
  9
$CECOLOR
 62
   256
  9
$DIMSCALE
 40
1.0
  9
$DIMASZ
 40
0.1875
  9
$DIMEXO
 40
0.0625
  9
$DIMDLI
 40
0.4443307087
  9
$DIMRND
 40
0.0
  9
$DIMDLE
 40
0.0
  9
$DIMEXE
 40
0.125
  9
$DIMTP
 40
0.01
  9
$DIMTM
 40
0.01
  9
$DIMTXT
 40
2.0
  9
$DIMCEN
 40
0.1052362205
  9
$DIMTSZ
 40
0.0
  9
$DIMTOL
 70
     1
  9
$DIMLIM
 70
     0
  9
$DIMTIH
 70
     1
  9
$DIMTOH
 70
     1
  9
$DIMSE1
 70
     0
  9
$DIMSE2
 70
     0
  9
$DIMTAD
 70
     0
  9
$DIMZIN
 70
     0
  9
$DIMBLK
  1

  9
$DIMASO
 70
     1
  9
$DIMSHO
 70
     1
  9
$DIMPOST
  1
\X
  9
$DIMAPOST
  1

  9
$DIMALT
 70
     1
  9
$DIMALTD
 70
     2
  9
$DIMALTF
 40
25.3999999999999986
  9
$DIMLFAC
 40
1.0
  9
$DIMTOFL
 70
     0
  9
$DIMTVP
 40
0.0
  9
$DIMTIX
 70
     0
  9
$DIMSOXD
 70
     0
  9
$DIMSAH
 70
     0
  9
$DIMBLK1
  1

  9
$DIMBLK2
  1

  9
$DIMSTYLE
  2
STANDARD
  9
$DIMCLRD
 70
     0
  9
$DIMCLRE
 70
     0
  9
$DIMCLRT
 70
     0
  9
$DIMTFAC
 40
1.0
  9
$DIMGAP
 40
0.09
  9
$LUNITS
 70
     2
  9
$LUPREC
 70
     4
  9
$SKETCHINC
 40
0.1
  9
$FILLETRAD
 40
0.0
  9
$AUNITS
 70
     0
  9
$AUPREC
 70
     0
  9
$MENU
  1
.
  9
$ELEVATION
 40
0.0
  9
$PELEVATION
 40
0.0
  9
$THICKNESS
 40
0.0
  9
$LIMCHECK
 70
     0
  9
$BLIPMODE
 70
     0
  9
$CHAMFERA
 40
0.0
  9
$CHAMFERB
 40
0.0
  9
$SKPOLY
 70
     0
  9
$TDCREATE
 40
2458060.468368056230247
  9
$TDUPDATE
 40
2459161.6781712961383164
  9
$TDINDWG
 40
0.583733912
  9
$TDUSRTIMER
 40
0.583733912
  9
$USRTIMER
 70
     1
  9
$ANGBASE
 50
0.0
  9
$ANGDIR
 70
     0
  9
$PDMODE
 70
     0
  9
$PDSIZE
 40
0.3125
  9
$PLINEWID
 40
0.0
  9
$COORDS
 70
     1
  9
$SPLFRAME
 70
     0
  9
$SPLINETYPE
 70
     6
  9
$SPLINESEGS
 70
     8
  9
$ATTDIA
 70
     1
  9
$ATTREQ
 70
     1
  9
$HANDLING
 70
     1
  9
$HANDSEED
  5
15E82
  9
$SURFTAB1
 70
     6
  9
$SURFTAB2
 70
     6
  9
$SURFTYPE
 70
     6
  9
$SURFU
 70
     6
  9
$SURFV
 70
     6
  9
$UCSNAME
  2

  9
$UCSORG
 10
0.0
 20
0.0
 30
0.0
  9
$UCSXDIR
 10
1.0
 20
0.0
 30
0.0
  9
$UCSYDIR
 10
0.0
 20
1.0
 30
0.0
  9
$PUCSNAME
  2

  9
$PUCSORG
 10
0.0
 20
0.0
 30
0.0
  9
$PUCSXDIR
 10
1.0
 20
0.0
 30
0.0
  9
$PUCSYDIR
 10
0.0
 20
1.0
 30
0.0
  9
$USERI1
 70
     0
  9
$USERI2
 70
     0
  9
$USERI3
 70
     0
  9
$USERI4
 70
     0
  9
$USERI5
 70
     0
  9
$USERR1
 40
0.0
  9
$USERR2
 40
0.0
  9
$USERR3
 40
0.0
  9
$USERR4
 40
0.0
  9
$USERR5
 40
0.0
  9
$WORLDVIEW
 70
     1
  9
$SHADEDGE
 70
     3
  9
$SHADEDIF
 70
    70
  9
$TILEMODE
 70
     1
  9
$MAXACTVP
 70
    64
  9
$PLIMCHECK
 70
     0
  9
$PEXTMIN
 10
1.0000000000000000E+20
 20
1.0000000000000000E+20
 30
1.0000000000000000E+20
  9
$PEXTMAX
 10
-1.0000000000000000E+20
 20
-1.0000000000000000E+20
 30
-1.0000000000000000E+20
  9
$PLIMMIN
 10
0.0
 20
0.0
  9
$PLIMMAX
 10
12.0
 20
9.0
  9
$UNITMODE
 70
     0
  9
$VISRETAIN
 70
     1
  9
$PLINEGEN
 70
     0
  9
$PSLTSCALE
 70
     1
  0
ENDSEC
  0
SECTION
  2
TABLES
  0
TABLE
  2
VPORT
 70
     1
  0
VPORT
  2
*ACTIVE
 70
     0
 10
0.0
 20
0.0
 11
1.0
 21
1.0
 12
0.0
 22
0.0
 13
0.0
 23
0.0
 14
1.0
 24
1.0
 15
0.0
 25
0.0
 16
0.0
 26
0.0
 36
235.926176013192503
 17
3462.9664306640629547
 27
189.6698837280272869
 37
0.0
 40
60.0258546135828297
 41
3.1182994454713491
 42
50.0
 43
0.0
 44
0.0
 50
0.0
 51
0.0
 71
     0
 72
   100
 73
     1
 74
     1
 75
     0
 76
     0
 77
     0
 78
     0
  0
ENDTAB
  0
TABLE
  2
LTYPE
 70
     2
  0
LTYPE
  2
CONTINUOUS
 70
     0
  3
Solid line
 72
    65
 73
     0
 40
0.0
  0
LTYPE
  2
PHANTOM2
 70
     0
  3
___ _ _ ___ _ _ ___ _ _ ___ _ _
 72
    65
 73
     6
 40
1.25
 49
0.625
 49
-0.125
 49
0.125
 49
-0.125
 49
0.125
 49
-0.125
  0
ENDTAB
  0
TABLE
  2
LAYER
 70
     2
  0
LAYER
  2
0
 70
     0
 62
   255
  6
CONTINUOUS
  0
LAYER
  2
DEFPOINTS
 70
     0
 62
     7
  6
CONTINUOUS
  0
ENDTAB
  0
TABLE
  2
STYLE
 70
     1
  0
STYLE
  2
STANDARD
 70
     0
 40
0.0
 41
0.8
 50
0.0
 71
     0
 42
0.2
  3
txt
  4

  0
ENDTAB
  0
TABLE
  2
VIEW
 70
     0
  0
ENDTAB
  0
TABLE
  2
UCS
 70
     0
  0
ENDTAB
  0
TABLE
  2
APPID
 70
     9
  0
APPID
  2
ACAD
 70
     0
  0
APPID
  2
ACAD_MLEADERVER
 70
     0
  0
APPID
  2
ACAD_EXEMPT_FROM_CAD_STANDARDS
 70
     0
  0
APPID
  2
ACAD_NAV_VCDISPLAY
 70
     0
  0
APPID
  2
ACAECLAYERSTANDARD
 70
     0
  0
APPID
  2
ACCMTRANSPARENCY
 70
     0
  0
APPID
  2
ACAD_DSTYLE_DIMJAG
 70
     0
  0
APPID
  2
ACAD_DSTYLE_DIMTALN
 70
     0
  0
APPID
  2
ACDBATTR
 70
     0
  0
ENDTAB
  0
TABLE
  2
DIMSTYLE
 70
     1
  0
DIMSTYLE
  2
STANDARD
 70
     0
  3

  4

  5

  6

  7

 40
1.0
 41
0.1875
 42
0.0625
 43
0.38
 44
0.125
 45
0.0
 46
0.0
 47
0.01
 48
0.01
140
0.15625
141
0.09
142
0.0
143
25.3999999999999986
144
1.0
145
0.0
146
1.0
147
0.09
 71
     1
 72
     0
 73
     1
 74
     1
 75
     0
 76
     0
 77
     0
 78
     4
170
     0
171
     2
172
     0
173
     0
174
     0
175
     0
176
     0
177
     0
178
     0
  0
ENDTAB
  0
ENDSEC
  0
SECTION
  2
BLOCKS
  0
BLOCK
  8
0
  2
$MODEL_SPACE
 70
     0
 10
0.0
 20
0.0
 30
0.0
  3
$MODEL_SPACE
  1

  0
ENDBLK
  5
21
  8
0
  0
BLOCK
 67
     1
  8
0
  2
$PAPER_SPACE
 70
     0
 10
0.0
 20
0.0
 30
0.0
  3
$PAPER_SPACE
  1

  0
ENDBLK
  5
1D
 67
     1
  8
0
  0
BLOCK
  8
0
  2
_FILLED
 70
     0
 10
0.0
 20
0.0
 30
0.0
  3
_FILLED
  1

  0
SOLID
  5
13356
  8
0
  6
BYBLOCK
 62
     0
 10
0.0
 20
0.0
 30
0.0
 11
-1.0
 21
0.1666666667
 31
0.0
 12
-1.0
 22
-0.1666666667
 32
0.0
 13
-1.0
 23
-0.1666666667
 33
0.0
  0
ENDBLK
  5
13357
  8
0
  6
BYBLOCK
 62
     0
  0
ENDSEC
  0
SECTION
  2
ENTITIES
  0
ATTDEF
  5
12BEB
  8
DEFPOINTS
 10
3474.6641395041237956
 20
166.4631364616815858
 30
0.0
 40
0.001
  1
K-31153T-4
  3

  2
MODELNUMBER
 70
     0
1001
ACDBATTR
1070
     0
1070
     1
  0
ATTDEF
  5
12BEC
  8
DEFPOINTS
 10
3474.6641395041237956
 20
166.4614697950148923
 30
0.0
 40
0.001
  1
MEMOIRS
  3

  2
TRADENAME
 70
     0
1001
ACDBATTR
1070
     0
1070
     1
  0
ATTDEF
  5
12BED
  8
DEFPOINTS
 10
3474.6641395041237956
 20
166.4598031283481987
 30
0.0
 40
0.001
  1
BATH AND SHOWER FAUCET
  3

  2
PRODUCT
 70
     0
1001
ACDBATTR
1070
     0
1070
     1
  0
LINE
  5
1594F
  8
0
 10
3471.5057611191177784
 20
205.080312568723798
 30
0.0
 11
3471.5057611191177784
 21
199.8466679252913138
 31
0.0
  0
LINE
  5
15950
  8
0
 10
3471.5057611191177784
 20
196.0127076002071931
 30
0.0
 11
3471.5057611191177784
 21
174.0763755608238057
 31
0.0
  0
LINE
  5
15951
  8
0
 10
3472.4900130876171715
 20
205.080312568723798
 30
0.0
 11
3472.4900130876171715
 21
197.3897710893677129
 31
0.0
  0
LINE
  5
15952
  8
0
 10
3471.3679808041179058
 20
205.080312568723798
 30
0.0
 11
3472.6277934025179093
 21
205.080312568723798
 31
0.0
  0
LINE
  5
15953
  8
0
 10
3471.3482808041171666
 20
206.3007700490238108
 30
0.0
 11
3471.3482808041171666
 21
205.1000125687237983
 31
0.0
  0
LINE
  5
15954
  8
0
 10
3472.6474934025181938
 20
205.3460306789237961
 30
0.0
 11
3472.6474934025181938
 21
205.1000125687237983
 31
0.0
  0
LINE
  5
15955
  8
0
 10
3471.3679808041179058
 20
206.8560565911238029
 30
0.0
 11
3472.6277934025179093
 21
206.8560565911238029
 31
0.0
  0
LINE
  5
15956
  8
0
 10
3471.3679808041179058
 20
206.3836156462238023
 30
0.0
 11
3472.6277934025179093
 21
206.3836156462238023
 31
0.0
  0
LINE
  5
15957
  8
0
 10
3471.3679808041179058
 20
206.320470049023811
 30
0.0
 11
3472.6277934025179093
 21
206.320470049023811
 31
0.0
  0
LINE
  5
15958
  8
0
 10
3471.4467060010169916
 20
206.3836156462238023
 30
0.0
 11
3471.4467060010169916
 21
206.320470049023811
 31
0.0
  0
LINE
  5
15959
  8
0
 10
3472.5490682057179583
 20
206.320470049023811
 30
0.0
 11
3472.5490682057179583
 21
206.3836156462238023
 31
0.0
  0
ARC
  5
1595A
  8
0
 10
3471.3679808041179058
 20
206.3007700490238108
 30
0.0
 40
0.0197
 50
90.0000000000260485
 51
180.0000000000098055
  0
ARC
  5
1595B
  8
0
 10
3472.6277934025179093
 20
206.3007700490238108
 30
0.0
 40
0.0197
 50
0.0000000000097707
 51
90.0
  0
LINE
  5
1595C
  8
0
 10
3471.3482808041171666
 20
206.4033156462238026
 30
0.0
 11
3471.3482808041171666
 21
206.8363565911238027
 31
0.0
  0
LINE
  5
1595D
  8
0
 10
3472.6474934025181938
 20
206.8363565911238027
 30
0.0
 11
3472.6474934025181938
 21
206.4033156462238026
 31
0.0
  0
ARC
  5
1595E
  8
0
 10
3471.3679808041179058
 20
206.4033156462238026
 30
0.0
 40
0.0197
 50
180.0000000000098055
 51
269.9999999999478746
  0
ARC
  5
1595F
  8
0
 10
3471.3679808041179058
 20
206.8363565911238027
 30
0.0
 40
0.0197
 50
90.0000000000260485
 51
180.0000000000212026
  0
ARC
  5
15960
  8
0
 10
3472.6277934025179093
 20
206.8363565911238027
 30
0.0
 40
0.0197
 50
0.0
 51
90.0
  0
ARC
  5
15961
  8
0
 10
3472.6277934025179093
 20
206.4033156462238026
 30
0.0
 40
0.0197
 50
269.9999999999739089
 51
359.9999999999902229
  0
LINE
  5
15962
  8
0
 10
3471.6041863159171044
 20
206.8560565911238029
 30
0.0
 11
3471.6041863159171044
 21
214.9425204427238043
 31
0.0
  0
LINE
  5
15963
  8
0
 10
3472.3915878907168917
 20
206.8560565911238029
 30
0.0
 11
3472.3915878907168917
 21
214.9425220175237996
 31
0.0
  0
LINE
  5
15964
  8
0
 10
3458.21835639471783
 20
216.5173204427237863
 30
0.0
 11
3470.0293863159181456
 21
216.5173204427237863
 31
0.0
  0
LINE
  5
15965
  8
0
 10
3470.0293878907182261
 20
217.304722017523801
 30
0.0
 11
3458.2183548199182042
 21
217.304722017523801
 31
0.0
  0
LINE
  5
15966
  8
0
 10
3456.6435563947170522
 20
214.155115718323799
 30
0.0
 11
3456.6435563947170522
 21
214.9425204427238043
 31
0.0
  0
LINE
  5
15967
  8
0
 10
3455.8561548199181743
 20
214.155115718323799
 30
0.0
 11
3455.8561548199181743
 21
214.9425220175237996
 31
0.0
  0
LINE
  5
15968
  8
0
 10
3456.6435563947170522
 20
214.155115718323799
 30
0.0
 11
3455.8561548199181743
 21
214.155115718323799
 31
0.0
  0
ARC
  5
15969
  8
0
 10
3458.21835639471783
 20
214.9425204427238043
 30
0.0
 40
1.5747999999999991
 50
90.0
 51
180.0
  0
ARC
  5
1596A
  8
0
 10
3470.0293863159181456
 20
214.9425204427238043
 30
0.0
 40
1.5747999999999991
 50
0.0
 51
90.0
  0
ARC
  5
1596B
  8
0
 10
3470.0293878907182261
 20
214.9425220175237996
 30
0.0
 40
2.3622000000000001
 50
0.0
 51
90.0
  0
ARC
  5
1596C
  8
0
 10
3458.2183548199182042
 20
214.9425220175237996
 30
0.0
 40
2.3622000000000001
 50
90.0
 51
180.0
  0
ARC
  5
1596D
  8
0
 10
3471.3679808041179058
 20
205.1000125687237983
 30
0.0
 40
0.0197
 50
180.0000000000212026
 51
269.9999999999478746
  0
ARC
  5
1596E
  8
0
 10
3472.6277934025179093
 20
205.1000125687237983
 30
0.0
 40
0.0197
 50
270.0000000000259774
 51
359.9999999999690772
  0
LINE
  5
1596F
  8
0
 10
3474.6750524577178112
 20
204.4602338285237977
 30
0.0
 11
3474.6750524577178112
 21
206.9405487891237954
 31
0.0
  0
LINE
  5
15970
  8
0
 10
3474.2813516703167807
 20
204.4897341368227046
 30
0.0
 11
3474.2813516703167807
 21
206.9110484808250021
 31
0.0
  0
LINE
  5
15971
  8
0
 10
3474.3005359844351005
 20
204.4700408875206961
 30
0.0
 11
3474.6750524577178112
 21
204.4602338285237977
 31
0.0
  0
LINE
  5
15972
  8
0
 10
3474.3005359844351005
 20
206.9307417301270107
 30
0.0
 11
3474.6750524577178112
 21
206.9405487891237954
 31
0.0
  0
LINE
  5
15973
  8
0
 10
3472.923083953717196
 20
205.2082653246237953
 30
0.0
 11
3474.2813516703167807
 21
205.2082653246237953
 31
0.0
  0
LINE
  5
15974
  8
0
 10
3472.923083953717196
 20
206.192517293123899
 30
0.0
 11
3474.2813516703167807
 21
206.192517293123899
 31
0.0
  0
LINE
  5
15975
  8
0
 10
3472.923083953717196
 20
206.192517293123899
 30
0.0
 11
3472.923083953717196
 21
205.2082653246237953
 31
0.0
  0
LINE
  5
15976
  8
0
 10
3472.923083953717196
 20
205.3854306789237967
 30
0.0
 11
3472.6868934025178532
 21
205.3854306789237967
 31
0.0
  0
LINE
  5
15977
  8
0
 10
3472.923083953717196
 20
206.0153519387237964
 30
0.0
 11
3472.6868934025178532
 21
206.0153519387237964
 31
0.0
  0
ARC
  5
15978
  8
0
 10
3474.3010516703170651
 20
204.4897341368227046
 30
0.0
 40
0.0197
 50
180.0000000000098055
 51
268.4999999998278213
  0
ARC
  5
15979
  8
0
 10
3474.3010516703170651
 20
206.9110484808250021
 30
0.0
 40
0.0197
 50
91.5000000001721503
 51
180.0
  0
ARC
  5
1597A
  8
0
 10
3472.6868934025178532
 20
205.3460306789239098
 30
0.0
 40
0.0394
 50
89.9999999999739515
 51
180.0000000000098055
  0
LINE
  5
1597B
  8
0
 10
3472.6474934025181938
 20
206.0547519387237969
 30
0.0
 11
3472.6474934025181938
 21
206.3007700490238108
 31
0.0
  0
ARC
  5
1597C
  8
0
 10
3472.6868934025178532
 20
206.0547519387237969
 30
0.0
 40
0.0394
 50
179.9999999999901945
 51
270.0
  0
ARC
  5
1597D
  8
0
 10
3473.3437379776128182
 20
205.7170083741306996
 30
0.0
 40
0.7889112489321983
 50
181.2069267946189086
 51
208.0498823003850077
  0
ARC
  5
1597E
  8
0
 10
3473.352114119613816
 20
205.6815879871332982
 30
0.0
 40
0.7973341142382361
 50
152.0945075489252929
 51
178.6486833560641116
  0
ARC
  5
1597F
  8
0
 10
3472.4802130876178126
 20
173.4562543009238027
 30
0.0
 40
0.0098
 50
270.0
 51
0.0
  0
LINE
  5
15980
  8
0
 10
3474.6750524577178112
 20
173.5940920962738119
 30
0.0
 11
3474.6750524577178112
 21
176.0744070568738096
 31
0.0
  0
LINE
  5
15981
  8
0
 10
3474.2813516703167807
 20
173.6235924045726051
 30
0.0
 11
3474.2813516703167807
 21
176.0449067485749026
 31
0.0
  0
LINE
  5
15982
  8
0
 10
3474.3005359844351005
 20
173.6038991552705966
 30
0.0
 11
3474.6750524577178112
 21
173.5940920962738119
 31
0.0
  0
LINE
  5
15983
  8
0
 10
3474.3005359844351005
 20
176.0645999978769964
 30
0.0
 11
3474.6750524577178112
 21
176.0744070568738096
 31
0.0
  0
ARC
  5
15984
  8
0
 10
3474.3010516703170651
 20
173.6235924045726051
 30
0.0
 40
0.0197
 50
180.0000000000098055
 51
268.4999999998278213
  0
ARC
  5
15985
  8
0
 10
3474.3010516703170651
 20
176.0449067485749026
 30
0.0
 40
0.0197
 50
91.5000000001721503
 51
180.0
  0
LINE
  5
15986
  8
0
 10
3472.5491130876171155
 20
175.2870054820238011
 30
0.0
 11
3473.3641210748201047
 21
175.2870054820238011
 31
0.0
  0
LINE
  5
15987
  8
0
 10
3473.9547620829080188
 20
175.2870054820238011
 30
0.0
 11
3474.2813516703167807
 21
175.2870054820238011
 31
0.0
  0
LINE
  5
15988
  8
0
 10
3472.5491130876171155
 20
174.3814936710238044
 30
0.0
 11
3472.8225138750681253
 21
174.3814936710238044
 31
0.0
  0
ARC
  5
15989
  8
0
 10
3472.5491130876171155
 20
175.3461054820238019
 30
0.0
 40
0.0591
 50
179.9999999999951115
 51
270.0
  0
LINE
  5
1598A
  8
0
 10
3472.4900130876171715
 20
174.3223936710238036
 30
0.0
 11
3472.4900130876171715
 21
174.0763755608238057
 31
0.0
  0
LINE
  5
1598B
  8
0
 10
3472.4900130876171715
 20
174.0665330411237903
 30
0.0
 11
3472.4900130876171715
 21
173.4562543009238027
 31
0.0
  0
ARC
  5
1598C
  8
0
 10
3472.5491130876171155
 20
174.3223936710238036
 30
0.0
 40
0.0591
 50
90.0
 51
180.0
  0
ARC
  5
1598D
  8
0
 10
3472.4801705679178667
 20
174.0665330411237903
 30
0.0
 40
0.0098425197000154
 50
0.0
 51
90.0
  0
ARC
  5
1598E
  8
0
 10
3472.6865665514710599
 20
174.5721937468960903
 30
0.0
 40
0.1767696657352118
 50
251.6946429346758975
 51
288.8287399243369009
  0
ARC
  5
1598F
  8
0
 10
3472.6863996839920219
 20
174.3461992335820128
 30
0.0
 40
0.0989574870943586
 50
49.9790256705678999
 51
128.4936429949289902
  0
ARC
  5
15990
  8
0
 10
3472.6361658870428073
 20
174.4166770358496876
 30
0.0
 40
0.0133299654871969
 50
148.4542110995554083
 51
247.415245772349806
  0
ARC
  5
15991
  8
0
 10
3475.0359300057039036
 20
176.5057051704268076
 30
0.0
 40
3.3538846219305949
 50
214.2183754713568078
 51
220.6155234689271083
  0
ARC
  5
15992
  8
0
 10
3472.7619957784190774
 20
174.9587985949578126
 30
0.0
 40
0.603667182887981
 50
199.7201418658476086
 51
214.1810065431930923
  0
ARC
  5
15993
  8
0
 10
3472.4142659328990703
 20
174.8341553543729958
 30
0.0
 40
0.2342731075588794
 50
160.7206165441461962
 51
199.7201418658476086
  0
LINE
  5
15994
  8
0
 10
3455.885669966316982
 20
214.0370054915237858
 30
0.0
 11
3455.885669966316982
 21
214.155115718323799
 31
0.0
  0
LINE
  5
15995
  8
0
 10
3456.6140164229182119
 20
214.0370054915237858
 30
0.0
 11
3456.6140164229182119
 21
214.155115718323799
 31
0.0
  0
LINE
  5
15996
  8
0
 10
3472.0930246628167879
 20
206.3836156462238023
 30
0.0
 11
3472.0930246628167879
 21
206.8560565911238029
 31
0.0
  0
LINE
  5
15997
  8
0
 10
3472.4913637609502075
 20
206.3836156462238023
 30
0.0
 11
3472.4913637609502075
 21
206.8560565911238029
 31
0.0
  0
LINE
  5
15998
  8
0
 10
3471.5057611191678006
 20
173.44645430092379
 30
0.0
 11
3471.5057611191678006
 21
173.4070842222238014
 31
0.0
  0
LINE
  5
15999
  8
0
 10
3471.5057611191678006
 20
173.4070842222238014
 30
0.0
 11
3472.4900130876671938
 21
173.4070842222238014
 31
0.0
  0
LINE
  5
1599A
  8
0
 10
3472.4900130876671938
 20
173.4070842222238014
 30
0.0
 11
3472.4900130876671938
 21
173.44645430092379
 31
0.0
  0
LINE
  5
1599B
  8
0
 10
3470.5278492026181993
 20
173.44645430092379
 30
0.0
 11
3472.4900130876671938
 21
173.44645430092379
 31
0.0
  0
ARC
  5
1599C
  8
0
 10
3472.480170567866935
 20
173.4562968206238054
 30
0.0
 40
0.0098425197000047
 50
270.0
 51
0.0
  0
LINE
  5
1599D
  8
0
 10
3471.5057611190668467
 20
173.387399182823799
 30
0.0
 11
3472.4900130875671493
 21
173.387399182823799
 31
0.0
  0
LINE
  5
1599E
  8
0
 10
3472.4900130875671493
 20
173.387399182823799
 30
0.0
 11
3472.4900130875671493
 21
173.3283440647238081
 31
0.0
  0
LINE
  5
1599F
  8
0
 10
3471.5057611190668467
 20
173.3283440647238081
 30
0.0
 11
3471.5057611190668467
 21
173.387399182823799
 31
0.0
  0
LINE
  5
159A0
  8
0
 10
3472.4900130876171715
 20
174.0763755608238057
 30
0.0
 11
3470.5278492026181993
 21
174.0763755608238057
 31
0.0
  0
LINE
  5
159A1
  8
0
 10
3473.3731318045038279
 20
174.3027535135238111
 30
0.0
 11
3472.8837138750682243
 21
174.3027535135238111
 31
0.0
  0
LINE
  5
159A2
  8
0
 10
3472.8837138750682243
 20
174.3202936710237907
 30
0.0
 11
3472.8837138750682243
 21
174.3027535135238111
 31
0.0
  0
ARC
  5
159A3
  8
0
 10
3472.8225138750681253
 20
174.3202936710237907
 30
0.0
 40
0.0612
 50
359.9999999999935199
 51
90.0
  0
LINE
  5
159A4
  8
0
 10
3473.3364732381469366
 20
174.8342495765238027
 30
0.0
 11
3472.8225138750681253
 21
174.3814936710238044
 31
0.0
  0
LINE
  5
159A5
  8
0
 10
3471.5248569694667822
 20
173.44645430092379
 30
0.0
 11
3471.5248569694667822
 21
174.0763755608238057
 31
0.0
  0
ARC
  5
159A6
  8
0
 10
3472.7406365452261525
 20
174.4157564320132963
 30
0.0
 40
0.0112741342238066
 50
285.330542011128216
 51
33.5166554790483104
  0
LINE
  5
159A7
  8
0
 10
3455.8856823789178634
 20
214.0370054915237858
 30
0.0
 11
3456.6140288356168639
 21
214.0370054915237858
 31
0.0
  0
LINE
  5
159A8
  8
0
 10
3456.6140288356168639
 20
214.0370054915237858
 30
0.0
 11
3456.6632414341179356
 21
213.9877928943238032
 31
0.0
  0
LINE
  5
159A9
  8
0
 10
3456.6632414341179356
 20
213.9877928943238032
 30
0.0
 11
3456.6632414341179356
 21
213.9453046947238022
 31
0.0
  0
LINE
  5
159AA
  8
0
 10
3455.8856823789178634
 20
214.0370054915237858
 30
0.0
 11
3455.8364697805182004
 21
213.9877928757238124
 31
0.0
  0
LINE
  5
159AB
  8
0
 10
3455.8364697805182004
 20
213.9877928757238124
 30
0.0
 11
3455.8364697805182004
 21
213.9453046947238022
 31
0.0
  0
LINE
  5
159AC
  8
0
 10
3455.8364697805182004
 20
213.9877928757238124
 30
0.0
 11
3456.6632414341179356
 21
213.9877928757238124
 31
0.0
  0
ARC
  5
159AD
  8
0
 10
3470.5278492026181993
 20
173.9582653246237953
 30
0.0
 40
0.1181102362000015
 50
90.0
 51
179.9999999999984084
  0
LINE
  5
159AE
  8
0
 10
3470.40973896641799
 20
173.9582653246237953
 30
0.0
 11
3470.40973896641799
 21
173.564564537223788
 31
0.0
  0
ARC
  5
159AF
  8
0
 10
3470.5278492026181993
 20
173.564564537223788
 30
0.0
 40
0.1181102361999962
 50
179.9999999999967031
 51
270.0
  0
LINE
  5
159B0
  8
0
 10
3471.6829264734169556
 20
173.3873991829237866
 30
0.0
 11
3471.6829264734169556
 21
173.4070842222238014
 31
0.0
  0
LINE
  5
159B1
  8
0
 10
3472.3128477333179944
 20
173.387399182823799
 30
0.0
 11
3472.3128477333179944
 21
173.4070842222238014
 31
0.0
  0
LINE
  5
159B2
  8
0
 10
3472.4900130876171715
 20
175.346060600223808
 30
0.0
 11
3472.490014872717893
 21
193.8391643863745912
 31
0.0
  0
ARC
  5
159B3
  8
0
 10
3472.5155249287518018
 20
176.0008822912334949
 30
0.0
 40
0.0944083665278402
 50
143.878320419703897
 51
171.1364581915676126
  0
ARC
  5
159B4
  8
0
 10
3472.4563702781929351
 20
176.044052898906898
 30
0.0
 40
0.021176037262773
 50
122.1622346820614951
 51
143.8783204196805912
  0
ARC
  5
159B5
  8
0
 10
3472.4534213499550788
 20
176.0487425697874073
 30
0.0
 40
0.0156362547106903
 50
85.1021716458804036
 51
122.1622346820897036
  0
ARC
  5
159B6
  8
0
 10
3472.454157035001117
 20
176.0573277880484966
 30
0.0
 40
0.0070195729201794
 50
40.8085179199605008
 51
85.1021716458805457
  0
ARC
  5
159B7
  8
0
 10
3472.441026908729782
 20
176.0420666145037103
 30
0.0
 40
0.027094711134336
 50
21.8525594178184299
 51
47.1020466296516034
  0
ARC
  5
159B8
  8
0
 10
3472.3535941136019574
 20
176.0086599985037026
 30
0.0
 40
0.120689393614454
 50
4.4237913375126103
 51
21.1223897349321916
  0
ARC
  5
159B9
  8
0
 10
3472.1508791163519163
 20
175.9857675185338906
 30
0.0
 40
0.3246458211268673
 50
354.8318964020568274
 51
5.6925290273590248
  0
ARC
  5
159BA
  8
0
 10
3472.3195162516249184
 20
175.9687711640328018
 30
0.0
 40
0.1551729655005348
 50
344.7197664374292003
 51
355.4731791130121223
  0
ARC
  5
159BB
  8
0
 10
3472.4292799820159416
 20
175.9375981436924974
 30
0.0
 40
0.0410901367768661
 50
317.8919542513066858
 51
346.3149353404605222
  0
ARC
  5
159BC
  8
0
 10
3472.4530624800431724
 20
175.9161029406693046
 30
0.0
 40
0.0090331411998902
 50
266.7618263381198176
 51
317.891954251301911
  0
ARC
  5
159BD
  8
0
 10
3472.4533830409841357
 20
175.9217688595961988
 30
0.0
 40
0.0147081210767465
 50
250.0032364279628894
 51
266.7618263381198176
  0
ARC
  5
159BE
  8
0
 10
3472.4585545244849527
 20
175.9302354812242868
 30
0.0
 40
0.0245116252917182
 50
218.0973440481070895
 51
245.406535733156602
  0
ARC
  5
159BF
  8
0
 10
3472.4901902715250799
 20
175.9559842887350953
 30
0.0
 40
0.0652990462891872
 50
203.3816562703098896
 51
218.7502922164104007
  0
ARC
  5
159C0
  8
0
 10
3472.560998774332802
 20
175.9843284897050069
 30
0.0
 40
0.1415567294408563
 50
179.0091835492621897
 51
202.5381099307483055
  0
ARC
  5
159C1
  8
0
 10
3472.5749012957130617
 20
175.9861520954187029
 30
0.0
 40
0.1554393385727788
 50
169.1435680598648901
 51
179.7699106845857955
  0
LINE
  5
159C2
  8
0
 10
3455.7895406502179867
 20
213.9453046947238022
 30
0.0
 11
3456.725918599517172
 21
213.9453046947238022
 31
0.0
  0
ARC
  5
159C3
  8
0
 10
3455.7895406466168424
 20
213.925304694723792
 30
0.0
 40
0.0199999999999999
 50
89.9999896867645361
 51
180.0
  0
LINE
  5
159C4
  8
0
 10
3455.7695406466168606
 20
213.925304694723792
 30
0.0
 11
3455.7695406466168606
 21
213.8173519387237889
 31
0.0
  0
LINE
  5
159C5
  8
0
 10
3455.7695406466168606
 20
213.8173519387237889
 30
0.0
 11
3455.810879229317834
 21
213.7760133561237978
 31
0.0
  0
LINE
  5
159C6
  8
0
 10
3455.810879229317834
 20
213.7760133561237978
 30
0.0
 11
3455.8108792292960061
 21
213.2774180521689118
 31
0.0
  0
ARC
  5
159C7
  8
0
 10
3455.9978871027728928
 20
213.4084530063111913
 30
0.0
 40
0.2283464559601202
 50
215.018628235121497
 51
248.0877878012501867
  0
ARC
  5
159C8
  8
0
 10
3455.8865485205228651
 20
213.1316600729784909
 30
0.0
 40
0.070000000094667
 50
309.3709896796016778
 51
68.0877876768406765
  0
ARC
  5
159C9
  8
0
 10
3456.2656036388179928
 20
212.6697141435238052
 30
0.0
 40
0.5275590551000331
 50
129.3709895358958022
 51
145.4348305407042119
  0
ARC
  5
159CA
  8
0
 10
3456.725918599517172
 20
213.925304694723792
 30
0.0
 40
0.0199999999999999
 50
0.0
 51
90.0000103132354639
  0
LINE
  5
159CB
  8
0
 10
3456.7459185995171538
 20
213.925304694723792
 30
0.0
 11
3456.7459185995171538
 21
213.8173519387237889
 31
0.0
  0
LINE
  5
159CC
  8
0
 10
3456.7459185995171538
 20
213.8173519387237889
 30
0.0
 11
3456.7045800168170899
 21
213.7760133561237978
 31
0.0
  0
LINE
  5
159CD
  8
0
 10
3456.7045800168170899
 20
213.7760133561237978
 30
0.0
 11
3456.7045800168389178
 21
213.2774180521689118
 31
0.0
  0
ARC
  5
159CE
  8
0
 10
3456.5175721433620311
 20
213.4084530063111913
 30
0.0
 40
0.2283464559601202
 50
291.9122121987497849
 51
324.9813717648784746
  0
ARC
  5
159CF
  8
0
 10
3456.6289107256120587
 20
213.1316600729784909
 30
0.0
 40
0.070000000094667
 50
111.9122123231599062
 51
230.629010320397299
  0
ARC
  5
159D0
  8
0
 10
3456.2498556073178406
 20
212.6697141435238052
 30
0.0
 40
0.5275590551000331
 50
34.565169459295781
 51
50.6290104641042191
  0
LINE
  5
159D1
  8
0
 10
3471.505760760117937
 20
173.387399182823799
 30
0.0
 11
3472.4900127286177849
 21
173.387399182823799
 31
0.0
  0
LINE
  5
159D2
  8
0
 10
3472.4900127286177849
 20
173.387399182823799
 30
0.0
 11
3472.4900127286177849
 21
173.3283440647238081
 31
0.0
  0
LINE
  5
159D3
  8
0
 10
3471.505760760117937
 20
173.3283440647238081
 30
0.0
 11
3471.505760760117937
 21
173.387399182823799
 31
0.0
  0
ARC
  5
159D4
  8
0
 10
3475.0359300057039036
 20
173.1608033534346873
 30
0.0
 40
3.3538846219305949
 50
139.3844765310728917
 51
145.7816245286431069
  0
ARC
  5
159D5
  8
0
 10
3472.7619957784190774
 20
174.7077099289037108
 30
0.0
 40
0.603667182887981
 50
145.8189934568069077
 51
160.2798581341523914
  0
LINE
  5
159D6
  8
0
 10
3473.3364732381469366
 20
174.8342495765238027
 30
0.0
 11
3473.3677662170907752
 21
174.8066826662534083
 31
0.0
  0
LINE
  5
159D7
  8
0
 10
3474.2813516703167807
 20
174.3814936710238044
 30
0.0
 11
3473.9628674513592159
 21
174.3814936710238044
 31
0.0
  0
ARC
  5
159D8
  8
0
 10
3471.9978871034168151
 20
196.7014027058469026
 30
0.0
 40
0.7874015748000005
 50
140.4990073566540048
 51
265.6379155527233138
  0
ARC
  5
159D9
  8
0
 10
3471.9978871034168151
 20
196.7014027058469026
 30
0.0
 40
0.7874015748000005
 50
314.3620844607671074
 51
79.7123247493339733
  0
ARC
  5
159DA
  8
0
 10
3471.9978871034168151
 20
196.6423475877469116
 30
0.0
 40
0.8464566928999989
 50
46.4986163223999611
 51
76.6770073270921415
  0
ARC
  5
159DB
  8
0
 10
3472.016781653912858
 20
196.7206796172326904
 30
0.0
 40
0.8195312000953244
 50
46.5332846214783871
 51
78.9263267906432731
  0
LINE
  5
159DC
  8
0
 10
3472.5805642688169428
 20
197.2563315076313017
 30
0.0
 11
3472.5805642688169428
 21
197.3154741624844917
 31
0.0
  0
LINE
  5
159DD
  8
0
 10
3472.5470997019169772
 20
197.2656426917097008
 30
0.0
 11
3472.5470997019169772
 21
197.2864395490412903
 31
0.0
  0
LINE
  5
159DE
  8
0
 10
3472.0958727554670986
 20
197.4261569591932073
 30
0.0
 11
3472.5484307131350761
 21
196.1384613467363067
 31
0.0
  0
ARC
  5
159DF
  8
0
 10
3472.1317231578009341
 20
197.4387565088883889
 30
0.0
 40
0.038
 50
79.7123247493339733
 51
199.363919540980703
  0
LINE
  5
159E0
  8
0
 10
3471.4569626852257898
 20
197.1936127112604993
 30
0.0
 11
3471.9379979612999705
 21
195.9162819949661127
 31
0.0
  0
ARC
  5
159E1
  8
0
 10
3471.4213293440361667
 20
197.1801334378081947
 30
0.0
 40
0.0380975828254293
 50
20.7204776691721086
 51
144.4900099049395976
  0
ARC
  5
159E2
  8
0
 10
3471.9978871034168151
 20
196.7014027058469026
 30
0.0
 40
0.8464566929000316
 50
227.6448134684540037
 51
268.6944116663353839
  0
ARC
  5
159E3
  8
0
 10
3471.4532099381171975
 20
196.1039673454139916
 30
0.0
 40
0.038
 50
180.0
 51
227.6448134684540037
  0
ARC
  5
159E4
  8
0
 10
3471.9971254009219592
 20
196.7593130736593992
 30
0.0
 40
0.8451020374835804
 50
226.4826495295440907
 51
267.5564596244922768
  0
LINE
  5
159E5
  8
0
 10
3471.4152099381171865
 20
196.1464739039676033
 30
0.0
 11
3471.4152099381171865
 21
196.1039673454139916
 31
0.0
  0
LINE
  5
159E6
  8
0
 10
3471.4488056550999318
 20
196.1162540548891116
 30
0.0
 11
3471.4488694581241361
 21
196.1369730245278902
 31
0.0
  0
LINE
  5
159E7
  8
0
 10
3471.9201663003600515
 20
195.9636318035450984
 30
0.0
 11
3472.5316545594478157
 21
196.186195739933396
 31
0.0
  0
LINE
  5
159E9
  8
0
 10
3471.4806409270800032
 20
197.1307380175888966
 30
0.0
 11
3472.118149243931839
 21
197.3627720689908074
 31
0.0
  0
LINE
  5
159EA
  8
0
 10
3455.5392256879181332
 20
211.9060083945780946
 30
0.0
 11
3455.5392256879181332
 21
212.4965595756779919
 31
0.0
  0
LINE
  5
159EB
  8
0
 10
3455.5392256879181332
 20
212.4965595756779919
 30
0.0
 11
3455.5687532469169128
 21
212.4965595756779919
 31
0.0
  0
LINE
  5
159EC
  8
0
 10
3455.5687532469169128
 20
212.4965595756779919
 30
0.0
 11
3455.5687532469169128
 21
212.9690005205779926
 31
0.0
  0
LINE
  5
159ED
  8
0
 10
3455.5687532469169128
 20
212.9690005205779926
 30
0.0
 11
3456.9467060028168817
 21
212.9690005205779926
 31
0.0
  0
LINE
  5
159EE
  8
0
 10
3456.9467060028168817
 20
212.9690005205779926
 30
0.0
 11
3456.9467060028168817
 21
212.4965595756779919
 31
0.0
  0
LINE
  5
159EF
  8
0
 10
3456.9467060028168817
 20
212.4965595756779919
 30
0.0
 11
3456.9762335619170699
 21
212.4965595756779919
 31
0.0
  0
LINE
  5
159F0
  8
0
 10
3456.9762335619170699
 20
212.4965595756779919
 30
0.0
 11
3456.9762335619170699
 21
211.9060083945780093
 31
0.0
  0
LINE
  5
159F1
  8
0
 10
3461.2577296249178289
 20
211.9060083945780093
 30
0.0
 11
3461.2577296249178289
 21
211.5123073198780048
 31
0.0
  0
LINE
  5
159F2
  8
0
 10
3461.2577296249178289
 20
211.9060083945780093
 30
0.0
 11
3451.2577185960180941
 21
211.9060083945780093
 31
0.0
  0
LINE
  5
159F3
  8
0
 10
3461.2301705698168917
 20
211.4847485519779866
 30
0.0
 11
3451.2852776512891069
 21
211.4847485519779866
 31
0.0
  0
ARC
  5
159F4
  8
0
 10
3461.2301705696449972
 20
211.5123076072513015
 30
0.0
 40
0.0275590552732652
 50
270.0000003570851845
 51
359.9994025457236262
  0
LINE
  5
159F5
  8
0
 10
3460.5711473908181688
 20
211.4847485519779866
 30
0.0
 11
3460.5642766485461834
 21
211.4358606807780063
 31
0.0
  0
ARC
  5
159F6
  8
0
 10
3460.5525805690258494
 20
211.4375044575675986
 30
0.0
 40
0.0118110235895772
 50
269.9999999560449737
 51
351.9999999456180717
  0
LINE
  5
159F7
  8
0
 10
3460.5525805690172092
 20
211.4256934339780116
 30
0.0
 11
3460.4668156888178601
 21
211.4256934340438079
 31
0.0
  0
ARC
  5
159F8
  8
0
 10
3460.466815688826955
 20
211.4375044577483891
 30
0.0
 40
0.0118110237045635
 50
188.0000008615897116
 51
269.9999999560449737
  0
LINE
  5
159F9
  8
0
 10
3460.4551196092179453
 20
211.4358606807780063
 30
0.0
 11
3460.4482488662579271
 21
211.4847485518712062
 31
0.0
  0
LINE
  5
159FA
  8
0
 10
3459.8624859735177779
 20
211.4847485519779866
 30
0.0
 11
3459.855615231244883
 21
211.4358606807780063
 31
0.0
  0
ARC
  5
159FB
  8
0
 10
3459.8439191517259133
 20
211.4375044575675986
 30
0.0
 40
0.0118110235895772
 50
269.9999999560449737
 51
351.9999999456180717
  0
LINE
  5
159FC
  8
0
 10
3459.8439191517181825
 20
211.4256934339780116
 30
0.0
 11
3459.7581542715179239
 21
211.4256934340438079
 31
0.0
  0
ARC
  5
159FD
  8
0
 10
3459.7581542715270189
 20
211.4375044577483891
 30
0.0
 40
0.0118110237045635
 50
188.0000008615897116
 51
269.9999999560449737
  0
LINE
  5
159FE
  8
0
 10
3459.7464581919180091
 20
211.4358606807780063
 30
0.0
 11
3459.739587448957991
 21
211.4847485518712062
 31
0.0
  0
LINE
  5
159FF
  8
0
 10
3459.1538245561177973
 20
211.4847485519779866
 30
0.0
 11
3459.1469538138449025
 21
211.4358606807780063
 31
0.0
  0
ARC
  5
15A00
  8
0
 10
3459.1352577343268422
 20
211.4375044575675986
 30
0.0
 40
0.0118110235895772
 50
269.9999999560449737
 51
351.9999999456180717
  0
LINE
  5
15A01
  8
0
 10
3459.1352577343168377
 20
211.4256934339780116
 30
0.0
 11
3459.0494928541179434
 21
211.4256934340438079
 31
0.0
  0
ARC
  5
15A02
  8
0
 10
3459.0494928541270383
 20
211.4375044577483891
 30
0.0
 40
0.0118110237045635
 50
188.0000008615897116
 51
269.9999999560449737
  0
LINE
  5
15A03
  8
0
 10
3459.0377967745180285
 20
211.4358606807780063
 30
0.0
 11
3459.0309260315580104
 21
211.4847485518712062
 31
0.0
  0
LINE
  5
15A04
  8
0
 10
3458.4451631388178612
 20
211.4847485519779866
 30
0.0
 11
3458.4382923965449663
 21
211.4358606807780063
 31
0.0
  0
ARC
  5
15A05
  8
0
 10
3458.426596317026906
 20
211.4375044575675986
 30
0.0
 40
0.0118110235895772
 50
269.9999999560449737
 51
351.9999999456180717
  0
LINE
  5
15A06
  8
0
 10
3458.4265963170178111
 20
211.4256934339780116
 30
0.0
 11
3458.3408314368180072
 21
211.4256934340438079
 31
0.0
  0
ARC
  5
15A07
  8
0
 10
3458.3408314368271022
 20
211.4375044577483891
 30
0.0
 40
0.0118110237045635
 50
188.0000008615897116
 51
269.9999999560449737
  0
LINE
  5
15A08
  8
0
 10
3458.3291353572171829
 20
211.4358606807780063
 30
0.0
 11
3458.3222646142580743
 21
211.4847485518712062
 31
0.0
  0
LINE
  5
15A09
  8
0
 10
3457.736501721517925
 20
211.4847485519779866
 30
0.0
 11
3457.7296309792441207
 21
211.4358606807780063
 31
0.0
  0
ARC
  5
15A0A
  8
0
 10
3457.7179348997269699
 20
211.4375044575675986
 30
0.0
 40
0.0118110235895772
 50
269.9999999560449737
 51
351.9999999456180717
  0
LINE
  5
15A0B
  8
0
 10
3457.7179348997178749
 20
211.4256934339780116
 30
0.0
 11
3457.6321700195171616
 21
211.4256934340438079
 31
0.0
  0
ARC
  5
15A0C
  8
0
 10
3457.632170019527166
 20
211.4375044577483891
 30
0.0
 40
0.0118110237045635
 50
188.0000008615897116
 51
269.9999999560449737
  0
LINE
  5
15A0D
  8
0
 10
3457.620473939916792
 20
211.4358606807780063
 30
0.0
 11
3457.6136031969567739
 21
211.4847485518712062
 31
0.0
  0
LINE
  5
15A0E
  8
0
 10
3457.0278403042170794
 20
211.4847485519779866
 30
0.0
 11
3457.020969561945094
 21
211.4358606807780063
 31
0.0
  0
ARC
  5
15A0F
  8
0
 10
3457.0092734824270337
 20
211.4375044575675986
 30
0.0
 40
0.0118110235895772
 50
269.9999999560449737
 51
351.9999999456180717
  0
LINE
  5
15A10
  8
0
 10
3457.0092734824179388
 20
211.4256934339780116
 30
0.0
 11
3456.9235086022181349
 21
211.4256934340438079
 31
0.0
  0
ARC
  5
15A11
  8
0
 10
3456.9235086022267751
 20
211.4375044577483891
 30
0.0
 40
0.0118110237045635
 50
188.0000008615897116
 51
269.9999999560449737
  0
LINE
  5
15A12
  8
0
 10
3456.9118125226182201
 20
211.4358606807780063
 30
0.0
 11
3456.9049417796568378
 21
211.4847485518712062
 31
0.0
  0
LINE
  5
15A13
  8
0
 10
3456.3191733723679135
 20
211.4847485519779866
 30
0.0
 11
3456.3123026300950187
 21
211.4358606807780063
 31
0.0
  0
ARC
  5
15A14
  8
0
 10
3456.3006065505769584
 20
211.4375044575675986
 30
0.0
 40
0.0118110235895772
 50
269.9999999560449737
 51
351.9999999456180717
  0
LINE
  5
15A15
  8
0
 10
3456.3006065505678635
 20
211.4256934339780116
 30
0.0
 11
3456.2148416703680596
 21
211.4256934340438079
 31
0.0
  0
ARC
  5
15A16
  8
0
 10
3456.2148416703771545
 20
211.4375044577483891
 30
0.0
 40
0.0118110237045635
 50
188.0000008615897116
 51
269.9999999560449737
  0
LINE
  5
15A17
  8
0
 10
3456.2031455907667805
 20
211.4358606807780063
 30
0.0
 11
3456.1962748478081267
 21
211.4847485518712062
 31
0.0
  0
LINE
  5
15A18
  8
0
 10
3451.2577185960180941
 20
211.9060083945780093
 30
0.0
 11
3451.2577185960180941
 21
211.5123073198780048
 31
0.0
  0
ARC
  5
15A19
  8
0
 10
3451.2852776512891069
 20
211.5123076072513015
 30
0.0
 40
0.0275590552732652
 50
180.0005974542764022
 51
269.9999996429148155
  0
LINE
  5
15A1A
  8
0
 10
3451.9443008301168447
 20
211.4847485519779866
 30
0.0
 11
3451.9511715723901943
 21
211.4358606807780063
 31
0.0
  0
ARC
  5
15A1B
  8
0
 10
3451.9628676519077999
 20
211.4375044575675986
 30
0.0
 40
0.0118110235895772
 50
188.0000000543803083
 51
270.0000000439550263
  0
LINE
  5
15A1C
  8
0
 10
3451.9628676519178043
 20
211.4256934339780116
 30
0.0
 11
3452.048632532118063
 21
211.4256934340438079
 31
0.0
  0
ARC
  5
15A1D
  8
0
 10
3452.048632532108968
 20
211.4375044577483891
 30
0.0
 40
0.0118110237045635
 50
270.0000000439550263
 51
351.9999991384086115
  0
LINE
  5
15A1E
  8
0
 10
3452.0603286117179778
 20
211.4358606807780063
 30
0.0
 11
3452.0671993546779959
 21
211.4847485518712062
 31
0.0
  0
LINE
  5
15A1F
  8
0
 10
3452.6529622474167809
 20
211.4847485519779866
 30
0.0
 11
3452.6598329896901305
 21
211.4358606807780063
 31
0.0
  0
ARC
  5
15A20
  8
0
 10
3452.6715290692081908
 20
211.4375044575675986
 30
0.0
 40
0.0118110235895772
 50
188.0000000543803083
 51
270.0000000439550263
  0
LINE
  5
15A21
  8
0
 10
3452.671529069216831
 20
211.4256934339780116
 30
0.0
 11
3452.7572939494179991
 21
211.4256934340438079
 31
0.0
  0
ARC
  5
15A22
  8
0
 10
3452.7572939494089042
 20
211.4375044577483891
 30
0.0
 40
0.0118110237045635
 50
270.0000000439550263
 51
351.9999991384086115
  0
LINE
  5
15A23
  8
0
 10
3452.7689900290179139
 20
211.4358606807780063
 30
0.0
 11
3452.775860771977932
 21
211.4847485518712062
 31
0.0
  0
LINE
  5
15A24
  8
0
 10
3453.3616236648172162
 20
211.4847485519779866
 30
0.0
 11
3453.3684944070901111
 21
211.4358606807780063
 31
0.0
  0
ARC
  5
15A25
  8
0
 10
3453.3801904866081713
 20
211.4375044575675986
 30
0.0
 40
0.0118110235895772
 50
188.0000000543803083
 51
270.0000000439550263
  0
LINE
  5
15A26
  8
0
 10
3453.3801904866181758
 20
211.4256934339780116
 30
0.0
 11
3453.4659553668179797
 21
211.4256934340438079
 31
0.0
  0
ARC
  5
15A27
  8
0
 10
3453.4659553668088847
 20
211.4375044577483891
 30
0.0
 40
0.0118110237045635
 50
270.0000000439550263
 51
351.9999991384086115
  0
LINE
  5
15A28
  8
0
 10
3453.4776514464178945
 20
211.4358606807780063
 30
0.0
 11
3453.4845221893770031
 21
211.4847485518712062
 31
0.0
  0
LINE
  5
15A29
  8
0
 10
3454.0702850821180618
 20
211.4847485519779866
 30
0.0
 11
3454.0771558243909567
 21
211.4358606807780063
 31
0.0
  0
ARC
  5
15A2A
  8
0
 10
3454.0888519039081075
 20
211.4375044575675986
 30
0.0
 40
0.0118110235895772
 50
188.0000000543803083
 51
270.0000000439550263
  0
LINE
  5
15A2B
  8
0
 10
3454.0888519039172024
 20
211.4256934339780116
 30
0.0
 11
3454.1746167841179158
 21
211.4256934340438079
 31
0.0
  0
ARC
  5
15A2C
  8
0
 10
3454.1746167841079114
 20
211.4375044577483891
 30
0.0
 40
0.0118110237045635
 50
270.0000000439550263
 51
351.9999991384086115
  0
LINE
  5
15A2D
  8
0
 10
3454.1863128637178306
 20
211.4358606807780063
 30
0.0
 11
3454.1931836066769392
 21
211.4847485518712062
 31
0.0
  0
LINE
  5
15A2E
  8
0
 10
3454.778946499417998
 20
211.4847485519779866
 30
0.0
 11
3454.7858172416899833
 21
211.4358606807780063
 31
0.0
  0
ARC
  5
15A2F
  8
0
 10
3454.7975133212089531
 20
211.4375044575675986
 30
0.0
 40
0.0118110235895772
 50
188.0000000543803083
 51
270.0000000439550263
  0
LINE
  5
15A30
  8
0
 10
3454.7975133212180481
 20
211.4256934339780116
 30
0.0
 11
3454.883278201417852
 21
211.4256934340438079
 31
0.0
  0
ARC
  5
15A31
  8
0
 10
3454.8832782014078475
 20
211.4375044577483891
 30
0.0
 40
0.0118110237045635
 50
270.0000000439550263
 51
351.9999991384086115
  0
LINE
  5
15A32
  8
0
 10
3454.8949742810168573
 20
211.4358606807780063
 30
0.0
 11
3454.9018450239768754
 21
211.4847485518712062
 31
0.0
  0
LINE
  5
15A33
  8
0
 10
3455.4876079167179341
 20
211.4847485519779866
 30
0.0
 11
3455.4944786589899195
 21
211.4358606807780063
 31
0.0
  0
ARC
  5
15A34
  8
0
 10
3455.5061747385079798
 20
211.4375044575675986
 30
0.0
 40
0.0118110235895772
 50
188.0000000543803083
 51
270.0000000439550263
  0
LINE
  5
15A35
  8
0
 10
3455.5061747385179842
 20
211.4256934339780116
 30
0.0
 11
3455.5919396187168786
 21
211.4256934340438079
 31
0.0
  0
ARC
  5
15A36
  8
0
 10
3455.5919396187091479
 20
211.4375044577483891
 30
0.0
 40
0.0118110237045635
 50
270.0000000439550263
 51
351.9999991384086115
  0
LINE
  5
15A37
  8
0
 10
3455.6036356983167934
 20
211.4358606807780063
 30
0.0
 11
3455.6105064412781758
 21
211.4847485518712062
 31
0.0
  0
LINE
  5
15A38
  8
0
 10
3472.4900127286177849
 20
173.3283440647238081
 30
0.0
 11
3471.505760760117937
 21
173.3283440647238081
 31
0.0
  0
LINE
  5
15A39
  8
0
 10
3468.9270734041620017
 20
165.9020356291023859
 30
0.0
 11
3468.0018765537620311
 21
165.9020354344023929
 31
0.0
  0
LINE
  5
15A3A
  8
0
 10
3468.9270734041620017
 20
165.9020356291023859
 30
0.0
 11
3468.9270486141690526
 21
166.3914269885844135
 31
0.0
  0
LINE
  5
15A3B
  8
0
 10
3468.0018765537620311
 20
165.9020354344023929
 30
0.0
 11
3468.001878465423033
 21
166.4389552182350087
 31
0.0
  0
LINE
  5
15A3C
  8
0
 10
3472.4900123696670562
 20
173.3283440647238081
 30
0.0
 11
3471.5057604011681178
 21
173.3283440647238081
 31
0.0
  0
LINE
  5
15A3D
  8
0
 10
3472.3923732364100943
 20
171.9298867705238081
 30
0.0
 11
3472.4503005487681548
 21
173.3201422494238102
 31
0.0
  0
ARC
  5
15A3E
  8
0
 10
3472.4424333591050527
 20
173.3204700487750074
 30
0.0
 40
0.0078740158487598
 50
357.614057554484873
 51
89.9999991251477951
  0
ARC
  5
15A3F
  8
0
 10
3472.372705263268017
 20
171.9307062694238084
 30
0.0
 40
0.0196850393999978
 50
270.0
 51
357.6140560072021799
  0
LINE
  5
15A40
  8
0
 10
3472.372705263268017
 20
171.9110212300238061
 30
0.0
 11
3471.6230564787679214
 21
171.9110212300238061
 31
0.0
  0
LINE
  5
15A41
  8
0
 10
3471.6033885056249346
 20
171.9298867705238081
 30
0.0
 11
3471.545461193266874
 21
173.3201422494238102
 31
0.0
  0
ARC
  5
15A42
  8
0
 10
3471.6230564787679214
 20
171.9307062694238084
 30
0.0
 40
0.0196850393999978
 50
182.3859439927977917
 51
270.0
  0
ARC
  5
15A43
  8
0
 10
3471.5533283829299762
 20
173.3204700487750074
 30
0.0
 40
0.0078740158487598
 50
90.0000008748522191
 51
182.3859424455150986
  0
LINE
  5
15A44
  8
0
 10
3468.8589625910740324
 20
164.5035782672179039
 30
0.0
 11
3468.916889903432093
 21
165.893833746117906
 31
0.0
  0
ARC
  5
15A45
  8
0
 10
3468.9090227137699003
 20
165.8941615454691885
 30
0.0
 40
0.0078740158487598
 50
357.614057554484873
 51
89.9999991251477951
  0
ARC
  5
15A46
  8
0
 10
3468.8392946179319551
 20
164.5043977661179042
 30
0.0
 40
0.0196850393999978
 50
270.0
 51
357.6140560072021799
  0
LINE
  5
15A47
  8
0
 10
3468.8392946179319551
 20
164.4847127267179019
 30
0.0
 11
3468.0896458334318595
 21
164.4847127267179019
 31
0.0
  0
LINE
  5
15A48
  8
0
 10
3468.0699778602897823
 20
164.5035782672179039
 30
0.0
 11
3468.0120505479321764
 21
165.893833746117906
 31
0.0
  0
ARC
  5
15A49
  8
0
 10
3468.0896458334318595
 20
164.5043977661179042
 30
0.0
 40
0.0196850393999978
 50
182.3859439927977917
 51
270.0
  0
ARC
  5
15A4A
  8
0
 10
3468.0199177375939144
 20
165.8941615454691885
 30
0.0
 40
0.0078740158487598
 50
90.0000008748522191
 51
182.3859424455150986
  0
LINE
  5
15A4B
  8
0
 10
3468.2531111164280446
 20
201.5550583488040104
 30
0.0
 11
3465.6424502398572258
 21
205.1483437176698885
 31
0.0
  0
LINE
  5
15A4C
  8
0
 10
3465.6601276598771619
 20
205.1240127081206879
 30
0.0
 11
3465.6538069112589255
 21
205.1193690075839982
 31
0.0
  0
ARC
  5
15A4D
  8
0
 10
3465.6608004468339459
 20
205.1098497933355134
 30
0.0
 40
0.0118120692403003
 50
126.303821436238195
 51
200.2936818069885021
  0
LINE
  5
15A4E
  8
0
 10
3465.6497215859631069
 20
205.10575298707451
 30
0.0
 11
3465.7525946729651878
 21
204.8389719157464981
 31
0.0
  0
LINE
  5
15A4F
  8
0
 10
3465.7296347613842045
 20
204.8985106016029079
 30
0.0
 11
3465.6892861272258415
 21
204.8595461333291894
 31
0.0
  0
ARC
  5
15A50
  8
0
 10
3465.7056962990418469
 20
204.8425530098911054
 30
0.0
 40
0.0236232932339083
 50
134.000180160930114
 51
215.9656882325000993
  0
LINE
  5
15A51
  8
0
 10
3465.686576341448017
 20
204.8286790340791015
 30
0.0
 11
3465.7749935239839942
 21
204.7068298393301973
 31
0.0
  0
ARC
  5
15A52
  8
0
 10
3465.7940829448411932
 20
204.7206816568316867
 30
0.0
 40
0.0235855641595388
 50
215.9656882324781861
 51
294.3549279491988955
  0
LINE
  5
15A53
  8
0
 10
3465.8038093462942015
 20
204.6991950109442087
 30
0.0
 11
3465.8238453315061633
 21
204.7081427440099901
 31
0.0
  0
ARC
  5
15A54
  8
0
 10
3465.8236943924662228
 20
204.7084726065959046
 30
0.0
 40
0.0003636475115623
 50
294.5833264334199271
 51
331.6718293737944805
  0
ARC
  5
15A55
  8
0
 10
3465.8037989725721673
 20
204.7083497074835066
 30
0.0
 40
0.0202155794830901
 50
359.8592535755527138
 51
18.5426841525782002
  0
ARC
  5
15A56
  8
0
 10
3465.0393903239028077
 20
204.4571824885370859
 30
0.0
 40
0.8248303634521391
 50
18.1980017550304289
 51
28.4362980386174584
  0
ARC
  5
15A57
  8
0
 10
3465.7643209531379398
 20
204.8495819653846013
 30
0.0
 40
0.0005310589661018
 50
44.0730261193277428
 51
135.2123459216321066
  0
LINE
  5
15A58
  8
0
 10
3465.7639440486141211
 20
204.8499560864939895
 30
0.0
 11
3465.7241833763519026
 21
204.8114681653003117
 31
0.0
  0
ARC
  5
15A59
  8
0
 10
3465.7407907879342019
 20
204.7944086390297969
 30
0.0
 40
0.0238082665483258
 50
134.2306188763614045
 51
212.0418772123775
  0
LINE
  5
15A5A
  8
0
 10
3468.2354333550888441
 20
201.5793898281413874
 30
0.0
 11
3468.1717393074168285
 21
201.5336210117633016
 31
0.0
  0
ARC
  5
15A5B
  8
0
 10
3465.6899968863858703
 20
199.7049061179961882
 30
0.0
 40
3.082733139120398
 50
33.6441355473708867
 51
36.3852882403687303
  0
ARC
  5
15A5C
  8
0
 10
3467.9016116000680086
 20
201.1600084104190103
 30
0.0
 40
0.43562409008121
 50
24.2539982701297916
 51
35.4782539984467391
  0
ARC
  5
15A5D
  8
0
 10
3468.0382980146068803
 20
201.2165280129551093
 30
0.0
 40
0.2878223036051024
 50
357.8877061311753778
 51
25.1732423498992084
  0
ARC
  5
15A5E
  8
0
 10
3468.2400146186541861
 20
201.2030843553015984
 30
0.0
 40
0.0859568930145334
 50
292.802675495888991
 51
1.890095441270828
  0
ARC
  5
15A5F
  8
0
 10
3468.116257591950216
 20
201.5625768184852973
 30
0.0
 40
0.4660003649674967
 50
271.4488189808978973
 51
289.6978907917961124
  0
ARC
  5
15A60
  8
0
 10
3468.139278053803082
 20
201.35873334671561
 30
0.0
 40
0.2622488210530172
 50
201.205332391373787
 51
267.5439572482487733
  0
ARC
  5
15A61
  8
0
 10
3468.4957671735578515
 20
201.4642925450598057
 30
0.0
 40
0.6335183480832867
 50
168.5098457310483866
 51
198.4427165505051107
  0
ARC
  5
15A62
  8
0
 10
3466.1030903084138117
 20
201.7845735793929123
 30
0.0
 40
1.782452954079222
 50
353.7488880219249268
 51
357.4216437514112954
  0
ARC
  5
15A63
  8
0
 10
3491.2080082027350727
 20
202.1024141746572127
 30
0.0
 40
23.3276653097213185
 50
180.7084722619073034
 51
180.9776494460379013
  0
LINE
  5
15A64
  8
0
 10
3465.865196890335028
 20
204.7077984809874067
 30
0.0
 11
3465.8266757180081186
 21
204.6702662050014112
 31
0.0
  0
ARC
  5
15A65
  8
0
 10
3465.8431650239431292
 20
204.6533424406192125
 30
0.0
 40
0.0236286057800747
 50
134.2550450346907098
 51
217.280013916328187
  0
LINE
  5
15A66
  8
0
 10
3465.8243641011208638
 20
204.6390303369248045
 30
0.0
 11
3465.8761747603980439
 21
204.5677189762847945
 31
0.0
  0
ARC
  5
15A67
  8
0
 10
3465.8967868433360309
 20
204.5801415497057008
 30
0.0
 40
0.0240661233578888
 50
211.0766992422763906
 51
293.5976458344470075
  0
LINE
  5
15A68
  8
0
 10
3465.906420786407125
 20
204.5580878553579112
 30
0.0
 11
3465.9269260005971773
 21
204.5673229697736133
 31
0.0
  0
ARC
  5
15A69
  8
0
 10
3465.9222278848228598
 20
204.5788945107327947
 30
0.0
 40
0.012488909159518
 50
292.097450618792891
 51
296.7341051192377108
  0
ARC
  5
15A6A
  8
0
 10
3465.9271893286158956
 20
204.5688245976770077
 30
0.0
 40
0.0012673854712654
 50
301.2084974659903196
 51
333.4163547788853066
  0
ARC
  5
15A6B
  8
0
 10
3465.8807318824360664
 20
204.5702428295388984
 30
0.0
 40
0.0476322414240848
 50
357.6111237329503751
 51
20.4019325234535707
  0
ARC
  5
15A6C
  8
0
 10
3465.3813683710091027
 20
204.4093247914697997
 30
0.0
 40
0.5722401838258684
 50
18.0727485060874713
 51
29.6617129736600305
  0
ARC
  5
15A6D
  8
0
 10
3465.8204287194039352
 20
204.660680835174503
 30
0.0
 40
0.0663324005626309
 50
28.6790451796562493
 51
44.8485780425410709
  0
ARC
  5
15A6E
  8
0
 10
3465.8661327426029857
 20
204.7063321644199902
 30
0.0
 40
0.0017396652781199
 50
40.4487572925754293
 51
122.5164051746543947
  0
LINE
  5
15A6F
  8
0
 10
3465.9053090097040695
 20
204.5417006927283126
 30
0.0
 11
3465.8667878373757958
 21
204.5041684167422886
 31
0.0
  0
ARC
  5
15A70
  8
0
 10
3465.8832771433130802
 20
204.48724465236009
 30
0.0
 40
0.0236286057800747
 50
134.2550450346907098
 51
217.280013916328187
  0
LINE
  5
15A71
  8
0
 10
3465.8644762204908147
 20
204.4729325486655966
 30
0.0
 11
3465.9162868797670853
 21
204.4016211880257003
 31
0.0
  0
ARC
  5
15A72
  8
0
 10
3465.9368989627059818
 20
204.4140437614464929
 30
0.0
 40
0.0240661233578888
 50
211.0766992422763906
 51
293.5976458344470075
  0
LINE
  5
15A73
  8
0
 10
3465.9465329057761664
 20
204.3919900670987886
 30
0.0
 11
3465.9670381199662188
 21
204.4012251815144907
 31
0.0
  0
ARC
  5
15A74
  8
0
 10
3465.9623400041928107
 20
204.4127967224737006
 30
0.0
 40
0.012488909159518
 50
292.097450618792891
 51
296.7341051192377108
  0
ARC
  5
15A75
  8
0
 10
3465.9673014479849371
 20
204.4027268094179135
 30
0.0
 40
0.0012673854712654
 50
301.2084974659903196
 51
333.4163547788853066
  0
ARC
  5
15A76
  8
0
 10
3465.9208440018060173
 20
204.4041450412798042
 30
0.0
 40
0.0476322414240848
 50
357.6111237329503751
 51
20.4019325234535707
  0
ARC
  5
15A77
  8
0
 10
3465.4214804903767799
 20
204.2432270032107056
 30
0.0
 40
0.5722401838258684
 50
18.0727485060874713
 51
29.6617129736600305
  0
ARC
  5
15A78
  8
0
 10
3465.8605408387729767
 20
204.4945830469154089
 30
0.0
 40
0.0663324005626309
 50
28.6790451796562493
 51
44.8485780425410709
  0
ARC
  5
15A79
  8
0
 10
3465.9062448619711176
 20
204.5402343761608108
 30
0.0
 40
0.0017396652781199
 50
40.4487572925754293
 51
122.5164051746543947
  0
LINE
  5
15A7A
  8
0
 10
3466.0323502418168573
 20
204.4839180143275996
 30
0.0
 11
3465.9938290694890384
 21
204.4463857383416041
 31
0.0
  0
ARC
  5
15A7B
  8
0
 10
3466.010318375424049
 20
204.4294619739594054
 30
0.0
 40
0.0236286057800747
 50
134.2550450346907098
 51
217.280013916328187
  0
LINE
  5
15A7C
  8
0
 10
3465.9915174526031478
 20
204.4151498702649121
 30
0.0
 11
3466.0433281118789637
 21
204.3438385096249874
 31
0.0
  0
ARC
  5
15A7D
  8
0
 10
3466.0639401948178602
 20
204.3562610830458937
 30
0.0
 40
0.0240661233578888
 50
211.0766992422763906
 51
293.5976458344470075
  0
LINE
  5
15A7E
  8
0
 10
3466.0735741378889543
 20
204.3342073886981893
 30
0.0
 11
3466.0940793520799161
 21
204.3434425031138062
 31
0.0
  0
ARC
  5
15A7F
  8
0
 10
3466.0893812363051438
 20
204.3550140440729876
 30
0.0
 40
0.012488909159518
 50
292.097450618792891
 51
296.7341051192377108
  0
ARC
  5
15A80
  8
0
 10
3466.0943426800981797
 20
204.3449441310172858
 30
0.0
 40
0.0012673854712654
 50
301.2084974659903196
 51
333.4163547788853066
  0
ARC
  5
15A81
  8
0
 10
3466.0478852339178957
 20
204.3463623628790913
 30
0.0
 40
0.0476322414240848
 50
357.6111237329503751
 51
20.4019325234535707
  0
ARC
  5
15A82
  8
0
 10
3465.5485217224900225
 20
204.1854443248099926
 30
0.0
 40
0.5722401838258684
 50
18.0727485060874713
 51
29.6617129736600305
  0
ARC
  5
15A83
  8
0
 10
3465.9875820708862193
 20
204.4368003685146959
 30
0.0
 40
0.0663324005626309
 50
28.6790451796562493
 51
44.8485780425410709
  0
ARC
  5
15A84
  8
0
 10
3466.033286094082996
 20
204.4824516977600979
 30
0.0
 40
0.0017396652781199
 50
40.4487572925754293
 51
122.5164051746543947
  0
LINE
  5
15A85
  8
0
 10
3466.0104658718541941
 20
204.3772964058073001
 30
0.0
 11
3465.9719446995259204
 21
204.3397641298213046
 31
0.0
  0
ARC
  5
15A86
  8
0
 10
3465.9884340054618406
 20
204.3228403654389922
 30
0.0
 40
0.0236286057800747
 50
134.2550450346907098
 51
217.280013916328187
  0
LINE
  5
15A87
  8
0
 10
3465.9696330826400299
 20
204.3085282617446126
 30
0.0
 11
3466.02144374191721
 21
204.2372169011046878
 31
0.0
  0
ARC
  5
15A88
  8
0
 10
3466.0420558248561065
 20
204.2496394745255941
 30
0.0
 40
0.0240661233578888
 50
211.0766992422763906
 51
293.5976458344470075
  0
LINE
  5
15A89
  8
0
 10
3466.0516897679258363
 20
204.2275857801778898
 30
0.0
 11
3466.0721949821167982
 21
204.2368208945935066
 31
0.0
  0
ARC
  5
15A8A
  8
0
 10
3466.0674968663429354
 20
204.2483924355528018
 30
0.0
 40
0.012488909159518
 50
292.097450618792891
 51
296.7341051192377108
  0
ARC
  5
15A8B
  8
0
 10
3466.0724583101350618
 20
204.238322522496901
 30
0.0
 40
0.0012673854712654
 50
301.2084974659903196
 51
333.4163547788853066
  0
ARC
  5
15A8C
  8
0
 10
3466.0260008639547777
 20
204.2397407543587917
 30
0.0
 40
0.0476322414240848
 50
357.6111237329503751
 51
20.4019325234535707
  0
ARC
  5
15A8D
  8
0
 10
3465.5266373525269046
 20
204.0788227162896078
 30
0.0
 40
0.5722401838258684
 50
18.0727485060874713
 51
29.6617129736600305
  0
ARC
  5
15A8E
  8
0
 10
3465.9656977009231014
 20
204.3301787599943964
 30
0.0
 40
0.0663324005626309
 50
28.6790451796562493
 51
44.8485780425410709
  0
ARC
  5
15A8F
  8
0
 10
3466.0114017241207875
 20
204.3758300892397983
 30
0.0
 40
0.0017396652781199
 50
40.4487572925754293
 51
122.5164051746543947
  0
LINE
  5
15A90
  8
0
 10
3466.0549872641668117
 20
204.2290709026829063
 30
0.0
 11
3466.0254163075428551
 21
204.2002590769230892
 31
0.0
  0
ARC
  5
15A91
  8
0
 10
3466.0419056134787752
 20
204.1833353125408905
 30
0.0
 40
0.0236286057800747
 50
134.2550450346907098
 51
217.280013916328187
  0
LINE
  5
15A92
  8
0
 10
3466.0231046906569645
 20
204.1690232088465109
 30
0.0
 11
3466.0749153499327804
 21
204.0977118482065862
 31
0.0
  0
ARC
  5
15A93
  8
0
 10
3466.0955274328721316
 20
204.1101344216274072
 30
0.0
 40
0.0240661233578888
 50
211.0766992422763906
 51
293.5976458344470075
  0
LINE
  5
15A94
  8
0
 10
3466.1051613759432257
 20
204.0880807272797028
 30
0.0
 11
3466.1256665901328233
 21
204.097315841695405
 31
0.0
  0
ARC
  5
15A95
  8
0
 10
3466.1209684743589605
 20
204.1088873826545864
 30
0.0
 40
0.012488909159518
 50
292.097450618792891
 51
296.7341051192377108
  0
ARC
  5
15A96
  8
0
 10
3466.1259299181519964
 20
204.0988174695987993
 30
0.0
 40
0.0012673854712654
 50
301.2084974659903196
 51
333.4163547788853066
  0
ARC
  5
15A97
  8
0
 10
3466.0794724719708029
 20
204.1002357014606048
 30
0.0
 40
0.0476322414240848
 50
357.6111237329503751
 51
20.4019325234535707
  0
ARC
  5
15A98
  8
0
 10
3465.5801089605438392
 20
203.9393176633915061
 30
0.0
 40
0.5722401838258684
 50
18.0727485060874713
 51
29.6617129736600305
  0
ARC
  5
15A99
  8
0
 10
3466.0191693089391265
 20
204.1906737070962095
 30
0.0
 40
0.0663324005626309
 50
28.6790451796562493
 51
42.0676109807056307
  0
LINE
  5
15A9A
  8
0
 10
3466.2438046635411411
 20
204.1857210145824979
 30
0.0
 11
3466.2052834912128674
 21
204.1481887385965024
 31
0.0
  0
ARC
  5
15A9B
  8
0
 10
3466.2217727971487875
 20
204.1312649742143037
 30
0.0
 40
0.0236286057800747
 50
134.2550450346907098
 51
217.280013916328187
  0
LINE
  5
15A9C
  8
0
 10
3466.2029718743269768
 20
204.1169528705198957
 30
0.0
 11
3466.2547825336027927
 21
204.0456415098799994
 31
0.0
  0
ARC
  5
15A9D
  8
0
 10
3466.2753946165421439
 20
204.0580640833007919
 30
0.0
 40
0.0240661233578888
 50
211.0766992422763906
 51
293.5976458344470075
  0
LINE
  5
15A9E
  8
0
 10
3466.2850285596127833
 20
204.0360103889530023
 30
0.0
 11
3466.3055337738028356
 21
204.0452455033687045
 31
0.0
  0
ARC
  5
15A9F
  8
0
 10
3466.3008356580289728
 20
204.0568170443279996
 30
0.0
 40
0.012488909159518
 50
292.097450618792891
 51
296.7341051192377108
  0
ARC
  5
15AA0
  8
0
 10
3466.3057971018220087
 20
204.0467471312722125
 30
0.0
 40
0.0012673854712654
 50
301.2084974659903196
 51
333.4163547788853066
  0
ARC
  5
15AA1
  8
0
 10
3466.2593396556421794
 20
204.0481653631339896
 30
0.0
 40
0.0476322414240848
 50
357.6111237329503751
 51
20.4019325234535707
  0
ARC
  5
15AA2
  8
0
 10
3465.7599761442152158
 20
203.8872473250648909
 30
0.0
 40
0.5722401838258684
 50
18.0727485060874713
 51
29.6617129736600305
  0
ARC
  5
15AA3
  8
0
 10
3466.1990364926100483
 20
204.1386033687695942
 30
0.0
 40
0.0663324005626309
 50
28.6790451796562493
 51
44.8485780425410709
  0
ARC
  5
15AA4
  8
0
 10
3466.2447405158081892
 20
204.1842546980149962
 30
0.0
 40
0.0017396652781199
 50
40.4487572925754293
 51
122.5164051746543947
  0
LINE
  5
15AA5
  8
0
 10
3466.1913095920181149
 20
204.0668741976105878
 30
0.0
 11
3466.1527884196912055
 21
204.0293419216245923
 31
0.0
  0
ARC
  5
15AA6
  8
0
 10
3466.1692777256262161
 20
204.0124181572423083
 30
0.0
 40
0.0236286057800747
 50
134.2550450346907098
 51
217.280013916328187
  0
LINE
  5
15AA7
  8
0
 10
3466.1504768028039507
 20
203.9981060535479003
 30
0.0
 11
3466.2022874620802213
 21
203.926794692908004
 31
0.0
  0
ARC
  5
15AA8
  8
0
 10
3466.2228995450191178
 20
203.9392172663287965
 30
0.0
 40
0.0240661233578888
 50
211.0766992422763906
 51
293.5976458344470075
  0
LINE
  5
15AA9
  8
0
 10
3466.2325334880902119
 20
203.9171635719810922
 30
0.0
 11
3466.2530387022798095
 21
203.9263986863967943
 31
0.0
  0
ARC
  5
15AAA
  8
0
 10
3466.2483405865068562
 20
203.9379702273560042
 30
0.0
 40
0.012488909159518
 50
292.097450618792891
 51
296.7341051192377108
  0
ARC
  5
15AAB
  8
0
 10
3466.2533020302989826
 20
203.9279003143001887
 30
0.0
 40
0.0012673854712654
 50
301.2084974659903196
 51
333.4163547788853066
  0
ARC
  5
15AAC
  8
0
 10
3466.2068445841191533
 20
203.9293185461621079
 30
0.0
 40
0.0476322414240848
 50
357.6111237329503751
 51
20.4019325234535707
  0
ARC
  5
15AAD
  8
0
 10
3465.7074810726908254
 20
203.7684005080928955
 30
0.0
 40
0.5722401838258684
 50
18.0727485060874713
 51
29.6617129736600305
  0
ARC
  5
15AAE
  8
0
 10
3466.1465414210870222
 20
204.0197565517977125
 30
0.0
 40
0.0663324005626309
 50
28.6790451796562493
 51
44.8485780425410709
  0
ARC
  5
15AAF
  8
0
 10
3466.1922454442851631
 20
204.065407881043086
 30
0.0
 40
0.0017396652781199
 50
40.4487572925754293
 51
122.5164051746543947
  0
LINE
  5
15AB0
  8
0
 10
3466.4978112813919324
 20
203.8367599237801073
 30
0.0
 11
3466.4592901090641135
 21
203.7992276477939981
 31
0.0
  0
ARC
  5
15AB1
  8
0
 10
3466.4757794150000336
 20
203.7823038834117995
 30
0.0
 40
0.0236286057800747
 50
134.2550450346907098
 51
217.280013916328187
  0
LINE
  5
15AB2
  8
0
 10
3466.456978492178223
 20
203.7679917797173914
 30
0.0
 11
3466.5087891514540388
 21
203.6966804190774099
 31
0.0
  0
ARC
  5
15AB3
  8
0
 10
3466.5294012343929353
 20
203.7091029924982877
 30
0.0
 40
0.0240661233578888
 50
211.0766992422763906
 51
293.5976458344470075
  0
LINE
  5
15AB4
  8
0
 10
3466.5390351774640294
 20
203.6870492981506118
 30
0.0
 11
3466.5595403916549913
 21
203.6962844125662002
 31
0.0
  0
ARC
  5
15AB5
  8
0
 10
3466.5548422758811284
 20
203.7078559535254954
 30
0.0
 40
0.012488909159518
 50
292.097450618792891
 51
296.7341051192377108
  0
ARC
  5
15AB6
  8
0
 10
3466.5598037196728001
 20
203.6977860404697083
 30
0.0
 40
0.0012673854712654
 50
301.2084974659903196
 51
333.4163547788853066
  0
ARC
  5
15AB7
  8
0
 10
3466.5133462734929708
 20
203.6992042723315137
 30
0.0
 40
0.0476322414240848
 50
357.6111237329503751
 51
20.4019325234535707
  0
ARC
  5
15AB8
  8
0
 10
3466.0139827620660071
 20
203.5382862342623866
 30
0.0
 40
0.5722401838258684
 50
18.0727485060874713
 51
29.6617129736600305
  0
ARC
  5
15AB9
  8
0
 10
3466.4530431104608397
 20
203.78964227796709
 30
0.0
 40
0.0663324005626309
 50
28.6790451796562493
 51
44.8485780425410709
  0
ARC
  5
15ABA
  8
0
 10
3466.4987471336589806
 20
203.8352936072126056
 30
0.0
 40
0.0017396652781199
 50
40.4487572925754293
 51
122.5164051746543947
  0
LINE
  5
15ABB
  8
0
 10
3466.3866302965639079
 20
203.8950498772867093
 30
0.0
 11
3466.348109124236089
 21
203.8575176013007137
 31
0.0
  0
ARC
  5
15ABC
  8
0
 10
3466.3645984301720091
 20
203.8405938369184867
 30
0.0
 40
0.0236286057800747
 50
134.2550450346907098
 51
217.280013916328187
  0
LINE
  5
15ABD
  8
0
 10
3466.3457975073511079
 20
203.826281733224107
 30
0.0
 11
3466.3976081666269238
 21
203.754970372584097
 31
0.0
  0
ARC
  5
15ABE
  8
0
 10
3466.4182202495649108
 20
203.7673929460050033
 30
0.0
 40
0.0240661233578888
 50
211.0766992422763906
 51
293.5976458344470075
  0
LINE
  5
15ABF
  8
0
 10
3466.4278541926360049
 20
203.745339251657299
 30
0.0
 11
3466.4483594068260572
 21
203.7545743660730011
 31
0.0
  0
ARC
  5
15AC0
  8
0
 10
3466.4436612910521944
 20
203.766145907032211
 30
0.0
 40
0.012488909159518
 50
292.097450618792891
 51
296.7341051192377108
  0
ARC
  5
15AC1
  8
0
 10
3466.4486227348447756
 20
203.7560759939763955
 30
0.0
 40
0.0012673854712654
 50
301.2084974659903196
 51
333.4163547788853066
  0
ARC
  5
15AC2
  8
0
 10
3466.4021652886649463
 20
203.7574942258382009
 30
0.0
 40
0.0476322414240848
 50
357.6111237329503751
 51
20.4019325234535707
  0
ARC
  5
15AC3
  8
0
 10
3465.9028017772370731
 20
203.5965761877691023
 30
0.0
 40
0.5722401838258684
 50
18.0727485060874713
 51
29.6617129736600305
  0
ARC
  5
15AC4
  8
0
 10
3466.3418621256328152
 20
203.8479322314738056
 30
0.0
 40
0.0663324005626309
 50
28.6790451796562493
 51
44.8485780425410709
  0
ARC
  5
15AC5
  8
0
 10
3466.3875661488309561
 20
203.8935835607192928
 30
0.0
 40
0.0017396652781199
 50
40.4487572925754293
 51
122.5164051746543947
  0
LINE
  5
15AC6
  8
0
 10
3466.7742035506189495
 20
203.4731673691082108
 30
0.0
 11
3466.7356823782911306
 21
203.4356350931221016
 31
0.0
  0
ARC
  5
15AC7
  8
0
 10
3466.7521716842270507
 20
203.4187113287399029
 30
0.0
 40
0.0236286057800747
 50
134.2550450346907098
 51
217.280013916328187
  0
LINE
  5
15AC8
  8
0
 10
3466.7333707614061495
 20
203.4043992250454949
 30
0.0
 11
3466.7851814206810559
 21
203.3330878644055986
 31
0.0
  0
ARC
  5
15AC9
  8
0
 10
3466.8057935036199524
 20
203.3455104378263911
 30
0.0
 40
0.0240661233578888
 50
211.0766992422763906
 51
293.5976458344470075
  0
LINE
  5
15ACA
  8
0
 10
3466.815427446691956
 20
203.3234567434786868
 30
0.0
 11
3466.8359326608810989
 21
203.3326918578943889
 31
0.0
  0
ARC
  5
15ACB
  8
0
 10
3466.8312345451081455
 20
203.3442633988535988
 30
0.0
 40
0.012488909159518
 50
292.097450618792891
 51
296.7341051192377108
  0
ARC
  5
15ACC
  8
0
 10
3466.8361959888998172
 20
203.3341934857978117
 30
0.0
 40
0.0012673854712654
 50
301.2084974659903196
 51
333.4163547788853066
  0
ARC
  5
15ACD
  8
0
 10
3466.7897385427208974
 20
203.3356117176597024
 30
0.0
 40
0.0476322414240848
 50
357.6111237329503751
 51
20.4019325234535707
  0
ARC
  5
15ACE
  8
0
 10
3466.2903750312921147
 20
203.1746936795904901
 30
0.0
 40
0.5722401838258684
 50
18.0727485060874713
 51
29.6617129736600305
  0
ARC
  5
15ACF
  8
0
 10
3466.7294353796878568
 20
203.4260497232951934
 30
0.0
 40
0.0663324005626309
 50
28.6790451796562493
 51
44.8485780425410709
  0
ARC
  5
15AD0
  8
0
 10
3466.7751394028859977
 20
203.471701052540709
 30
0.0
 40
0.0017396652781199
 50
40.4487572925754293
 51
122.5164051746543947
  0
LINE
  5
15AD1
  8
0
 10
3466.6164595176360308
 20
203.5800889555683
 30
0.0
 11
3466.5779383453091214
 21
203.5425566795821908
 31
0.0
  0
ARC
  5
15AD2
  8
0
 10
3466.5944276512450415
 20
203.5256329151999921
 30
0.0
 40
0.0236286057800747
 50
134.2550450346907098
 51
217.280013916328187
  0
LINE
  5
15AD3
  8
0
 10
3466.5756267284227761
 20
203.5113208115056125
 30
0.0
 11
3466.6274373876990467
 21
203.4400094508656878
 31
0.0
  0
ARC
  5
15AD4
  8
0
 10
3466.6480494706379432
 20
203.4524320242865087
 30
0.0
 40
0.0240661233578888
 50
211.0766992422763906
 51
293.5976458344470075
  0
LINE
  5
15AD5
  8
0
 10
3466.6576834137090373
 20
203.4303783299388044
 30
0.0
 11
3466.6781886278990896
 21
203.4396134443543929
 31
0.0
  0
ARC
  5
15AD6
  8
0
 10
3466.6734905121252268
 20
203.451184985313688
 30
0.0
 40
0.012488909159518
 50
292.097450618792891
 51
296.7341051192377108
  0
ARC
  5
15AD7
  8
0
 10
3466.6784519559168984
 20
203.4411150722579009
 30
0.0
 40
0.0012673854712654
 50
301.2084974659903196
 51
333.4163547788853066
  0
ARC
  5
15AD8
  8
0
 10
3466.6319945097379787
 20
203.4425333041197064
 30
0.0
 40
0.0476322414240848
 50
357.6111237329503751
 51
20.4019325234535707
  0
ARC
  5
15AD9
  8
0
 10
3466.1326309983101055
 20
203.2816152660506077
 30
0.0
 40
0.5722401838258684
 50
18.0727485060874713
 51
29.6617129736600305
  0
ARC
  5
15ADA
  8
0
 10
3466.5716913467058475
 20
203.532971309755311
 30
0.0
 40
0.0663324005626309
 50
28.6790451796562493
 51
44.8485780425410709
  0
ARC
  5
15ADB
  8
0
 10
3466.6173953699039885
 20
203.5786226390007982
 30
0.0
 40
0.0017396652781199
 50
40.4487572925754293
 51
122.5164051746543947
  0
LINE
  5
15ADC
  8
0
 10
3466.5274914727019677
 20
203.5788308230185919
 30
0.0
 11
3466.4889703003741488
 21
203.5412985470325964
 31
0.0
  0
ARC
  5
15ADD
  8
0
 10
3466.5054596063100689
 20
203.5243747826503125
 30
0.0
 40
0.0236286057800747
 50
134.2550450346907098
 51
217.280013916328187
  0
LINE
  5
15ADE
  8
0
 10
3466.4866586834878035
 20
203.5100626789559044
 30
0.0
 11
3466.5384693427640741
 21
203.4387513183160081
 31
0.0
  0
ARC
  5
15ADF
  8
0
 10
3466.5590814257029706
 20
203.4511738917368007
 30
0.0
 40
0.0240661233578888
 50
211.0766992422763906
 51
293.5976458344470075
  0
LINE
  5
15AE0
  8
0
 10
3466.5687153687740647
 20
203.4291201973890963
 30
0.0
 11
3466.5892205829641171
 21
203.4383553118047985
 31
0.0
  0
ARC
  5
15AE1
  8
0
 10
3466.5845224671897995
 20
203.4499268527640083
 30
0.0
 40
0.012488909159518
 50
292.097450618792891
 51
296.7341051192377108
  0
ARC
  5
15AE2
  8
0
 10
3466.5894839109828354
 20
203.4398569397081928
 30
0.0
 40
0.0012673854712654
 50
301.2084974659903196
 51
333.4163547788853066
  0
ARC
  5
15AE3
  8
0
 10
3466.5430264648020966
 20
203.441275171570112
 30
0.0
 40
0.0476322414240848
 50
357.6111237329503751
 51
20.4019325234535707
  0
ARC
  5
15AE4
  8
0
 10
3466.0436629533751329
 20
203.2803571335008996
 30
0.0
 40
0.5722401838258684
 50
18.0727485060874713
 51
29.6617129736600305
  0
ARC
  5
15AE5
  8
0
 10
3466.4827233017699655
 20
203.5317131772056882
 30
0.0
 40
0.0663324005626309
 50
28.6790451796562493
 51
44.8485780425410709
  0
ARC
  5
15AE6
  8
0
 10
3466.5284273249690159
 20
203.5773645064510902
 30
0.0
 40
0.0017396652781199
 50
40.4487572925754293
 51
122.5164051746543947
  0
LINE
  5
15AE7
  8
0
 10
3466.7365763479911038
 20
203.2888655102487974
 30
0.0
 11
3466.7091412431959725
 21
203.2623717376098966
 31
0.0
  0
ARC
  5
15AE8
  8
0
 10
3466.7266208797100262
 20
203.2442710440597011
 30
0.0
 40
0.0251629251010809
 50
133.9999998952027056
 51
212.9370879561718937
  0
LINE
  5
15AE9
  8
0
 10
3466.7055024396699991
 20
203.2305895130805027
 30
0.0
 11
3466.7576540776858565
 21
203.1588089413118041
 31
0.0
  0
ARC
  5
15AEA
  8
0
 10
3466.7768393222399936
 20
203.1725909446520006
 30
0.0
 40
0.0236220472000039
 50
216.0000000014453008
 51
290.0000000014588863
  0
ARC
  5
15AEB
  8
0
 10
3466.163365608301774
 20
204.3762648945011904
 30
0.0
 40
1.3744412561477499
 50
296.886351427874672
 51
298.3768476405177239
  0
ARC
  5
15AEC
  8
0
 10
3466.7382526486121606
 20
203.2869225292022008
 30
0.0
 40
0.0025650286230612
 50
81.2972627900207243
 51
130.7928711029198041
  0
ARC
  5
15AED
  8
0
 10
3466.6657948237361779
 20
203.1716124970344879
 30
0.0
 40
0.1385427688276366
 50
34.777658715798232
 51
58.2778142910056971
  0
ARC
  5
15AEE
  8
0
 10
3466.4559289390640515
 20
202.99454422404159
 30
0.0
 40
0.4127222122109688
 50
31.3330306936071494
 51
38.3523044312708024
  0
LINE
  5
15AEF
  8
0
 10
3466.8363544544918113
 20
203.237209860903306
 30
0.0
 11
3466.8096823982918977
 21
203.2104176517918006
 31
0.0
  0
ARC
  5
15AF0
  8
0
 10
3466.826480908980102
 20
203.1936944760624044
 30
0.0
 40
0.0237034716405323
 50
135.1287634477830011
 51
215.762906469076313
  0
LINE
  5
15AF1
  8
0
 10
3466.8072469081757845
 20
203.1798413976721918
 30
0.0
 11
3466.8597898005459683
 21
203.1068893789486935
 31
0.0
  0
ARC
  5
15AF2
  8
0
 10
3466.8787693647627748
 20
203.1205592021742916
 30
0.0
 40
0.0233899107499436
 50
215.7629064690736982
 51
298.511137568530728
  0
LINE
  5
15AF3
  8
0
 10
3466.8899340610860236
 20
203.1000059182298116
 30
0.0
 11
3466.9251841364230131
 21
203.1179433808914894
 31
0.0
  0
ARC
  5
15AF4
  8
0
 10
3466.9225697603478693
 20
203.122038806110794
 30
0.0
 40
0.0048587518965045
 50
302.5527357096124774
 51
7.5096575648615902
  0
ARC
  5
15AF5
  8
0
 10
3466.7839717395581829
 20
203.0854652034909975
 30
0.0
 40
0.1481633255455278
 50
14.5445308669599296
 51
37.6279552066262966
  0
ARC
  5
15AF6
  8
0
 10
3466.6721994272611482
 20
203.0231113909950977
 30
0.0
 40
0.2754013876353667
 50
33.7018225103237867
 51
49.2153859656786707
  0
ARC
  5
15AF7
  8
0
 10
3466.8325267251830155
 20
203.2089798867179979
 30
0.0
 40
0.0299386870670495
 50
49.1820530302891612
 51
77.4419816031631854
  0
ARC
  5
15AF8
  8
0
 10
3466.8389273595921622
 20
203.234377034274786
 30
0.0
 40
0.0038268456155674
 50
88.3696546662011428
 51
132.2471912368993969
  0
LINE
  5
15AF9
  8
0
 10
3467.0390675435342018
 20
203.0671679819924123
 30
0.0
 11
3467.0123954873351977
 21
203.0403757728809069
 31
0.0
  0
ARC
  5
15AFA
  8
0
 10
3467.0291939980229472
 20
203.023652597151596
 30
0.0
 40
0.0237034716405323
 50
135.1287634477830011
 51
215.762906469076313
  0
LINE
  5
15AFB
  8
0
 10
3467.0099599972190845
 20
203.0097995187614117
 30
0.0
 11
3467.0625028895888136
 21
202.9368475000377998
 31
0.0
  0
ARC
  5
15AFC
  8
0
 10
3467.0814824538060748
 20
202.9505173232633979
 30
0.0
 40
0.0233899107499436
 50
215.7629064690736982
 51
298.511137568530728
  0
LINE
  5
15AFD
  8
0
 10
3467.0926471501288688
 20
202.9299640393188895
 30
0.0
 11
3467.1278972254649489
 21
202.9479015019805956
 31
0.0
  0
ARC
  5
15AFE
  8
0
 10
3467.1252828493898051
 20
202.9519969272000139
 30
0.0
 40
0.0048587518965045
 50
302.5527357096124774
 51
7.5096575648615902
  0
ARC
  5
15AFF
  8
0
 10
3466.9866848286010281
 20
202.9154233245801038
 30
0.0
 40
0.1481633255455278
 50
14.5445308669599296
 51
37.6279552066262966
  0
ARC
  5
15B00
  8
0
 10
3466.874912516304903
 20
202.8530695120842893
 30
0.0
 40
0.2754013876353667
 50
33.7018225103237867
 51
49.2153859656786707
  0
ARC
  5
15B01
  8
0
 10
3467.0352398142258608
 20
203.0389380078071895
 30
0.0
 40
0.0299386870670495
 50
49.1820530302891612
 51
77.4419816031631854
  0
ARC
  5
15B02
  8
0
 10
3467.0416404486350075
 20
203.0643351553638922
 30
0.0
 40
0.0038268456155674
 50
88.3696546662011428
 51
132.2471912368993969
  0
LINE
  5
15B03
  8
0
 10
3466.9350754684310232
 20
203.0074788213900092
 30
0.0
 11
3466.908403412232019
 21
202.9806866122785038
 31
0.0
  0
ARC
  5
15B04
  8
0
 10
3466.9252019229188591
 20
202.9639634365491929
 30
0.0
 40
0.0237034716405323
 50
135.1287634477830011
 51
215.762906469076313
  0
LINE
  5
15B05
  8
0
 10
3466.9059679221149963
 20
202.9501103581590087
 30
0.0
 11
3466.9585108144860897
 21
202.8771583394353968
 31
0.0
  0
ARC
  5
15B06
  8
0
 10
3466.9774903787028961
 20
202.8908281626609948
 30
0.0
 40
0.0233899107499436
 50
215.7629064690736982
 51
298.511137568530728
  0
LINE
  5
15B07
  8
0
 10
3466.9886550750261449
 20
202.8702748787164865
 30
0.0
 11
3467.023905150362225
 21
202.8882123413783063
 31
0.0
  0
ARC
  5
15B08
  8
0
 10
3467.0212907742870811
 20
202.8923077665976109
 30
0.0
 40
0.0048587518965045
 50
302.5527357096124774
 51
7.5096575648615902
  0
ARC
  5
15B09
  8
0
 10
3466.88269275349694
 20
202.8557341639777007
 30
0.0
 40
0.1481633255455278
 50
14.5445308669599296
 51
37.6279552066262966
  0
ARC
  5
15B0A
  8
0
 10
3466.7709204412008148
 20
202.7933803514818862
 30
0.0
 40
0.2754013876353667
 50
33.7018225103237867
 51
49.2153859656786707
  0
ARC
  5
15B0B
  8
0
 10
3466.9312477391222274
 20
202.9792488472047864
 30
0.0
 40
0.0299386870670495
 50
49.1820530302891612
 51
77.4419816031631854
  0
ARC
  5
15B0C
  8
0
 10
3466.9376483735318288
 20
203.0046459947614892
 30
0.0
 40
0.0038268456155674
 50
88.3696546662011428
 51
132.2471912368993969
  0
LINE
  5
15B0D
  8
0
 10
3467.0708227796890242
 20
202.9127400476241121
 30
0.0
 11
3467.04415072349002
 21
202.885947838512692
 31
0.0
  0
ARC
  5
15B0E
  8
0
 10
3467.06094923417686
 20
202.8692246627832958
 30
0.0
 40
0.0237034716405323
 50
135.1287634477830011
 51
215.762906469076313
  0
LINE
  5
15B0F
  8
0
 10
3467.0417152333729973
 20
202.8553715843931116
 30
0.0
 11
3467.0942581257440906
 21
202.7824195656696133
 31
0.0
  0
ARC
  5
15B10
  8
0
 10
3467.1132376899608971
 20
202.7960893888950977
 30
0.0
 40
0.0233899107499436
 50
215.7629064690736982
 51
298.511137568530728
  0
LINE
  5
15B11
  8
0
 10
3467.1244023862841459
 20
202.775536104950703
 30
0.0
 11
3467.1596524616211354
 21
202.7934735676124092
 31
0.0
  0
ARC
  5
15B12
  8
0
 10
3467.1570380855450821
 20
202.7975689928317138
 30
0.0
 40
0.0048587518965045
 50
302.5527357096124774
 51
7.5096575648615902
  0
ARC
  5
15B13
  8
0
 10
3467.0184400647558505
 20
202.7609953902118036
 30
0.0
 40
0.1481633255455278
 50
14.5445308669599296
 51
37.6279552066262966
  0
ARC
  5
15B14
  8
0
 10
3466.9066677524601801
 20
202.6986415777159891
 30
0.0
 40
0.2754013876353667
 50
33.7018225103237867
 51
49.2153859656786707
  0
ARC
  5
15B15
  8
0
 10
3467.0669950503811378
 20
202.8845100734388893
 30
0.0
 40
0.0299386870670495
 50
49.1820530302891612
 51
77.4419816031631854
  0
ARC
  5
15B16
  8
0
 10
3467.0733956847911941
 20
202.9099072209955921
 30
0.0
 40
0.0038268456155674
 50
88.3696546662011428
 51
132.2471912368993969
  0
LINE
  5
15B17
  8
0
 10
3467.2941582217868017
 20
202.7105409352676872
 30
0.0
 11
3467.2674861655868881
 21
202.6837487261562103
 31
0.0
  0
ARC
  5
15B18
  8
0
 10
3467.2842846762760018
 20
202.6670255504268994
 30
0.0
 40
0.0237034716405323
 50
135.1287634477830011
 51
215.762906469076313
  0
LINE
  5
15B19
  8
0
 10
3467.2650506754721391
 20
202.6531724720366867
 30
0.0
 11
3467.2993251058687747
 21
202.6055848959580032
 31
0.0
  0
ARC
  5
15B1A
  8
0
 10
3467.3365731320600389
 20
202.5938902765387013
 30
0.0
 40
0.0233899107499436
 50
257.137022018784819
 51
298.511137568530728
  0
LINE
  5
15B1B
  8
0
 10
3467.347737828382833
 20
202.5733369925941929
 30
0.0
 11
3467.382987903718913
 21
202.5912744552560127
 31
0.0
  0
ARC
  5
15B1C
  8
0
 10
3467.3803735276428597
 20
202.5953698804752889
 30
0.0
 40
0.0048587518965045
 50
302.5527357096124774
 51
7.5096575648615902
  0
ARC
  5
15B1D
  8
0
 10
3467.2417755068549923
 20
202.5587962778554072
 30
0.0
 40
0.1481633255455278
 50
14.5445308669599296
 51
37.6279552066262966
  0
ARC
  5
15B1E
  8
0
 10
3467.1300031945579576
 20
202.4964424653595927
 30
0.0
 40
0.2754013876353667
 50
33.7018225103237867
 51
49.2153859656786707
  0
ARC
  5
15B1F
  8
0
 10
3467.2903304924789154
 20
202.6823109610824929
 30
0.0
 40
0.0299386870670495
 50
49.1820530302891612
 51
77.4419816031631854
  0
ARC
  5
15B20
  8
0
 10
3467.2967311268880621
 20
202.7077081086391956
 30
0.0
 40
0.0038268456155674
 50
88.3696546662011428
 51
132.2471912368993969
  0
LINE
  5
15B21
  8
0
 10
3467.2784487121248276
 20
202.6156997940661881
 30
0.0
 11
3467.2517766559249139
 21
202.5889075849547112
 31
0.0
  0
ARC
  5
15B22
  8
0
 10
3467.2685751666140277
 20
202.5721844092254003
 30
0.0
 40
0.0237034716405323
 50
135.1287634477830011
 51
215.762906469076313
  0
LINE
  5
15B23
  8
0
 10
3467.249341165810165
 20
202.5583313308351876
 30
0.0
 11
3467.3018840581798941
 21
202.4853793121116894
 31
0.0
  0
ARC
  5
15B24
  8
0
 10
3467.3208636223971553
 20
202.4990491353372022
 30
0.0
 40
0.0233899107499436
 50
215.7629064690736982
 51
298.511137568530728
  0
LINE
  5
15B25
  8
0
 10
3467.3320283187208588
 20
202.4784958513926938
 30
0.0
 11
3467.3672783940569389
 21
202.4964333140545136
 31
0.0
  0
ARC
  5
15B26
  8
0
 10
3467.3646640179808855
 20
202.5005287392737898
 30
0.0
 40
0.0048587518965045
 50
302.5527357096124774
 51
7.5096575648615902
  0
ARC
  5
15B27
  8
0
 10
3467.2260659971921086
 20
202.4639551366539081
 30
0.0
 40
0.1481633255455278
 50
14.5445308669599296
 51
37.6279552066262966
  0
ARC
  5
15B28
  8
0
 10
3467.1142936848959835
 20
202.4016013241580936
 30
0.0
 40
0.2754013876353667
 50
33.7018225103237867
 51
49.2153859656786707
  0
ARC
  5
15B29
  8
0
 10
3467.2746209828169413
 20
202.5874698198809938
 30
0.0
 40
0.0299386870670495
 50
49.1820530302891612
 51
77.4419816031631854
  0
ARC
  5
15B2A
  8
0
 10
3467.2810216172269975
 20
202.6128669674376965
 30
0.0
 40
0.0038268456155674
 50
88.3696546662011428
 51
132.2471912368993969
  0
LINE
  5
15B2B
  8
0
 10
3467.5326710163922144
 20
202.3792414193715103
 30
0.0
 11
3467.505998960191846
 21
202.352449210260005
 31
0.0
  0
ARC
  5
15B2C
  8
0
 10
3467.5227974708809597
 20
202.3357260345306941
 30
0.0
 40
0.0237034716405323
 50
135.1287634477830011
 51
215.762906469076313
  0
LINE
  5
15B2D
  8
0
 10
3467.503563470077097
 20
202.3218729561405098
 30
0.0
 11
3467.5561063624459166
 21
202.2489209374170116
 31
0.0
  0
ARC
  5
15B2E
  8
0
 10
3467.5750859266640873
 20
202.262590760642496
 30
0.0
 40
0.0233899107499436
 50
215.7629064690736982
 51
298.511137568530728
  0
LINE
  5
15B2F
  8
0
 10
3467.5862506229868814
 20
202.2420374766979876
 30
0.0
 11
3467.6215006983229614
 21
202.2599749393598074
 31
0.0
  0
ARC
  5
15B30
  8
0
 10
3467.6188863222469081
 20
202.264070364579112
 30
0.0
 40
0.0048587518965045
 50
302.5527357096124774
 51
7.5096575648615902
  0
ARC
  5
15B31
  8
0
 10
3467.4802883014590407
 20
202.2274967619592019
 30
0.0
 40
0.1481633255455278
 50
14.5445308669599296
 51
37.6279552066262966
  0
ARC
  5
15B32
  8
0
 10
3467.3685159891629155
 20
202.1651429494633874
 30
0.0
 40
0.2754013876353667
 50
33.7018225103237867
 51
49.2153859656786707
  0
ARC
  5
15B33
  8
0
 10
3467.5288432870838733
 20
202.3510114451862876
 30
0.0
 40
0.0299386870670495
 50
49.1820530302891612
 51
77.4419816031631854
  0
ARC
  5
15B34
  8
0
 10
3467.53524392149302
 20
202.3764085927429903
 30
0.0
 40
0.0038268456155674
 50
88.3696546662011428
 51
132.2471912368993969
  0
LINE
  5
15B35
  8
0
 10
3467.4598113881361314
 20
202.3537601023633954
 30
0.0
 11
3467.4331393319362178
 21
202.32696789325189
 31
0.0
  0
ARC
  5
15B36
  8
0
 10
3467.4499378426230578
 20
202.3102447175226075
 30
0.0
 40
0.0237034716405323
 50
135.1287634477830011
 51
215.762906469076313
  0
LINE
  5
15B37
  8
0
 10
3467.4307038418201046
 20
202.2963916391323949
 30
0.0
 11
3467.4832467341898337
 21
202.2234396204088966
 31
0.0
  0
ARC
  5
15B38
  8
0
 10
3467.5022262984080044
 20
202.2371094436344094
 30
0.0
 40
0.0233899107499436
 50
215.7629064690736982
 51
298.511137568530728
  0
LINE
  5
15B39
  8
0
 10
3467.5133909947307984
 20
202.2165561596899011
 30
0.0
 11
3467.5486410700668785
 21
202.2344936223516925
 31
0.0
  0
ARC
  5
15B3A
  8
0
 10
3467.5460266939908252
 20
202.2385890475709971
 30
0.0
 40
0.0048587518965045
 50
302.5527357096124774
 51
7.5096575648615902
  0
ARC
  5
15B3B
  8
0
 10
3467.4074286732020482
 20
202.2020154449510869
 30
0.0
 40
0.1481633255455278
 50
14.5445308669599296
 51
37.6279552066262966
  0
ARC
  5
15B3C
  8
0
 10
3467.2956563609059231
 20
202.1396616324553008
 30
0.0
 40
0.2754013876353667
 50
37.9820443603428828
 51
49.2153859656786707
  0
ARC
  5
15B3D
  8
0
 10
3467.4559836588268809
 20
202.325530128178201
 30
0.0
 40
0.0299386870670495
 50
49.1820530302891612
 51
77.4419816031631854
  0
ARC
  5
15B3E
  8
0
 10
3467.4623842932369371
 20
202.3509272757349038
 30
0.0
 40
0.0038268456155674
 50
88.3696546662011428
 51
132.2471912368993969
  0
LINE
  5
15B3F
  8
0
 10
3467.5215796579641392
 20
202.1971957758003953
 30
0.0
 11
3467.4949076017642255
 21
202.1704035666888899
 31
0.0
  0
ARC
  5
15B40
  8
0
 10
3467.5117061124519751
 20
202.1536803909596074
 30
0.0
 40
0.0237034716405323
 50
135.1287634477830011
 51
215.762906469076313
  0
LINE
  5
15B41
  8
0
 10
3467.4924721116490218
 20
202.1398273125693947
 30
0.0
 11
3467.5450150040192057
 21
202.0668752938458113
 31
0.0
  0
ARC
  5
15B42
  8
0
 10
3467.5639945682360121
 20
202.0805451170714093
 30
0.0
 40
0.0233899107499436
 50
215.7629064690736982
 51
298.511137568530728
  0
LINE
  5
15B43
  8
0
 10
3467.5751592645601704
 20
202.0599918331269009
 30
0.0
 11
3467.6104093398957957
 21
202.0779292957886071
 31
0.0
  0
ARC
  5
15B44
  8
0
 10
3467.6077949638201972
 20
202.082024721007997
 30
0.0
 40
0.0048587518965045
 50
302.5527357096124774
 51
7.5096575648615902
  0
ARC
  5
15B45
  8
0
 10
3467.469196943031875
 20
202.0454511183880868
 30
0.0
 40
0.1481633255455278
 50
14.5445308669599296
 51
37.6279552066262966
  0
ARC
  5
15B46
  8
0
 10
3467.3574246307348403
 20
201.9830973058923007
 30
0.0
 40
0.2754013876353667
 50
33.7018225103237867
 51
49.2153859656786707
  0
ARC
  5
15B47
  8
0
 10
3467.5177519286557981
 20
202.1689658016152009
 30
0.0
 40
0.0299386870670495
 50
49.1820530302891612
 51
77.4419816031631854
  0
ARC
  5
15B48
  8
0
 10
3467.5241525630649448
 20
202.1943629491719037
 30
0.0
 40
0.0038268456155674
 50
88.3696546662011428
 51
132.2471912368993969
  0
LINE
  5
15B49
  8
0
 10
3467.7237497204600913
 20
202.1115128894018085
 30
0.0
 11
3467.6970776642610872
 21
202.0847206802903031
 31
0.0
  0
ARC
  5
15B4A
  8
0
 10
3467.7138761749479272
 20
202.0679975045609069
 30
0.0
 40
0.0237034716405323
 50
135.1287634477830011
 51
215.762906469076313
  0
LINE
  5
15B4B
  8
0
 10
3467.6946421741440645
 20
202.0541444261706943
 30
0.0
 11
3467.7471850665151578
 21
201.981192407447196
 31
0.0
  0
ARC
  5
15B4C
  8
0
 10
3467.7661646307319643
 20
201.9948622306727088
 30
0.0
 40
0.0233899107499436
 50
215.7629064690736982
 51
298.511137568530728
  0
LINE
  5
15B4D
  8
0
 10
3467.7773293270561226
 20
201.9743089467282005
 30
0.0
 11
3467.8125794023908384
 21
201.9922464093899919
 31
0.0
  0
ARC
  5
15B4E
  8
0
 10
3467.8099650263161493
 20
201.9963418346092965
 30
0.0
 40
0.0048587518965045
 50
302.5527357096124774
 51
7.5096575648615902
  0
ARC
  5
15B4F
  8
0
 10
3467.6713670055269176
 20
201.9597682319893863
 30
0.0
 40
0.1481633255455278
 50
14.5445308669599296
 51
37.6279552066262966
  0
ARC
  5
15B50
  8
0
 10
3467.5595946932307925
 20
201.8974144194936002
 30
0.0
 40
0.2754013876353667
 50
33.7018225103237867
 51
49.2153859656786707
  0
ARC
  5
15B51
  8
0
 10
3467.719921991152205
 20
202.0832829152165004
 30
0.0
 40
0.0299386870670495
 50
49.1820530302891612
 51
77.4419816031631854
  0
ARC
  5
15B52
  8
0
 10
3467.726322625560897
 20
202.1086800627732032
 30
0.0
 40
0.0038268456155674
 50
88.3696546662011428
 51
132.2471912368993969
  0
LINE
  5
15B53
  8
0
 10
3467.6851660810038993
 20
202.0465001053684944
 30
0.0
 11
3467.6584940248048952
 21
202.019707896256989
 31
0.0
  0
ARC
  5
15B54
  8
0
 10
3467.6752925354930994
 20
202.0029847205277065
 30
0.0
 40
0.0237034716405323
 50
135.1287634477830011
 51
215.762906469076313
  0
LINE
  5
15B55
  8
0
 10
3467.6560585346887819
 20
201.9891316421374938
 30
0.0
 11
3467.7086014270589658
 21
201.9161796234139103
 31
0.0
  0
ARC
  5
15B56
  8
0
 10
3467.727580991276227
 20
201.9298494466395084
 30
0.0
 40
0.0233899107499436
 50
215.7629064690736982
 51
298.511137568530728
  0
LINE
  5
15B57
  8
0
 10
3467.7387456875999305
 20
201.909296162695
 30
0.0
 11
3467.7739957629360106
 21
201.9272336253567062
 31
0.0
  0
ARC
  5
15B58
  8
0
 10
3467.7713813868599573
 20
201.9313290505760961
 30
0.0
 40
0.0048587518965045
 50
302.5527357096124774
 51
7.5096575648615902
  0
ARC
  5
15B59
  8
0
 10
3467.6327833660720898
 20
201.8947554479561859
 30
0.0
 40
0.1481633255455278
 50
14.5445308669599296
 51
31.7210843833177911
  0
ARC
  5
15B5A
  8
0
 10
3467.5210110537759647
 20
201.8324016354603998
 30
0.0
 40
0.2754013876353667
 50
46.6049504888730368
 51
49.2153859656786707
  0
ARC
  5
15B5B
  8
0
 10
3467.681338351696013
 20
202.0182701311833
 30
0.0
 40
0.0299386870670495
 50
49.1820530302891612
 51
77.4419816031631854
  0
ARC
  5
15B5C
  8
0
 10
3467.6877389861060692
 20
202.0436672787400028
 30
0.0
 40
0.0038268456155674
 50
88.3696546662011428
 51
132.2471912368993969
  0
LINE
  5
15B5D
  8
0
 10
3467.8627255941592011
 20
201.9386894866698015
 30
0.0
 11
3467.836053537960197
 21
201.9118972775582961
 31
0.0
  0
ARC
  5
15B5E
  8
0
 10
3467.852852048647037
 20
201.8951741018290136
 30
0.0
 40
0.0237034716405323
 50
135.1287634477830011
 51
215.762906469076313
  0
LINE
  5
15B5F
  8
0
 10
3467.8336180478440838
 20
201.8813210234388009
 30
0.0
 11
3467.8861609402138129
 21
201.8083690047153027
 31
0.0
  0
ARC
  5
15B60
  8
0
 10
3467.9051405044310741
 20
201.8220388279407871
 30
0.0
 40
0.0233899107499436
 50
215.7629064690736982
 51
298.511137568530728
  0
LINE
  5
15B61
  8
0
 10
3467.9163052007547776
 20
201.8014855439963071
 30
0.0
 11
3467.9515552760908577
 21
201.8194230066580985
 31
0.0
  0
ARC
  5
15B62
  8
0
 10
3467.9489409000148044
 20
201.8235184318774031
 30
0.0
 40
0.0048587518965045
 50
302.5527357096124774
 51
7.5096575648615902
  0
ARC
  5
15B63
  8
0
 10
3467.8103428792260274
 20
201.786944829257493
 30
0.0
 40
0.1481633255455278
 50
14.5445308669599296
 51
37.6279552066262966
  0
ARC
  5
15B64
  8
0
 10
3467.6985705669299023
 20
201.7245910167617069
 30
0.0
 40
0.2754013876353667
 50
33.7018225103237867
 51
49.2153859656786707
  0
ARC
  5
15B65
  8
0
 10
3467.8588978648508601
 20
201.9104595124846071
 30
0.0
 40
0.0299386870670495
 50
49.1820530302891612
 51
77.4419816031631854
  0
ARC
  5
15B66
  8
0
 10
3467.8652984992609163
 20
201.9358566600413099
 30
0.0
 40
0.0038268456155674
 50
88.3696546662011428
 51
132.2471912368993969
  0
LINE
  5
15B67
  8
0
 10
3465.8113243294537824
 20
204.7025507093761121
 30
0.0
 11
3465.825775989344038
 21
204.6693403306929895
 31
0.0
  0
LINE
  5
15B68
  8
0
 10
3465.8766499485182067
 20
204.5669626362249005
 30
0.0
 11
3465.8935030690331587
 21
204.5301978282838036
 31
0.0
  0
LINE
  5
15B69
  8
0
 10
3465.9522570016461032
 20
204.3945680787103072
 30
0.0
 11
3465.9769084495878815
 21
204.3446004529643005
 31
0.0
  0
LINE
  5
15B6A
  8
0
 10
3465.8394027814329093
 20
204.6183312633083062
 30
0.0
 11
3465.8087596586751715
 21
204.5887313716785059
 31
0.0
  0
ARC
  5
15B6B
  8
0
 10
3465.8251715318951938
 20
204.5717410714416928
 30
0.0
 40
0.0236224445120433
 50
134.0079054395112905
 51
216.0594193034802117
  0
LINE
  5
15B6C
  8
0
 10
3465.8060749826458959
 20
204.5578363351459075
 30
0.0
 11
3465.859927942206923
 21
204.4838755154187027
 31
0.0
  0
LINE
  5
15B6D
  8
0
 10
3465.9590558612680979
 20
204.380787027232202
 30
0.0
 11
3465.9213988153569517
 21
204.3443969633316044
 31
0.0
  0
ARC
  5
15B6E
  8
0
 10
3465.9378139206660308
 20
204.3274103381920952
 30
0.0
 40
0.0236220472431485
 50
134.0197370422665983
 51
215.9999997983638025
  0
LINE
  5
15B6F
  8
0
 10
3465.918703282955903
 20
204.3135256472608887
 30
0.0
 11
3465.9455128139488806
 21
204.2766254932321885
 31
0.0
  0
LINE
  5
15B70
  8
0
 10
3465.9648155899949415
 20
204.3235342400188017
 30
0.0
 11
3465.9482141988969488
 21
204.3075024630045107
 31
0.0
  0
ARC
  5
15B71
  8
0
 10
3465.9646234521451333
 20
204.2905101838246082
 30
0.0
 40
0.0236220478335929
 50
133.9999999730790137
 51
216.0122167608990935
  0
LINE
  5
15B72
  8
0
 10
3465.9455157749712271
 20
204.2766214179727911
 30
0.0
 11
3465.997754384216023
 21
204.20475337065281
 31
0.0
  0
ARC
  5
15B73
  8
0
 10
3466.0168791135311039
 20
204.2186545311668056
 30
0.0
 40
0.0236431287062091
 50
216.0122167608886059
 51
281.6348081591672781
  0
ARC
  5
15B74
  8
0
 10
3466.1236289962112096
 20
204.0879938704088943
 30
0.0
 40
0.0931334732684238
 50
34.6669646312412283
 51
49.0697954154876967
  0
ARC
  5
15B75
  8
0
 10
3466.1816129482690485
 20
204.1548611140285914
 30
0.0
 40
0.0046271629534667
 50
49.0697954154530791
 51
111.7227949269288985
  0
LINE
  5
15B76
  8
0
 10
3466.1799003594660462
 20
204.1591596808351881
 30
0.0
 11
3466.145280909297071
 21
204.1253014547449993
 31
0.0
  0
ARC
  5
15B77
  8
0
 10
3466.1617976771840404
 20
204.1084124000024929
 30
0.0
 40
0.0236209487298125
 50
134.3612172739547077
 51
215.9938795039107902
  0
LINE
  5
15B78
  8
0
 10
3466.1426864452150767
 20
204.0945303961302102
 30
0.0
 11
3466.1746002370791757
 21
204.050594961090809
 31
0.0
  0
LINE
  5
15B79
  8
0
 10
3466.1082969280710131
 20
204.0894929135843938
 30
0.0
 11
3466.1523290230438761
 21
204.0288818291255097
 31
0.0
  0
LINE
  5
15B7A
  8
0
 10
3466.2331917368169343
 20
203.9174600332738976
 30
0.0
 11
3466.3158482689541415
 21
203.8036930768377033
 31
0.0
  0
LINE
  5
15B7B
  8
0
 10
3466.3435701161461111
 20
203.8298178905419888
 30
0.0
 11
3466.3148042460738907
 21
203.8029345499215879
 31
0.0
  0
ARC
  5
15B7C
  8
0
 10
3466.3306374404878625
 20
203.7859926222147067
 30
0.0
 40
0.0231887679656734
 50
133.0625084342923117
 51
216.9468355230204963
  0
LINE
  5
15B7D
  8
0
 10
3466.3121051258299303
 20
203.7720544633270094
 30
0.0
 11
3466.3642869925652121
 21
203.7002322853437875
 31
0.0
  0
ARC
  5
15B7E
  8
0
 10
3466.383439743956842
 20
203.7140590117537045
 30
0.0
 40
0.0236220471999922
 50
216.0000000014777015
 51
298.0000000014908892
  0
LINE
  5
15B7F
  8
0
 10
3466.3945296233741828
 20
203.693201982040307
 30
0.0
 11
3466.4239131398680911
 21
203.7088254748969973
 31
0.0
  0
ARC
  5
15B80
  8
0
 10
3466.4195627587209856
 20
203.71234488085571
 30
0.0
 40
0.0055957157212276
 50
321.0275582300133124
 51
17.0747116990775893
  0
ARC
  5
15B81
  8
0
 10
3465.8312682131208931
 20
203.5340866323610101
 30
0.0
 40
0.6203041233734502
 50
16.8592163226879705
 51
19.7329468330522388
  0
LINE
  5
15B82
  8
0
 10
3466.3918732600209296
 20
203.6919937240660943
 30
0.0
 11
3466.4962244364887738
 21
203.5483664585790962
 31
0.0
  0
LINE
  5
15B83
  8
0
 10
3466.5789679758690909
 20
203.4337377545969048
 30
0.0
 11
3466.7063241604009818
 21
203.2591443753921965
 31
0.0
  0
LINE
  5
15B84
  8
0
 10
3466.7852729483479379
 20
203.1505256990243993
 30
0.0
 11
3466.908403412232019
 21
202.9806866122785038
 31
0.0
  0
LINE
  5
15B85
  8
0
 10
3466.9888050228410066
 20
202.870351181626603
 30
0.0
 11
3467.0996335186227952
 21
202.717845558728186
 31
0.0
  0
LINE
  5
15B86
  8
0
 10
3467.1255415983919193
 20
202.7431142828147017
 30
0.0
 11
3467.0996335186227952
 21
202.717845558728186
 31
0.0
  0
ARC
  5
15B87
  8
0
 10
3467.1140072492248692
 20
202.7031081403387986
 30
0.0
 40
0.0205862971954535
 50
134.2842367283028011
 51
222.798155506105104
  0
LINE
  5
15B88
  8
0
 10
3467.0989020178990359
 20
202.689121445990196
 30
0.0
 11
3467.1507610769199346
 21
202.6177435747709126
 31
0.0
  0
ARC
  5
15B89
  8
0
 10
3467.1702372540530632
 20
202.6311400508230065
 30
0.0
 40
0.0236386769159605
 50
214.5217138687779084
 51
290.9068225039658842
  0
LINE
  5
15B8A
  8
0
 10
3467.1786726978821207
 20
202.6090576973763859
 30
0.0
 11
3467.221403863289197
 21
202.6315741476053915
 31
0.0
  0
ARC
  5
15B8B
  8
0
 10
3467.2100112528669342
 20
202.6359595124660018
 30
0.0
 40
0.0122074975806387
 50
338.9467553393889716
 51
44.9548296416624922
  0
ARC
  5
15B8C
  8
0
 10
3466.923184347293045
 20
202.4660529280972128
 30
0.0
 40
0.3452152719320099
 50
31.141990612454439
 51
53.4015190734602214
  0
ARC
  5
15B8D
  8
0
 10
3467.1273533382382084
 20
202.7400041239604889
 30
0.0
 40
0.0035993734691628
 50
62.7225258885712122
 51
120.2217945919149997
  0
LINE
  5
15B8E
  8
0
 10
3467.1786415858509827
 20
202.6091005193852084
 30
0.0
 11
3467.2626161923571999
 21
202.4935194662369042
 31
0.0
  0
LINE
  5
15B8F
  8
0
 10
3467.2821806635679422
 20
202.5127360552955906
 30
0.0
 11
3467.2626161923571999
 21
202.4935194662369042
 31
0.0
  0
ARC
  5
15B90
  8
0
 10
3467.2808257725509975
 20
202.4786843455632948
 30
0.0
 40
0.0234876481634366
 50
140.8307200219699951
 51
216.1328267687374023
  0
LINE
  5
15B91
  8
0
 10
3467.2618559223101329
 20
202.4648346380552937
 30
0.0
 11
3467.3125276126629615
 21
202.3950910396393965
 31
0.0
  0
ARC
  5
15B92
  8
0
 10
3467.3337434676659541
 20
202.4078199512501044
 30
0.0
 40
0.0247414165787765
 50
210.9625623081194874
 51
246.5336918071367052
  0
ARC
  5
15B93
  8
0
 10
3467.3332457356868872
 20
202.4066734028133112
 30
0.0
 40
0.023491492404998
 50
246.5336918071380126
 51
301.4295844922285141
  0
LINE
  5
15B94
  8
0
 10
3467.34549538122792
 20
202.386628543134691
 30
0.0
 11
3467.387076895061
 21
202.4087402981795947
 31
0.0
  0
ARC
  5
15B95
  8
0
 10
3467.386469376192963
 20
202.4097076103375912
 30
0.0
 40
0.0011422661628202
 50
302.1308103410124772
 51
350.4305580655329777
  0
ARC
  5
15B96
  8
0
 10
3467.3721500624278633
 20
202.4082324639450974
 30
0.0
 40
0.015499066532141
 50
4.7566877859007208
 51
34.6413157217664107
  0
ARC
  5
15B97
  8
0
 10
3467.0229304277709161
 20
202.1702535366000859
 30
0.0
 40
0.438095874101779
 50
34.2858693174160578
 51
44.85408481579951
  0
LINE
  5
15B98
  8
0
 10
3467.3905808936729045
 20
202.3245713575661
 30
0.0
 11
3467.3454953812488384
 21
202.3866285431456902
 31
0.0
  0
LINE
  5
15B99
  8
0
 10
3467.4103511417938535
 20
202.3436632643349071
 30
0.0
 11
3467.3895918817438542
 21
202.3236162798228008
 31
0.0
  0
ARC
  5
15B9A
  8
0
 10
3467.4060521114461153
 20
202.3065712130855047
 30
0.0
 40
0.0236954312463012
 50
134.0000001543963037
 51
220.1846615901426958
  0
LINE
  5
15B9B
  8
0
 10
3467.3879495414130361
 20
202.2912816604379032
 30
0.0
 11
3467.439116742034912
 21
202.2208560507835955
 31
0.0
  0
ARC
  5
15B9C
  8
0
 10
3467.4582273796800109
 20
202.2347407418386069
 30
0.0
 40
0.0236220472628135
 50
216.0000001348977037
 51
297.9999997014385826
  0
LINE
  5
15B9D
  8
0
 10
3467.4693172590150425
 20
202.2138837120118069
 30
0.0
 11
3467.4844369739112153
 21
202.2219230069246123
 31
0.0
  0
ARC
  5
15B9E
  8
0
 10
3467.484602702740176
 20
202.1984382238541968
 30
0.0
 40
0.023622047199985
 50
144.2317717242804918
 51
216.0000000015114097
  0
LINE
  5
15B9F
  8
0
 10
3467.465492065115086
 20
202.1845535328806136
 30
0.0
 11
3467.4880028977649999
 21
202.1535700298059055
 31
0.0
  0
LINE
  5
15BA0
  8
0
 10
3467.6085283385859839
 20
202.0769721236283942
 30
0.0
 11
3467.6321807034501035
 21
202.0444175237902016
 31
0.0
  0
ARC
  5
15BA1
  8
0
 10
3467.6512925718438964
 20
202.0583031463050077
 30
0.0
 40
0.023623590457207
 50
216.0000732626911031
 51
297.8716986340518247
  0
LINE
  5
15BA2
  8
0
 10
3467.6623364401998515
 20
202.0374199713112091
 30
0.0
 11
3467.6944945793620718
 21
202.0544264971669008
 31
0.0
  0
ARC
  5
15BA3
  8
0
 10
3467.0670920602210572
 20
201.4482835959277907
 30
0.0
 40
0.8955076904469894
 50
45.2918767958863384
 51
53.2393195766294269
  0
ARC
  5
15BA4
  8
0
 10
3467.6010858218792237
 20
202.1631099834247038
 30
0.0
 40
0.0032487023987422
 50
53.2393195766333207
 51
128.6377982434109981
  0
LINE
  5
15BA5
  8
0
 10
3467.5990573482381478
 20
202.1656475732187062
 30
0.0
 11
3467.5797592252602044
 21
202.1456188502762927
 31
0.0
  0
LINE
  5
15BA6
  8
0
 10
3467.7320937016352218
 20
201.9068989919574051
 30
0.0
 11
3467.7460202203310473
 21
201.8877307834376893
 31
0.0
  0
ARC
  5
15BA7
  8
0
 10
3467.771487662987056
 20
201.9062339636348042
 30
0.0
 40
0.0314794903526417
 50
216.0000000408086009
 51
285.265306251127015
  0
LINE
  5
15BA8
  8
0
 10
3467.7797758647179762
 20
201.8758651634456101
 30
0.0
 11
3467.8275391023939846
 21
201.9012613273283989
 31
0.0
  0
LINE
  5
15BA9
  8
0
 10
3467.8275391023939846
 20
201.9012613273283989
 30
0.0
 11
3467.788201091666906
 21
201.9372112996136934
 31
0.0
  0
LINE
  5
15BAA
  8
0
 10
3467.7762161931750597
 20
201.9308472644349024
 30
0.0
 11
3467.7972859214160053
 21
201.9420353852044059
 31
0.0
  0
ARC
  5
15BAB
  8
0
 10
3467.7960684957361082
 20
201.9423748917340049
 30
0.0
 40
0.001263878938507
 50
344.4176761337386097
 51
40.0089541831909301
  0
LINE
  5
15BAC
  8
0
 10
3467.7970365561991457
 20
201.9431874487542018
 30
0.0
 11
3467.7716289259860787
 21
201.9721195526801978
 31
0.0
  0
ARC
  5
15BAD
  8
0
 10
3467.9172488729991528
 20
201.7946868420297051
 30
0.0
 40
0.02128138083175
 50
164.9168748885753928
 51
213.3800439746493112
  0
LINE
  5
15BAE
  8
0
 10
3467.8994780784491923
 20
201.7829780405874942
 30
0.0
 11
3467.9539080698368707
 21
201.707964413693702
 31
0.0
  0
ARC
  5
15BAF
  8
0
 10
3467.9730780053400849
 20
201.7217766127162974
 30
0.0
 40
0.0236275954978673
 50
215.7732624485267081
 51
297.9715009629047131
  0
LINE
  5
15BB0
  8
0
 10
3467.9841601113857905
 20
201.7009091693032019
 30
0.0
 11
3468.0335688500708784
 21
201.7271487459904904
 31
0.0
  0
LINE
  5
15BB1
  8
0
 10
3468.0335688500708784
 20
201.7271487459904904
 30
0.0
 11
3467.9370473461981419
 21
201.8120404564573107
 31
0.0
  0
LINE
  5
15BB2
  8
0
 10
3468.0124755312681373
 20
201.7158759937192087
 30
0.0
 11
3468.2061768399298671
 21
201.5583668892778064
 31
0.0
  0
ARC
  5
15BB3
  8
0
 10
3466.1218416680508199
 20
204.0767735900126922
 30
0.0
 40
0.007874015596134
 50
152.8694885253484017
 51
204.2027949853234077
  0
LINE
  5
15BB4
  8
0
 10
3466.1146597774932161
 20
204.0735454993022984
 30
0.0
 11
3466.1447672610420341
 21
204.0077770921818114
 31
0.0
  0
ARC
  5
15BB5
  8
0
 10
3466.1679432550267848
 20
204.0103531292039065
 30
0.0
 40
0.0232805254521727
 50
152.281978078702906
 51
186.6229952774934873
  0
ARC
  5
15BB6
  8
0
 10
3466.1710854173797998
 20
204.0107179678201135
 30
0.0
 40
0.0264437977237574
 50
186.6229952774951926
 51
223.5462645550441039
  0
LINE
  5
15BB7
  8
0
 10
3466.1519184686108019
 20
203.9924997760074064
 30
0.0
 11
3466.1648298382660869
 21
203.9652358180827036
 31
0.0
  0
ARC
  5
15BB8
  8
0
 10
3466.1612846542661828
 20
203.9635228541573042
 30
0.0
 40
0.0039373309490733
 50
308.5017058618482224
 51
25.7889295731095984
  0
LINE
  5
15BB9
  8
0
 10
3466.1637357921517832
 20
203.9604415398164861
 30
0.0
 11
3466.1298774670681269
 21
203.9335102430929112
 31
0.0
  0
ARC
  5
15BBA
  8
0
 10
3466.1396808550930473
 20
203.9211857097855045
 30
0.0
 40
0.0157480328337694
 50
128.4976866326192066
 51
216.0182436435846114
  0
LINE
  5
15BBB
  8
0
 10
3466.1269433769139141
 20
203.9119251921023874
 30
0.0
 11
3466.3688073787611756
 21
203.5792507616473017
 31
0.0
  0
ARC
  5
15BBC
  8
0
 10
3466.3815544896378924
 20
203.5885182825822142
 30
0.0
 40
0.0157599422585956
 50
216.0182436435898978
 51
302.9818329712177274
  0
LINE
  5
15BBD
  8
0
 10
3466.3901337780498579
 20
203.5752981619195907
 30
0.0
 11
3466.3957736329948602
 21
203.5789581846534873
 31
0.0
  0
ARC
  5
15BBE
  8
0
 10
3466.3901949211071951
 20
203.5823312787933901
 30
0.0
 40
0.0065191863304762
 50
328.8413008471067087
 51
13.0600633549082801
  0
ARC
  5
15BBF
  8
0
 10
3466.1229909131097884
 20
203.5115868502375065
 30
0.0
 40
0.2829266349034961
 50
14.7885168170007102
 51
27.112832771133931
  0
ARC
  5
15BC0
  8
0
 10
3465.3814761769631332
 20
203.1665826781714088
 30
0.0
 40
1.100622970619199
 50
25.5066886199402099
 51
32.9594563441981094
  0
ARC
  5
15BC1
  8
0
 10
3466.1423257077699418
 20
203.664759350277194
 30
0.0
 40
0.1912401754891543
 50
31.7425984047486693
 51
44.8567710439024623
  0
ARC
  5
15BC2
  8
0
 10
3466.2747056524081017
 20
203.7967080312178894
 30
0.0
 40
0.0043344727702268
 50
42.7110428102102091
 51
105.0497085168142064
  0
LINE
  5
15BC3
  8
0
 10
3466.2735801763719792
 20
203.8008938355480097
 30
0.0
 11
3466.243587202703111
 21
203.7770363469716983
 31
0.0
  0
ARC
  5
15BC4
  8
0
 10
3466.253399906499908
 20
203.7646800128079008
 30
0.0
 40
0.0157787245929043
 50
128.4546214119496881
 51
210.1251818318023084
  0
LINE
  5
15BC5
  8
0
 10
3466.3009451419779907
 20
203.6725926016835899
 30
0.0
 11
3466.2847481651788257
 21
203.6594271826078
 31
0.0
  0
ARC
  5
15BC6
  8
0
 10
3466.2897146828968289
 20
203.6533170411995002
 30
0.0
 40
0.0078740158923089
 50
129.1053109047522014
 51
174.8070825457236879
  0
LINE
  5
15BC7
  8
0
 10
3466.2818729851592252
 20
203.6540297142400959
 30
0.0
 11
3466.2785818142260723
 21
203.6178162387857071
 31
0.0
  0
ARC
  5
15BC8
  8
0
 10
3466.2982205218340823
 20
203.6160314240767093
 30
0.0
 40
0.0197196450289507
 50
174.8070825457236879
 51
210.8940577711705942
  0
LINE
  5
15BC9
  8
0
 10
3466.2812987363008688
 20
203.6059063278069914
 30
0.0
 11
3466.2832778472097743
 21
203.6025986960121088
 31
0.0
  0
LINE
  5
15BCA
  8
0
 10
3466.2835874953211714
 20
203.6028605489817949
 30
0.0
 11
3466.2780839323868349
 21
203.5985207082960926
 31
0.0
  0
ARC
  5
15BCB
  8
0
 10
3466.2817409909648632
 20
203.5938830145420013
 30
0.0
 40
0.0059061223152415
 50
128.2575850522335088
 51
209.7119443837698896
  0
LINE
  5
15BCC
  8
0
 10
3466.2766113571351525
 20
203.590955705611691
 30
0.0
 11
3466.3683360926720525
 21
203.437629392143009
 31
0.0
  0
LINE
  5
15BCD
  8
0
 10
3466.3164474609548051
 20
203.5225846254940905
 30
0.0
 11
3466.2935395783038075
 21
203.5031420515745992
 31
0.0
  0
ARC
  5
15BCE
  8
0
 10
3466.3011823200481558
 20
203.4941371208632006
 30
0.0
 40
0.0118110235999955
 50
130.3222174397874085
 51
216.0000000015060948
  0
LINE
  5
15BCF
  8
0
 10
3466.2916270012351561
 20
203.4871947753763948
 30
0.0
 11
3466.428692889793183
 21
203.298539764461708
 31
0.0
  0
ARC
  5
15BD0
  8
0
 10
3466.4382482086521122
 20
203.3054821099817104
 30
0.0
 40
0.0118110236565034
 50
216.0000000015141097
 51
301.9996924439752206
  0
LINE
  5
15BD1
  8
0
 10
3466.4445070438518997
 20
203.2954657602593898
 30
0.0
 11
3466.4571620637238993
 21
203.3033733998711057
 31
0.0
  0
LINE
  5
15BD2
  8
0
 10
3466.2818729851592252
 20
203.6540297142400959
 30
0.0
 11
3467.029535546525949
 21
202.6249604822349113
 31
0.0
  0
LINE
  5
15BD3
  8
0
 10
3467.3106744425431316
 20
202.3976450474212925
 30
0.0
 11
3467.2505272571838759
 21
202.4552049852229061
 31
0.0
  0
LINE
  5
15BD4
  8
0
 10
3467.2540824460211297
 20
202.4575581537841913
 30
0.0
 11
3467.2190609072490588
 21
202.4343778625658956
 31
0.0
  0
ARC
  5
15BD5
  8
0
 10
3467.2103689829741597
 20
202.4475099047872959
 30
0.0
 40
0.015748018304024
 50
215.9999542059420037
 51
303.5000459315277226
  0
LINE
  5
15BD6
  8
0
 10
3467.1976285611408457
 20
202.4382534620582987
 30
0.0
 11
3467.0695617132400912
 21
202.6145226523904057
 31
0.0
  0
ARC
  5
15BD7
  8
0
 10
3467.0823031667159739
 20
202.6237798446504996
 30
0.0
 40
0.0157492934838549
 50
129.4742509329236952
 51
215.9999542059512976
  0
ARC
  5
15BD8
  8
0
 10
3467.1289589616590092
 20
202.5671299882081087
 30
0.0
 40
0.0891384577840235
 50
127.2994934086171952
 51
129.4742509329227005
  0
ARC
  5
15BD9
  8
0
 10
3467.0729447267090109
 20
202.6406605305747917
 30
0.0
 40
0.0032971153346884
 50
307.2994934086744934
 51
2.7176361527940549
  0
ARC
  5
15BDA
  8
0
 10
3467.0815892149457795
 20
202.6444544523203035
 30
0.0
 40
0.0064704055973307
 50
188.483669841178596
 51
214.2073359421476084
  0
ARC
  5
15BDB
  8
0
 10
3467.0756625253839047
 20
202.6434416558720102
 30
0.0
 40
0.0004764884056148
 50
76.3910848235400408
 51
172.9801041139853908
  0
ARC
  5
15BDC
  8
0
 10
3467.0515661088470551
 20
202.5958411000868864
 30
0.0
 40
0.0538160665063634
 50
47.7558508859110304
 51
63.2666862432075874
  0
ARC
  5
15BDD
  8
0
 10
3466.558027583519106
 20
202.0147904072944982
 30
0.0
 40
0.8161532946383292
 50
45.9361569365367401
 51
49.5305119842591495
  0
ARC
  5
15BDE
  8
0
 10
3465.8153900117858939
 20
201.2241164374624134
 30
0.0
 40
1.900847968397025
 50
41.0048123829887103
 51
46.4259168982712822
  0
ARC
  5
15BDF
  8
0
 10
3467.1889688783790007
 20
202.4186120032429983
 30
0.0
 40
0.0805354521046878
 50
29.6399674664546993
 51
40.8656995772768497
  0
ARC
  5
15BE0
  8
0
 10
3467.2574256059479012
 20
202.4576559258294992
 30
0.0
 40
0.0017290176741689
 50
345.2602441552148207
 51
26.9921417193879911
  0
ARC
  5
15BE1
  8
0
 10
3467.2586924077700132
 20
202.4575115271128993
 30
0.0
 40
0.0005016070686655
 50
266.4323942030459875
 51
323.9044479164335257
  0
ARC
  5
15BE2
  8
0
 10
3467.2560248066361055
 20
202.4543811796233115
 30
0.0
 40
0.0037236983741564
 50
44.9273697104054932
 51
121.4410721936639987
  0
ARC
  5
15BE3
  8
0
 10
3467.0545538077699348
 20
202.6221724933517123
 30
0.0
 40
0.0224513049079065
 50
37.8123742184387268
 51
61.8803073424018493
  0
ARC
  5
15BE4
  8
0
 10
3467.0629305948491492
 20
202.6344147384284042
 30
0.0
 40
0.0078740158447604
 50
73.7388387461190433
 51
122.9999974983392974
  0
LINE
  5
15BE5
  8
0
 10
3467.0586420987469864
 20
202.6410184439561988
 30
0.0
 11
3467.0360618849649654
 21
202.6263546816886958
 31
0.0
  0
ARC
  5
15BE6
  8
0
 10
3467.0312836053340106
 20
202.6327499124672897
 30
0.0
 40
0.0079831655966697
 50
257.351566704075708
 51
306.7657240485738726
  0
LINE
  5
15BE7
  8
0
 10
3467.029535546525949
 20
202.6249604822349113
 30
0.0
 11
3466.9940773125058513
 21
202.6330209648536993
 31
0.0
  0
ARC
  5
15BE8
  8
0
 10
3466.9985799642640814
 20
202.6526550584300992
 30
0.0
 40
0.0201437703053035
 50
218.1140101387530024
 51
257.08458947840262
  0
LINE
  5
15BE9
  8
0
 10
3466.982731165693167
 20
202.6402217537228978
 30
0.0
 11
3466.9771138118831004
 21
202.6364328007092013
 31
0.0
  0
ARC
  5
15BEA
  8
0
 10
3466.9737663569740107
 20
202.6415150484671983
 30
0.0
 40
0.006085613919236
 50
212.7169837441998936
 51
303.3711532475347212
  0
LINE
  5
15BEB
  8
0
 10
3466.9686462220170142
 20
202.6382258365867131
 30
0.0
 11
3466.9585788912449971
 21
202.6492651322232064
 31
0.0
  0
ARC
  5
15BEC
  8
0
 10
3466.9566156547939499
 20
202.6437408939301008
 30
0.0
 40
0.005862721729902
 50
70.4355037312820542
 51
122.1800291993907024
  0
LINE
  5
15BED
  8
0
 10
3466.9534932788460537
 20
202.6487029776178019
 30
0.0
 11
3466.9266103819140881
 21
202.6319074420372033
 31
0.0
  0
ARC
  5
15BEE
  8
0
 10
3466.9203504095621611
 20
202.6419179397393862
 30
0.0
 40
0.0118066641390946
 50
215.9916663280303055
 51
302.0194213231126241
  0
LINE
  5
15BEF
  8
0
 10
3466.9107976083359972
 20
202.6349795460614018
 30
0.0
 11
3466.7804777948867923
 21
202.8144042560807918
 31
0.0
  0
ARC
  5
15BF0
  8
0
 10
3466.7911635781651967
 20
202.8198752707563983
 30
0.0
 40
0.0120049142375981
 50
130.327944404287507
 51
207.1119945725370997
  0
LINE
  5
15BF1
  8
0
 10
3466.7833944577869261
 20
202.8290272505649057
 30
0.0
 11
3466.8249473184878298
 21
202.8638942409899073
 31
0.0
  0
ARC
  5
15BF2
  8
0
 10
3466.8384777005230717
 20
202.8770708947837136
 30
0.0
 40
0.0584072397685339
 50
198.8410685550385892
 51
221.420412418174493
  0
ARC
  5
15BF3
  8
0
 10
3466.7911260155619857
 20
202.8593629854995868
 30
0.0
 40
0.0080096013408094
 50
120.737827806600194
 51
188.2864939106233919
  0
LINE
  5
15BF4
  8
0
 10
3466.7870321111968224
 20
202.8662472697936039
 30
0.0
 11
3466.6721008317258566
 21
203.0170741076381091
 31
0.0
  0
LINE
  5
15BF5
  8
0
 10
3466.6737263877957957
 20
203.0181002787574016
 30
0.0
 11
3466.6546795699478025
 21
203.0061880950418924
 31
0.0
  0
ARC
  5
15BF6
  8
0
 10
3466.6484194188487891
 20
203.0161976751948032
 30
0.0
 40
0.0118059809685094
 50
215.9771749375011041
 51
302.0225178310909087
  0
LINE
  5
15BF7
  8
0
 10
3466.6388654159090947
 20
203.0092620991941885
 30
0.0
 11
3466.5662356873131102
 21
203.109312136919101
 31
0.0
  0
ARC
  5
15BF8
  8
0
 10
3466.5758083974919828
 20
203.1162612931416049
 30
0.0
 40
0.0118290976989699
 50
130.3211437861027946
 51
215.9771749375115917
  0
LINE
  5
15BF9
  8
0
 10
3466.5681541292619841
 20
203.1252801472950864
 30
0.0
 11
3466.5845165036021172
 21
203.1390098096530039
 31
0.0
  0
ARC
  5
15BFA
  8
0
 10
3466.5830262552458407
 20
203.1417627112693935
 30
0.0
 40
0.003130384556517
 50
298.4283366154485861
 51
31.0286061423298811
  0
ARC
  5
15BFB
  8
0
 10
3466.5892378042999553
 20
203.1454992086491131
 30
0.0
 40
0.0041183914999408
 50
166.1383529359438
 51
211.0286061423452111
  0
ARC
  5
15BFC
  8
0
 10
3466.5861610851861769
 20
203.1462584343717879
 30
0.0
 40
0.0009493815284798
 50
49.7946779321372901
 51
166.1383529360701914
  0
ARC
  5
15BFD
  8
0
 10
3466.4447718714850453
 20
202.9789784144253986
 30
0.0
 40
0.2199779523230794
 50
36.0304667520748225
 51
49.7946779321383204
  0
ARC
  5
15BFE
  8
0
 10
3465.0047139896892077
 20
201.9315447158512882
 30
0.0
 40
2.0006755841048509
 50
33.3138904462977976
 51
36.0304667520748225
  0
ARC
  5
15BFF
  8
0
 10
3466.652219102556046
 20
203.0143251417057968
 30
0.0
 40
0.0292074642665514
 50
4.3881321989391919
 51
33.3138904462977976
  0
ARC
  5
15C00
  8
0
 10
3466.6813194090509569
 20
203.0207695715949114
 30
0.0
 40
0.0042097487459807
 50
227.7808333808717975
 51
270.2931615201507043
  0
ARC
  5
15C01
  8
0
 10
3466.6759038721538673
 20
203.0157018773936102
 30
0.0
 40
0.0032394084692387
 50
37.0113935752489596
 51
132.2359904982554895
  0
LINE
  5
15C02
  8
0
 10
3466.4509014340069371
 20
203.3124330140026075
 30
0.0
 11
3466.458469727344891
 21
203.3015015467331921
 31
0.0
  0
LINE
  5
15C03
  8
0
 10
3466.486894291362205
 20
203.3253576606020943
 30
0.0
 11
3466.4470703264209988
 21
203.2919363136076072
 31
0.0
  0
ARC
  5
15C04
  8
0
 10
3466.4546629843630399
 20
203.2828891096228858
 30
0.0
 40
0.0118110268210463
 50
130.0042825063493126
 51
216.0412393558416966
  0
LINE
  5
15C05
  8
0
 10
3466.4451126622598167
 20
203.275939886479506
 30
0.0
 11
3466.5419607466628804
 21
203.1428414980663035
 31
0.0
  0
ARC
  5
15C06
  8
0
 10
3466.5505169244338504
 20
203.1509316913719942
 30
0.0
 40
0.0117753728495616
 50
223.3965290494988096
 51
302.0618008408903279
  0
LINE
  5
15C07
  8
0
 10
3466.556767688986838
 20
203.1409523452896053
 30
0.0
 11
3466.6015047945252263
 21
203.1689071913874045
 31
0.0
  0
LINE
  5
15C08
  8
0
 10
3466.2810466946871202
 20
203.6063524402937901
 30
0.0
 11
3466.9940775841560026
 21
202.6330209031013112
 31
0.0
  0
ARC
  5
15C09
  8
0
 10
3466.3592081783372123
 20
203.4143908514583075
 30
0.0
 40
0.0119872152824748
 50
130.2779362757025012
 51
208.3759686167801988
  0
LINE
  5
15C0A
  8
0
 10
3466.3514584911308702
 20
203.423536105879009
 30
0.0
 11
3466.3724485471548178
 21
203.4410634107819931
 31
0.0
  0
ARC
  5
15C0B
  8
0
 10
3466.3698392642800172
 20
203.4443856379058104
 30
0.0
 40
0.004224399387568
 50
308.146151787970723
 51
29.4768627448429186
  0
ARC
  5
15C0C
  8
0
 10
3466.3750983022900982
 20
203.4473582555829125
 30
0.0
 40
0.0018166217722856
 50
134.789425572663589
 51
209.4768627450004885
  0
ARC
  5
15C0D
  8
0
 10
3466.3728112483167934
 20
203.4453376236216116
 30
0.0
 40
0.0034597542099515
 50
47.9719170280855991
 51
73.0743837957321745
  0
ARC
  5
15C0E
  8
0
 10
3466.3015973860851773
 20
203.3741218386188052
 30
0.0
 40
0.1041682272652865
 50
35.4316194599890366
 51
45.0994103239496482
  0
ARC
  5
15C0F
  8
0
 10
3465.9246192320370028
 20
203.0901286376422945
 30
0.0
 40
0.5761160934157599
 50
33.138963849478472
 51
36.7100824088184012
  0
ARC
  5
15C10
  8
0
 10
3465.8359884247870468
 20
203.0075555012807058
 30
0.0
 40
0.6957789341143399
 50
26.6657641905324496
 51
34.8430248973353685
  0
ARC
  5
15C11
  8
0
 10
3466.427339084059895
 20
203.3045313010071879
 30
0.0
 40
0.0340461875716027
 50
13.6330867919570693
 51
26.6657641905324496
  0
ARC
  5
15C12
  8
0
 10
3466.4592112935702062
 20
203.3122614852912875
 30
0.0
 40
0.0012499455908728
 50
324.3147224872064953
 51
13.6330867919254199
  0
ARC
  5
15C13
  8
0
 10
3466.4599478434010962
 20
203.3120326941559881
 30
0.0
 40
0.0005727262431794
 50
245.1965373010029907
 51
299.1184057901156734
  0
ARC
  5
15C14
  8
0
 10
3466.4547331964768091
 20
203.3073387640303906
 30
0.0
 40
0.0064936184901871
 50
40.0002206031230969
 51
113.4175768502303043
  0
LINE
  5
15C15
  8
0
 10
3466.4521524414781197
 20
203.3132975210091899
 30
0.0
 11
3466.4379839318121412
 21
203.3044440536220918
 31
0.0
  0
ARC
  5
15C16
  8
0
 10
3466.4317103881271578
 20
203.314520242847891
 30
0.0
 40
0.0118695804353161
 50
220.4188912253760009
 51
301.9071423999646981
  0
LINE
  5
15C17
  8
0
 10
3466.3817726058177868
 20
203.5726493759987079
 30
0.0
 11
3466.5264006052980221
 21
203.3735860123528028
 31
0.0
  0
LINE
  5
15C18
  8
0
 10
3466.5509102574728786
 20
203.396371674149691
 30
0.0
 11
3466.531412496889061
 21
203.3807525701512873
 31
0.0
  0
ARC
  5
15C19
  8
0
 10
3466.5411319127501883
 20
203.3686195538467985
 30
0.0
 40
0.0155459682659683
 50
128.6972296886293066
 51
161.3691708119409043
  0
ARC
  5
15C1A
  8
0
 10
3466.54156725542407
 20
203.3684727840278867
 30
0.0
 40
0.0160053859666962
 50
161.3691708119438886
 51
215.3814451029888062
  0
LINE
  5
15C1B
  8
0
 10
3466.5285178185667974
 20
203.3592053907777029
 30
0.0
 11
3466.6565773442880527
 21
203.1829465748380983
 31
0.0
  0
ARC
  5
15C1C
  8
0
 10
3466.6693252344298344
 20
203.1921927800594858
 30
0.0
 40
0.0157480479452264
 50
215.9538496482184939
 51
271.108843219978894
  0
ARC
  5
15C1D
  8
0
 10
3466.6693252348932219
 20
203.1921927561465111
 30
0.0
 40
0.0157480240277058
 50
271.108843219978894
 51
303.5000076109573115
  0
LINE
  5
15C1E
  8
0
 10
3466.6780171535438058
 20
203.1790607033387914
 30
0.0
 11
3466.6937657969610882
 21
203.1894845060328976
 31
0.0
  0
ARC
  5
15C1F
  8
0
 10
3466.6845320863872075
 20
203.1959573243989041
 30
0.0
 40
0.0112764705710752
 50
324.9695973490589722
 51
18.5233613204879788
  0
ARC
  5
15C20
  8
0
 10
3466.2601287658039837
 20
203.0389866994113106
 30
0.0
 40
0.463773081027845
 50
20.2543834234959412
 51
37.4365897572321629
  0
ARC
  5
15C21
  8
0
 10
3466.273364550468159
 20
203.0749976056779076
 30
0.0
 40
0.4318622017243444
 50
34.7094529248226067
 51
46.5905401901692997
  0
ARC
  5
15C22
  8
0
 10
3466.5447521247151599
 20
203.3626799598449111
 30
0.0
 40
0.0363766431759486
 50
45.7322325833615224
 51
74.513559547001492
  0
ARC
  5
15C23
  8
0
 10
3466.5543183981849324
 20
203.3928045250742116
 30
0.0
 40
0.0049335560847859
 50
88.2964507682120114
 51
133.6941143978343121
  0
LINE
  5
15C24
  8
0
 10
3466.6696299746108707
 20
203.176447680901191
 30
0.0
 11
3466.8537694929791542
 21
202.923001394100794
 31
0.0
  0
LINE
  5
15C25
  8
0
 10
3466.8680198944680342
 20
202.9375448459252027
 30
0.0
 11
3466.8588007398348054
 21
202.9301834319871887
 31
0.0
  0
ARC
  5
15C26
  8
0
 10
3466.8685017227130629
 20
202.9180342902604082
 30
0.0
 40
0.0155470483853508
 50
128.607057677133696
 51
161.3680030243621104
  0
ARC
  5
15C27
  8
0
 10
3466.8689354323291809
 20
202.917888061160113
 30
0.0
 40
0.0160047458627493
 50
161.3680030243529018
 51
215.3826127316351915
  0
ARC
  5
15C28
  8
0
 10
3475.0983390711899119
 20
208.7624630305448932
 30
0.0
 40
10.1096730990462795
 50
215.3826127316351915
 51
216.6173872812229035
  0
ARC
  5
15C29
  8
0
 10
3466.9967416378208327
 20
202.7418703511565923
 30
0.0
 40
0.015941520314496
 50
216.6173872812294974
 51
302.8374250755439903
  0
LINE
  5
15C2A
  8
0
 10
3467.0053860411139794
 20
202.7284760851580927
 30
0.0
 11
3467.0327180157009934
 21
202.7465667244645999
 31
0.0
  0
ARC
  5
15C2B
  8
0
 10
3467.0250399197288971
 20
202.7513555854528988
 30
0.0
 40
0.0090491075433278
 50
328.0480352224768126
 51
30.6783885186771883
  0
ARC
  5
15C2C
  8
0
 10
3466.709661670342939
 20
202.5960053664124985
 30
0.0
 40
0.3605862966697416
 50
26.3357806079409293
 51
40.4985732667404008
  0
ARC
  5
15C2D
  8
0
 10
3466.5944861644779849
 20
202.5456617159696862
 30
0.0
 40
0.4822474173846718
 50
36.1559653559947378
 51
53.9941469034016919
  0
ARC
  5
15C2E
  8
0
 10
3466.8711883003747971
 20
202.9264277286831089
 30
0.0
 40
0.0115598050054611
 50
53.9941469034266035
 51
105.9076829786740035
  0
LINE
  5
15C2F
  8
0
 10
3466.9969056967897814
 20
202.7259296750544024
 30
0.0
 11
3467.0586420987287966
 21
202.6410184439804993
 31
0.0
  0
ARC
  5
15C30
  8
0
 10
3466.8310302213458272
 20
202.7648640489132958
 30
0.0
 40
0.0118110235752964
 50
129.9999999925398981
 51
212.4858349784651921
  0
LINE
  5
15C31
  8
0
 10
3466.823438241734948
 20
202.773911817891701
 30
0.0
 11
3466.8347592744771646
 21
202.7834112922872976
 31
0.0
  0
ARC
  5
15C32
  8
0
 10
3466.8311161166388956
 20
202.7877530387306138
 30
0.0
 40
0.0056677474549111
 50
309.9999999925315137
 51
26.0156967613361587
  0
ARC
  5
15C33
  8
0
 10
3466.8400808947590122
 20
202.7936129171640971
 30
0.0
 40
0.0051352088896023
 50
205.1724226846197041
 51
221.0725664892123916
  0
ARC
  5
15C34
  8
0
 10
3466.8355390415417787
 20
202.7915180827959887
 30
0.0
 40
0.0001384142251728
 50
80.6776292201144543
 51
220.229292412423689
  0
ARC
  5
15C35
  8
0
 10
3466.830459997142043
 20
202.7844455646518895
 30
0.0
 40
0.0088315423169088
 50
48.0499654857535603
 51
54.7151661440059272
  0
ARC
  5
15C36
  8
0
 10
3465.6838187724979434
 20
201.6921123509372933
 30
0.0
 40
1.5924648609539309
 50
40.6941281568516686
 51
43.6351159682556613
  0
ARC
  5
15C37
  8
0
 10
3465.2523295102919292
 20
201.2924092289904081
 30
0.0
 40
2.1803433734575091
 50
39.4256741298041078
 51
41.2647830178345529
  0
ARC
  5
15C38
  8
0
 10
3466.8525256080952204
 20
202.6077383147928117
 30
0.0
 40
0.1089387379013332
 50
34.7869212710677616
 51
39.5427170314363465
  0
ARC
  5
15C39
  8
0
 10
3466.9410219597698415
 20
202.6691688911153051
 30
0.0
 40
0.0012113440867552
 50
2.9906796562243918
 51
36.5755383443152766
  0
ARC
  5
15C3A
  8
0
 10
3466.9422100892161325
 20
202.6693598240599954
 30
0.0
 40
0.0001295404543052
 50
245.1261624229645975
 51
279.5827453496488033
  0
ARC
  5
15C3B
  8
0
 10
3466.709765295644047
 20
202.3684983071485135
 30
0.0
 40
0.3800686829395183
 50
52.3060910963130112
 51
52.6296596511955812
  0
ARC
  5
15C3C
  8
0
 10
3466.9378200877208656
 20
202.6653514914613936
 30
0.0
 40
0.0058273627567068
 50
63.1340236526898124
 51
122.0141118850153958
  0
LINE
  5
15C3D
  8
0
 10
3466.9347308388501006
 20
202.6702926146242874
 30
0.0
 11
3466.9099636876680961
 21
202.6548197584199897
 31
0.0
  0
ARC
  5
15C3E
  8
0
 10
3466.9036086159571823
 20
202.6651449865663039
 30
0.0
 40
0.0121242431812028
 50
226.6656459844598999
 51
301.611869683309294
  0
LINE
  5
15C3F
  8
0
 10
3466.9388457225459206
 20
202.6710878866626047
 30
0.0
 11
3466.9585788912459066
 21
202.6492651322230074
 31
0.0
  0
LINE
  5
15C40
  8
0
 10
3466.5633711432251403
 20
203.1450786414526988
 30
0.0
 11
3466.5750962131360211
 21
203.1311052473488985
 31
0.0
  0
LINE
  5
15C41
  8
0
 10
3466.7870322242320071
 20
202.86624735810571
 30
0.0
 11
3466.810584212088088
 21
202.8835007750641921
 31
0.0
  0
ARC
  5
15C42
  8
0
 10
3467.3661214475660017
 20
202.2593907141582861
 30
0.0
 40
0.095173903774526
 50
45.238084829388491
 51
62.3077793086670013
  0
LINE
  5
15C43
  8
0
 10
3468.030997840272903
 20
201.7257966090845116
 30
0.0
 11
3468.2296472548327984
 21
201.5752320933164015
 31
0.0
  0
LINE
  5
15C44
  8
0
 10
3465.6424502398572258
 20
205.1483437176698885
 30
0.0
 11
3465.6190755550242102
 21
205.1799928564514062
 31
0.0
  0
ARC
  5
15C45
  8
0
 10
3465.7472335675629438
 20
205.2746448206833918
 30
0.0
 40
0.1593219084454612
 50
72.4032771898766327
 51
216.4479714508916004
  0
LINE
  5
15C46
  8
0
 10
3465.7953990292458002
 20
205.4265117321932053
 30
0.0
 11
3466.087015609764876
 21
205.6225594970551924
 31
0.0
  0
ARC
  5
15C47
  8
0
 10
3466.1132657923358238
 20
205.5794131536383134
 30
0.0
 40
0.0505042476952422
 50
89.4214153116632531
 51
121.3162800236859056
  0
ARC
  5
15C48
  8
0
 10
3466.1147715690658515
 20
205.7285213491279876
 30
0.0
 40
0.0986115506822524
 50
269.4214153116632815
 51
286.0863427150782741
  0
ARC
  5
15C49
  8
0
 10
3466.1337372987081835
 20
205.6627542039333889
 30
0.0
 40
0.0301643718655757
 50
286.0863427150782741
 51
306.8395885560040028
  0
LINE
  5
15C4A
  8
0
 10
3466.1518231538930195
 20
205.6386131357654108
 30
0.0
 11
3466.1977252988581313
 21
205.6718438700571028
 31
0.0
  0
ARC
  5
15C4B
  8
0
 10
3466.3593400838308298
 20
205.4486157060447908
 30
0.0
 40
0.2755905512
 50
55.7359194725780611
 51
125.9025575593652064
  0
ARC
  5
15C4C
  8
0
 10
3463.1274878129138415
 20
200.704511432510202
 30
0.0
 40
6.0159210694887939
 50
39.0462097852220467
 51
55.7359194725780611
  0
ARC
  5
15C4D
  8
0
 10
3462.5855968491327985
 20
200.2649726767795926
 30
0.0
 40
6.7136603721063484
 50
17.1100961973651202
 51
39.0462097852220467
  0
ARC
  5
15C4E
  8
0
 10
3468.7453246327950183
 20
202.1611405854528982
 30
0.0
 40
0.2686856548009739
 50
304.8616570395441272
 51
17.1100961973651202
  0
LINE
  5
15C4F
  8
0
 10
3468.8989045176808759
 20
201.940674714954298
 30
0.0
 11
3468.8530038091180359
 21
201.9074450206279892
 31
0.0
  0
ARC
  5
15C50
  8
0
 10
3468.8819594279248122
 20
201.8713598023742861
 30
0.0
 40
0.0462663034720026
 50
128.7443686672777972
 51
157.9722376252869935
  0
ARC
  5
15C51
  8
0
 10
3468.3313425101991925
 20
202.0941338883598917
 30
0.0
 40
0.5477095238754847
 50
335.7559475172647012
 51
337.9722376252871072
  0
ARC
  5
15C52
  8
0
 10
3468.779314280575818
 20
201.8923932546071001
 30
0.0
 40
0.056407182784177
 50
312.6195537248941037
 51
335.7559475172647012
  0
LINE
  5
15C53
  8
0
 10
3468.8175091151101697
 20
201.8508851242634989
 30
0.0
 11
3468.5402064432009865
 21
201.6350653282578094
 31
0.0
  0
ARC
  5
15C54
  8
0
 10
3468.3857457810167944
 20
201.634221809043396
 30
0.0
 40
0.154462965424685
 50
210.8310116872596041
 51
0.3128927327624012
  0
LINE
  5
15C55
  8
0
 10
3465.7953990291671289
 20
205.4265117322181879
 30
0.0
 11
3468.5402064432009865
 21
201.6350653282578094
 31
0.0
  0
LINE
  5
15C56
  8
0
 10
3466.087015609764876
 20
205.6225594970551924
 30
0.0
 11
3468.8175091151101697
 21
201.8508851242634989
 31
0.0
  0
LINE
  5
15C57
  8
0
 10
3468.8530038091180359
 20
201.9074450206279892
 30
0.0
 11
3466.1518231538930195
 21
205.6386131357654108
 31
0.0
  0
LINE
  5
15C58
  8
0
 10
3466.514499781565064
 20
205.6763779068377005
 30
0.0
 11
3469.0021185799619161
 21
202.2401902520815895
 31
0.0
  0
LINE
  5
15C59
  8
0
 10
3467.7996816454087821
 20
204.494222649201788
 30
0.0
 11
3468.0202667597750406
 21
204.5700599414828105
 31
0.0
  0
ARC
  5
15C5A
  8
0
 10
3468.5034055662467836
 20
203.1608130600729964
 30
0.0
 40
1.4897650415694379
 50
19.7624050949610286
 51
108.9234965002853954
  0
ARC
  5
15C5B
  8
0
 10
2822.6262946841980011
 20
-32.3026599877158915
 30
0.0
 40
688.9490490758475971
 50
19.9705492656017007
 51
20.0294507373540291
  0
ARC
  5
15C5C
  8
0
 10
3470.1846475848901719
 20
203.0124284748632135
 30
0.0
 40
0.0393479742105498
 50
199.9705492656001979
 51
286.68163578294741
  0
LINE
  5
15C5D
  8
0
 10
3470.2344822033151104
 20
202.9887637612870037
 30
0.0
 11
3469.310995963095138
 21
202.6526422580641906
 31
0.0
  0
ARC
  5
15C5E
  8
0
 10
3470.2683078296458916
 20
202.8963335369157903
 30
0.0
 40
0.0984251968451508
 50
317.1575424036117283
 51
110.1005289091558978
  0
ARC
  5
15C5F
  8
0
 10
3470.4646520517089812
 20
202.7267891799812105
 30
0.0
 40
0.1610898559186878
 50
140.4303775796830962
 51
182.9404842111048026
  0
ARC
  5
15C60
  8
0
 10
3470.6278068694718968
 20
202.7223982132342996
 30
0.0
 40
0.3240557181223205
 50
180.6847454838589044
 51
201.8242481025212101
  0
ARC
  5
15C61
  8
0
 10
3485.5940746250771554
 20
205.5374932134926098
 30
0.0
 40
16.4162519204671113
 50
192.5375276757326048
 51
207.0982734456451908
  0
ARC
  5
15C62
  8
0
 10
3463.0092562769868891
 20
193.8858468665831936
 30
0.0
 40
8.9972879136742012
 50
24.8172450453594493
 51
27.6383715773822196
  0
ARC
  5
15C63
  8
0
 10
3470.5245070913501877
 20
197.379439843802686
 30
0.0
 40
0.7099068974510773
 50
14.4044959796171206
 51
23.4754987529007906
  0
ARC
  5
15C64
  8
0
 10
3471.0901148244129217
 20
197.5201708313603035
 30
0.0
 40
0.1271467924341203
 50
341.2426122538155937
 51
16.3862951700050914
  0
ARC
  5
15C65
  8
0
 10
3471.163683507892074
 20
197.5007912187057002
 30
0.0
 40
0.0515276726102231
 50
297.1709172442588169
 51
335.3315847403467274
  0
ARC
  5
15C66
  8
0
 10
3471.2330917323688482
 20
197.3678710067522957
 30
0.0
 40
0.0984251969065317
 50
117.7829576419590012
 51
289.9999999979111749
  0
LINE
  5
15C67
  8
0
 10
3471.2667551323188491
 20
197.2753815755187077
 30
0.0
 11
3472.1927160074387757
 21
197.6124037721841944
 31
0.0
  0
ARC
  5
15C68
  8
0
 10
3455.9065695346389475
 20
194.7321250300811073
 30
0.0
 40
16.4162519204671113
 50
12.9017265573034798
 51
27.4624723272106905
  0
ARC
  5
15C69
  8
0
 10
3480.6970780329997979
 20
200.3236874952935977
 30
0.0
 40
8.9972879136742012
 50
192.3616284255647031
 51
195.1827549575955061
  0
ARC
  5
15C6A
  8
0
 10
3472.6944236290769368
 20
198.1692248744406868
 30
0.0
 40
0.7099068974510773
 50
196.5245012500500934
 51
205.5955040233372131
  0
ARC
  5
15C6B
  8
0
 10
3472.1706828330920871
 20
197.9134654226508871
 30
0.0
 40
0.1271467924341203
 50
203.6137048329431991
 51
238.7573877491199994
  0
ARC
  5
15C6C
  8
0
 10
3472.1267829268231253
 20
197.851330739863613
 30
0.0
 40
0.0515276726102231
 50
244.6684152626100968
 51
282.8290827586865817
  0
ARC
  5
15C6D
  8
0
 10
3472.1590526074828631
 20
197.7048932034159066
 30
0.0
 40
0.0984251969065317
 50
290.0000000050350764
 51
102.2170423609824041
  0
ARC
  5
15C6E
  8
0
 10
3463.8697698578148447
 20
200.7250469467460903
 30
0.0
 40
5.8347253358003037
 50
12.3587873167680797
 51
15.6278716831477702
  0
ARC
  5
15C6F
  8
0
 10
3469.2318259711159953
 20
202.2249720202015908
 30
0.0
 40
0.266833365927648
 50
15.6278716831477702
 51
46.825111696625207
  0
ARC
  5
15C70
  8
0
 10
3469.2966569508098473
 20
202.2940706656254974
 30
0.0
 40
0.1720827525920712
 50
46.825111696625207
 51
78.0685869949887348
  0
ARC
  5
15C71
  8
0
 10
3469.3444970324840142
 20
202.5600939045694133
 30
0.0
 40
0.0984251969000009
 50
109.8994707626751932
 51
262.842457467053805
  0
ARC
  5
15C72
  8
0
 10
3476.281137587423018
 20
205.3215420579469139
 30
0.0
 40
6.5458641913247169
 50
204.5489647263974007
 51
207.4628122592687021
  0
ARC
  5
15C73
  8
0
 10
3469.333912412121208
 20
202.7028080873363933
 30
0.0
 40
0.0393710334000017
 50
293.3795108607985753
 51
20.0000000014758186
  0
LINE
  5
15C74
  8
0
 10
3469.3709090816801108
 20
202.7162737738237013
 30
0.0
 11
3469.1286711932630169
 21
203.38181690233111
 31
0.0
  0
ARC
  5
15C75
  8
0
 10
3468.5039013976570459
 20
203.1618221486521918
 30
0.0
 40
0.6623707339159541
 50
19.3982521440977287
 51
108.0699694558527995
  0
LINE
  5
15C76
  8
0
 10
3469.3322334478489211
 20
202.4624357053401127
 30
0.0
 11
3470.3404757607650026
 21
202.8294058961988071
 31
0.0
  0
LINE
  5
15C77
  8
0
 10
3472.1382243087628012
 20
197.8010893642461951
 30
0.0
 11
3471.1872134345780978
 21
197.4549497135517981
 31
0.0
  0
LINE
  5
15C78
  8
0
 10
3470.6908004892179633
 20
168.4720897350237863
 30
0.0
 11
3472.3837138750182021
 21
168.4720897350237863
 31
0.0
  0
LINE
  5
15C79
  8
0
 10
3470.7104855286179372
 20
168.5390188688238027
 30
0.0
 11
3470.7900653615979536
 21
168.5390188688238027
 31
0.0
  0
LINE
  5
15C7A
  8
0
 10
3469.8940731404500184
 20
167.5272264265936997
 30
0.0
 11
3472.3837138750182021
 21
167.5272264265936997
 31
0.0
  0
LINE
  5
15C7B
  8
0
 10
3472.4427689267167807
 20
165.8736645382238066
 30
0.0
 11
3472.4427689267167807
 21
167.0547669003238127
 31
0.0
  0
LINE
  5
15C7C
  8
0
 10
3472.4230839538167857
 20
165.8736645382238066
 30
0.0
 11
3472.4230839538167857
 21
167.0547669003238127
 31
0.0
  0
LINE
  5
15C7D
  8
0
 10
3472.4230839538167857
 20
166.0409873727737988
 30
0.0
 11
3472.3837138750182021
 21
166.0409873727737988
 31
0.0
  0
LINE
  5
15C7E
  8
0
 10
3472.9368191717749141
 20
167.1039794987738105
 30
0.0
 11
3473.5726902530182088
 21
167.1039794987738105
 31
0.0
  0
LINE
  5
15C7F
  8
0
 10
3472.4230839538167857
 20
167.0547669003238127
 30
0.0
 11
3472.8955248987172126
 21
167.0547669003238127
 31
0.0
  0
LINE
  5
15C80
  8
0
 10
3472.4230839538167857
 20
166.8874440657737921
 30
0.0
 11
3472.3837138750182021
 21
166.8874440657737921
 31
0.0
  0
LINE
  5
15C81
  8
0
 10
3472.9368191717749141
 20
167.1039794987738105
 30
0.0
 11
3472.8955248987172126
 21
167.0547669003238127
 31
0.0
  0
LINE
  5
15C82
  8
0
 10
3472.9368191717749141
 20
165.8244519397738088
 30
0.0
 11
3473.5726902530182088
 21
165.8244519397738088
 31
0.0
  0
LINE
  5
15C83
  8
0
 10
3472.4230839538167857
 20
165.8736645382238066
 30
0.0
 11
3472.8955248987172126
 21
165.8736645382238066
 31
0.0
  0
LINE
  5
15C84
  8
0
 10
3472.9368191717749141
 20
165.8244519397738088
 30
0.0
 11
3472.8955248987172126
 21
165.8736645382238066
 31
0.0
  0
LINE
  5
15C85
  8
0
 10
3468.7949343366590256
 20
168.6913109714238033
 30
0.0
 11
3468.2935951197600843
 21
168.6913109714238033
 31
0.0
  0
LINE
  5
15C86
  8
0
 10
3468.7432679459479914
 20
167.7416973200238033
 30
0.0
 11
3468.345261510470209
 21
167.7416973200238033
 31
0.0
  0
ARC
  5
15C87
  8
0
 10
3468.7942808925890859
 20
168.6612758885030985
 30
0.0
 40
0.0300421902531565
 50
37.0252324099102665
 51
88.753668098199924
  0
LINE
  5
15C88
  8
0
 10
3468.8182656880408103
 20
168.6793662943109098
 30
0.0
 11
3468.8846864905490293
 21
168.5913036284499924
 31
0.0
  0
ARC
  5
15C89
  8
0
 10
3468.8599633551261832
 20
168.5726563336031063
 30
0.0
 40
0.0309669990516527
 50
342.4252728861040964
 51
37.0252324099102665
  0
ARC
  5
15C8A
  8
0
 10
3471.7847968615060381
 20
167.7200150282548066
 30
0.0
 40
3.0156210932710779
 50
163.7612294610702008
 51
179.0274950943561123
  0
ARC
  5
15C8B
  8
0
 10
3468.7401296070611352
 20
167.7710109413754083
 30
0.0
 40
0.0294811391863038
 50
276.1108536866298095
 51
0.3634516693180523
  0
LINE
  5
15C8C
  8
0
 10
3468.6230048857091788
 20
167.5790777518913046
 30
0.0
 11
3468.6230048857091788
 21
167.7416973200238033
 31
0.0
  0
ARC
  5
15C8D
  8
0
 10
3468.2942485638300241
 20
168.6612758885030985
 30
0.0
 40
0.0300421902531565
 50
91.2463319018001044
 51
142.9747675900896979
  0
LINE
  5
15C8E
  8
0
 10
3468.2702637683769353
 20
168.6793662943109098
 30
0.0
 11
3468.2038429658700807
 21
168.5913036284499924
 31
0.0
  0
ARC
  5
15C8F
  8
0
 10
3468.2285661012938363
 20
168.5726563336031063
 30
0.0
 40
0.0309669990516527
 50
142.9747675900896979
 51
197.5747271138957899
  0
ARC
  5
15C90
  8
0
 10
3465.3037325949130718
 20
167.7200150282548066
 30
0.0
 40
3.0156210932710779
 50
0.9725049056438855
 51
16.2387705389297885
  0
ARC
  5
15C91
  8
0
 10
3468.3483998493588842
 20
167.7710109413754083
 30
0.0
 40
0.0294811391863038
 50
179.6365483306819044
 51
263.8891463133701905
  0
LINE
  5
15C92
  8
0
 10
3468.4655245707090216
 20
167.5903618688099925
 30
0.0
 11
3468.4655245707090216
 21
167.7416973200238033
 31
0.0
  0
ARC
  5
15C93
  8
0
 10
3470.7709199151317989
 20
172.4843211999433947
 30
0.0
 40
3.9451088701328909
 50
270.2782209217235732
 51
293.9439807685968162
  0
ARC
  5
15C94
  8
0
 10
3472.364025254822991
 20
168.8967120359725129
 30
0.0
 40
0.0196886204325841
 50
293.9439807685968162
 51
359.9932245722234256
  0
LINE
  5
15C95
  8
0
 10
3472.3837138751168823
 20
168.8967097077238009
 30
0.0
 11
3472.3838812285880522
 21
170.3119188712286984
 31
0.0
  0
ARC
  5
15C96
  8
0
 10
3472.3445283056112203
 20
170.3119235248504992
 30
0.0
 40
0.039352923251815
 50
359.9932245722184803
 51
86.2421644875235103
  0
ARC
  5
15C97
  8
0
 10
3479.3923090258731463
 20
277.6154272224442821
 30
0.0
 40
107.4953536549520976
 50
263.8601981347250103
 51
266.2421644875234961
  0
ARC
  5
15C98
  8
0
 10
3467.8952585661249941
 20
170.6919964038617934
 30
0.0
 40
0.0446829287424831
 50
90.1180742913965531
 51
125.7732552620527997
  0
ARC
  5
15C99
  8
0
 10
3480.829617003911153
 20
154.2230573939233125
 30
0.0
 40
20.9855993397866101
 50
128.1402967485068984
 51
128.3706402134843927
  0
ARC
  5
15C9A
  8
0
 10
3467.8292097145481421
 20
170.6467358231363107
 30
0.0
 40
0.0393690405998152
 50
131.9587600185705867
 51
176.000854129262791
  0
LINE
  5
15C9B
  8
0
 10
3467.7899365340181248
 20
170.6494814831237932
 30
0.0
 11
3467.773757657716942
 21
170.4181121238237893
 31
0.0
  0
ARC
  5
15C9C
  8
0
 10
3467.8139350001738421
 20
170.4154562105420041
 30
0.0
 40
0.0402650310097611
 50
176.2179792072535065
 51
218.3820071974953123
  0
LINE
  5
15C9D
  8
0
 10
3467.7823717062201467
 20
170.3904555866108126
 30
0.0
 11
3467.8412231971869915
 21
170.3291056371519971
 31
0.0
  0
ARC
  5
15C9E
  8
0
 10
3467.8698316548679941
 20
170.3565713812400872
 30
0.0
 40
0.0396586806287057
 50
223.8325539563145981
 51
274.7761690472834744
  0
ARC
  5
15C9F
  8
0
 10
3468.2324137523501122
 20
149.5291084503795105
 30
0.0
 40
20.7910464652165814
 50
84.5810892463798751
 51
90.9901498383616314
  0
ARC
  5
15CA0
  8
0
 10
3470.220583595565131
 20
169.7541019730319078
 30
0.0
 40
0.4737803748837872
 50
353.0270740706573065
 51
92.9917838808889172
  0
LINE
  5
15CA1
  8
0
 10
3470.69085971452796
 20
169.6965848837589874
 30
0.0
 11
3470.6908004892179633
 21
168.5587063362204958
 31
0.0
  0
ARC
  5
15CA2
  8
0
 10
3470.7104855287229839
 20
168.5587039084794014
 30
0.0
 40
0.0196850396555825
 50
179.9929337547197008
 51
269.9999996918202214
  0
LINE
  5
15CA3
  8
0
 10
3472.3837138750182021
 20
168.4720897350237863
 30
0.0
 11
3472.3837138750182021
 21
165.4383495959237962
 31
0.0
  0
ARC
  5
15CA4
  8
0
 10
3472.3443437963060205
 20
165.4383495959237962
 30
0.0
 40
0.0393700787115883
 50
249.4439547962039114
 51
0.0000000000032569
  0
LINE
  5
15CA5
  8
0
 10
3472.3305200387831064
 20
165.4014862424990895
 30
0.0
 11
3470.6116010026171352
 21
166.0418749927237911
 31
0.0
  0
ARC
  5
15CA6
  8
0
 10
3467.7587781192041803
 20
156.5274737939326997
 30
0.0
 40
9.9328962833447623
 50
73.3090293450503481
 51
84.4504482404228867
  0
ARC
  5
15CA7
  8
0
 10
3468.0424406981360335
 20
162.5439938036624028
 30
0.0
 40
3.9285773802468649
 50
80.0781319769496776
 51
92.3615835100818288
  0
ARC
  5
15CA8
  8
0
 10
3467.8237169508370243
 20
165.1823162205294864
 30
0.0
 40
1.2881731533210219
 50
87.4708612258662441
 51
118.4474963924099029
  0
ARC
  5
15CA9
  8
0
 10
3467.8327746127752107
 20
165.6069981414296137
 30
0.0
 40
0.9428291065801174
 50
131.3335249567454923
 51
155.4044255506543095
  0
ARC
  5
15CAA
  8
0
 10
3466.9395969036768292
 20
166.0169436649453871
 30
0.0
 40
0.0399452218534232
 50
275.3417021783055816
 51
333.9692607761185172
  0
LINE
  5
15CAB
  8
0
 10
3466.9433156157501799
 20
165.977171917065192
 30
0.0
 11
3465.7768908545172053
 21
166.5033540152238061
 31
0.0
  0
ARC
  5
15CAC
  8
0
 10
3465.7932379595431485
 20
166.5391727107430881
 30
0.0
 40
0.0393726655360587
 50
180.0013392644918895
 51
245.4687688965092889
  0
ARC
  5
15CAD
  8
0
 10
3467.9728949390600974
 20
165.6928592641386899
 30
0.0
 40
2.3749394640125812
 50
140.7941696876123956
 51
159.1237209922531974
  0
ARC
  5
15CAE
  8
0
 10
3467.1282603283198114
 20
166.2466820838097021
 30
0.0
 40
1.3743709082789159
 50
99.7150449115723347
 51
136.4228644671748043
  0
ARC
  5
15CAF
  8
0
 10
3468.1278996277910665
 20
158.5309002097567941
 30
0.0
 40
9.153670547768046
 50
95.5795214023486182
 51
97.7321922562057352
  0
ARC
  5
15CB0
  8
0
 10
3466.9002052365672171
 20
144.6403451209093873
 30
0.0
 40
23.0033365698708714
 50
85.6258172329564786
 51
89.158818339987846
  0
ARC
  5
15CB1
  8
0
 10
3470.1474909603239212
 20
189.4350778249508096
 30
0.0
 40
21.9093170474099708
 50
266.0930318536533719
 51
269.3372639009342038
  0
ARC
  5
15CB2
  8
0
 10
3472.5293037949600148
 20
168.4883916040321878
 30
0.0
 40
1.740094807164003
 50
178.3327701538443932
 51
180.5367764743558041
  0
LINE
  5
15CB3
  8
0
 10
3470.6908004892179633
 20
168.4720897350237863
 30
0.0
 11
3470.6908004892179633
 21
167.7240582389237886
 31
0.0
  0
ARC
  5
15CB4
  8
0
 10
3470.4939511790507822
 20
167.7240582389237886
 30
0.0
 40
0.1968493101670425
 50
270.7639520162583153
 51
0.0
  0
ARC
  5
15CB5
  8
0
 10
3471.533179189780185
 20
168.5024112747113065
 30
0.0
 40
0.7522506694840587
 50
357.6899096237763729
 51
24.4793634967970917
  0
LINE
  5
15CB6
  8
0
 10
3466.7493324681040576
 20
166.0646790268488076
 30
0.0
 11
3466.7313108142179772
 21
166.0251341166238035
 31
0.0
  0
LINE
  5
15CB7
  8
0
 10
3466.7313108142179772
 20
166.0251341166238035
 30
0.0
 11
3465.9431511835950914
 21
166.3843133186981049
 31
0.0
  0
LINE
  5
15CB8
  8
0
 10
3466.6711240951549371
 20
166.0525623391415877
 30
0.0
 11
3466.6465991160180238
 21
166.0291269303237982
 31
0.0
  0
LINE
  5
15CB9
  8
0
 10
3466.6465991160180238
 20
166.0291269303237982
 30
0.0
 11
3466.0017397627020728
 21
166.3229966815679006
 31
0.0
  0
LINE
  5
15CBA
  8
0
 10
3466.6179386478288507
 20
166.042187832075598
 30
0.0
 11
3466.5501183738169857
 21
165.9930542589237916
 31
0.0
  0
LINE
  5
15CBB
  8
0
 10
3466.5501183738169857
 20
165.9930542589237916
 30
0.0
 11
3466.0378175105188348
 21
166.2265227545813104
 31
0.0
  0
LINE
  5
15CBC
  8
0
 10
3466.0378175105188348
 20
166.2265227545813104
 30
0.0
 11
3466.030404818624902
 21
166.3099424240436974
 31
0.0
  0
LINE
  5
15CBD
  8
0
 10
3465.9597978329138641
 20
166.4208434402951013
 30
0.0
 11
3465.9431489639141546
 21
166.3843084477360037
 31
0.0
  0
LINE
  5
15CBE
  8
0
 10
3466.00333602199089
 20
166.356880969142594
 30
0.0
 11
3466.0017397627020728
 21
166.3229966815679859
 31
0.0
  0
LINE
  5
15CBF
  8
0
 10
3466.0304002308907911
 20
166.3099357798161861
 30
0.0
 11
3466.0378148094901007
 21
166.2265168275228859
 31
0.0
  0
ARC
  5
15CC0
  8
0
 10
3467.8436382264198983
 20
166.0829915790739904
 30
0.0
 40
0.3895511335425999
 50
65.7812528713121765
 51
83.0151459105741054
  0
ARC
  5
15CC1
  8
0
 10
3468.0476103347641583
 20
166.5364532204947068
 30
0.0
 40
0.1076732435971974
 50
245.7812528713122049
 51
268.8968155104860784
  0
LINE
  5
15CC2
  8
0
 10
3468.0455373005170259
 20
166.4287999348237861
 30
0.0
 11
3468.7062925899981565
 21
166.4160760468822957
 31
0.0
  0
LINE
  5
15CC3
  8
0
 10
3473.3973275977900812
 20
172.8861550220516961
 30
0.0
 11
3472.9615279167701374
 21
172.8861550220516961
 31
0.0
  0
LINE
  5
15CC4
  8
0
 10
3472.9418599436271506
 20
172.905020562551698
 30
0.0
 11
3472.8837138750682243
 21
174.3027535135238111
 31
0.0
  0
ARC
  5
15CC5
  8
0
 10
3472.9615279167701374
 20
172.9058400614516131
 30
0.0
 40
0.0196850393999978
 50
182.3859439927977917
 51
270.0
  0
LINE
  5
15CC6
  8
0
 10
3474.6750524577178112
 20
167.6501285324737864
 30
0.0
 11
3474.6750524577178112
 21
165.2783029060738045
 31
0.0
  0
LINE
  5
15CC7
  8
0
 10
3474.389685447517877
 20
165.2899661332737935
 30
0.0
 11
3474.389685447517877
 21
167.6384653052737974
 31
0.0
  0
LINE
  5
15CC8
  8
0
 10
3473.5726902530182088
 20
165.6681008864206035
 30
0.0
 11
3473.5726902530182088
 21
167.2603305521269021
 31
0.0
  0
LINE
  5
15CC9
  8
0
 10
3474.6750524577178112
 20
165.2783029060738045
 30
0.0
 11
3474.411507117903966
 21
165.2829031070739916
 31
0.0
  0
ARC
  5
15CCA
  8
0
 10
3474.4121942205160849
 20
165.3222671894997973
 30
0.0
 40
0.0393700786794112
 50
235.1295482353982038
 51
269.000000003855007
  0
ARC
  5
15CCB
  8
0
 10
3473.1514604640537982
 20
163.5130600811679926
 30
0.0
 40
2.1657784345780349
 50
55.1295482353981896
 51
77.9519804900027395
  0
ARC
  5
15CCC
  8
0
 10
3473.6116654099209882
 20
165.6692666258445001
 30
0.0
 40
0.0389925865274882
 50
181.7131949605904992
 51
257.9519804900028248
  0
LINE
  5
15CCD
  8
0
 10
3474.6750524577178112
 20
167.6501285324737864
 30
0.0
 11
3474.411507117903966
 21
167.6455283314735141
 31
0.0
  0
ARC
  5
15CCE
  8
0
 10
3474.4121942205160849
 20
167.6061642490477936
 30
0.0
 40
0.0393700786794112
 50
90.9999999961450072
 51
124.8704517646017962
  0
ARC
  5
15CCF
  8
0
 10
3473.1514604640537982
 20
169.415371357379513
 30
0.0
 40
2.1657784345780349
 50
282.0480195099972889
 51
304.8704517646019099
  0
ARC
  5
15CD0
  8
0
 10
3473.6116654099209882
 20
167.2591648127030055
 30
0.0
 40
0.0389925865274882
 50
102.0480195099972036
 51
178.2868050394093871
  0
LINE
  5
15CD1
  8
0
 10
3470.8356258393150711
 20
167.5272264265936997
 30
0.0
 11
3470.8356258393150711
 21
165.958413827786103
 31
0.0
  0
ARC
  5
15CD2
  8
0
 10
3471.0607959490389476
 20
164.9633342531951996
 30
0.0
 40
2.9042918274056202
 50
189.4855009208150136
 51
233.9528582668691001
  0
ARC
  5
15CD3
  8
0
 10
3471.1088468127909437
 20
164.9544218932142883
 30
0.0
 40
2.925693767323271
 50
233.0892803849397978
 51
314.4436773747124221
  0
ARC
  5
15CD4
  8
0
 10
3471.4890062972081068
 20
164.5321340896148001
 30
0.0
 40
2.3581403409834212
 50
315.0335826207565901
 51
353.6479349917271975
  0
ARC
  5
15CD5
  8
0
 10
3453.5802080593912251
 20
166.4072467488396114
 30
0.0
 40
20.3647917615026017
 50
353.9793170505745934
 51
357.5465502132199163
  0
ARC
  5
15CD6
  8
0
 10
3471.0300239225798578
 20
164.9429487782853982
 30
0.0
 40
2.3358790385746002
 50
191.3132464515512936
 51
232.0091190090037969
  0
ARC
  5
15CD7
  8
0
 10
3471.0936621796490726
 20
164.9301171689411092
 30
0.0
 40
2.3656503734487249
 50
230.6029606436540007
 51
295.5995536491972189
  0
ARC
  5
15CD8
  8
0
 10
3471.4681101741339262
 20
164.5161911136798096
 30
0.0
 40
1.837444589522933
 50
290.6403020915319075
 51
349.3996335235888182
  0
ARC
  5
15CD9
  8
0
 10
3460.3545191426419478
 20
166.020652599977609
 30
0.0
 40
13.0503942796536094
 50
351.8837831726993954
 51
359.1385782649680891
  0
ARC
  5
15CDA
  8
0
 10
3472.9055838211420451
 20
172.0260098314055028
 30
0.0
 40
1.1815086510271591
 50
185.5850685591090041
 51
222.3510102435392923
  0
ARC
  5
15CDB
  8
0
 10
3474.9443667389418806
 20
173.8978606244401135
 30
0.0
 40
3.9492571806534502
 50
222.4944731289747892
 51
241.1939576830220062
  0
ARC
  5
15CDC
  8
0
 10
3472.5567008316011197
 20
169.5682782321568993
 30
0.0
 40
0.9950704501028832
 50
359.4916597798903126
 51
60.8476751337726824
  0
ARC
  5
15CDD
  8
0
 10
3440.7638790437367788
 20
168.7015522436039987
 30
0.0
 40
32.7990746448330981
 50
357.2081405072382267
 51
1.4988081349937881
  0
ARC
  5
15CDE
  8
0
 10
3436.9598414824981774
 20
168.7400950796796053
 30
0.0
 40
37.1392448668135771
 50
358.0205747348775844
 51
1.141368925991151
  0
ARC
  5
15CDF
  8
0
 10
3472.5463245869591447
 20
169.5426507516064021
 30
0.0
 40
1.5466671108663821
 50
357.6741833066603817
 51
50.8846756908071072
  0
ARC
  5
15CE0
  8
0
 10
3511.7265692983310146
 20
225.2597545294522945
 30
0.0
 40
66.5709702845729225
 50
234.1024372367324133
 51
234.9779974598745866
  0
ARC
  5
15CE1
  8
0
 10
3473.3149805561838548
 20
172.2371714254898905
 30
0.0
 40
1.0973045384305049
 50
197.2912169481134015
 51
235.5016497024741113
  0
ARC
  5
15CE2
  8
0
 10
3443.6370306439239357
 20
187.5926798113964082
 30
0.0
 40
29.5214035650831512
 50
10.2766583128860898
 51
16.4901966091166905
  0
ARC
  5
15CE3
  8
0
 10
3429.6285916888409702
 20
185.0528099205168928
 30
0.0
 40
43.7582326018062133
 50
0.2310621053706324
 51
10.2766583128860898
  0
ARC
  5
15CE4
  8
0
 10
2889.2206626408628836
 20
182.8734439735611943
 30
0.0
 40
584.1705561232579385
 50
359.4477604334520038
 51
0.2310621053706324
  0
ARC
  5
15CE5
  8
0
 10
3446.0097722581008384
 20
188.2367996683790921
 30
0.0
 40
27.6537385263530986
 50
9.6109056173624676
 51
16.6809717857575386
  0
ARC
  5
15CE6
  8
0
 10
3430.2191163477400551
 20
185.0472398627343864
 30
0.0
 40
43.7582326018062133
 50
0.2310621053706324
 51
10.2766583128860898
  0
ARC
  5
15CE7
  8
0
 10
2890.69107869638583
 20
182.8684150457175974
 30
0.0
 40
583.2906697071429107
 50
359.4480683957236806
 51
0.2313575066277143
  0
LINE
  5
15CE8
  8
0
 10
3472.1935551807350748
 20
197.4641052976325
 30
0.0
 11
3472.1511697802970957
 21
197.5972821821574996
 31
0.0
  0
LINE
  5
15CE9
  8
0
 10
3471.360446462343134
 20
197.1636479536371951
 30
0.0
 11
3471.3083013594559816
 21
197.2905031655585049
 31
0.0
  0
ARC
  5
15CEA
  8
0
 10
3634.873384191101195
 20
176.2746193856280001
 30
0.0
 40
160.9216527457446091
 50
179.6528408260988101
 51
181.1426315012614054
  0
ARC
  5
15CEB
  8
0
 10
3469.5274855419779669
 20
172.8709269926121124
 30
0.0
 40
4.4604961183135696
 50
344.9159373863860196
 51
2.5016930962199351
  0
ARC
  5
15CEC
  8
0
 10
3473.0113812882200364
 20
171.9332189623733029
 30
0.0
 40
0.8526133687869046
 50
313.9361028890276089
 51
344.8329086871403888
  0
ARC
  5
15CED
  8
0
 10
3473.3861320106020685
 20
171.5802797064708045
 30
0.0
 40
0.3393541457934346
 50
197.2262416395631135
 51
309.7156772203605897
  0
ARC
  5
15CEE
  8
0
 10
3474.9645434236049368
 20
171.9397048708418083
 30
0.0
 40
1.9573450717123271
 50
176.1265029378022859
 51
193.5900353596059915
  0
ARC
  5
15CEF
  8
0
 10
3531.5558404919420354
 20
170.3629835412480986
 30
0.0
 40
58.5691082513273713
 50
177.5309196993418936
 51
178.3279688558911005
  0
ARC
  5
15CF0
  8
0
 10
3634.2827834728009293
 20
176.2680327327364012
 30
0.0
 40
160.9216527457446091
 50
179.6528408260988101
 51
181.1426315012614054
  0
ARC
  5
15CF1
  8
0
 10
3468.9368848236790654
 20
172.8643403397205986
 30
0.0
 40
4.4604961183135696
 50
344.9159373863860196
 51
2.5016930962199351
  0
ARC
  5
15CF2
  8
0
 10
3472.4207805699188611
 20
171.9266323094817039
 30
0.0
 40
0.8526133687869046
 50
322.3011565353825745
 51
344.8329086871403888
  0
ENDSEC
  0
EOF
