  0
SECTION
  2
HEADER
  9
$ACADVER
  1
AC1009
  9
$INSBASE
 10
496.6256390925726123
 20
37.6964517463833104
 30
0.0
  9
$EXTMIN
 10
488.6203733961514786
 20
10.0825399524253196
 30
-0.0015258207003583
  9
$EXTMAX
 10
504.116966889330115
 20
37.6935588388199108
 30
0.0000000349246037
  9
$LIMMIN
 10
0.0
 20
0.0
  9
$LIMMAX
 10
22.0
 20
17.0
  9
$ORTHOMODE
 70
     0
  9
$REGENMODE
 70
     1
  9
$FILLMODE
 70
     1
  9
$QTEXTMODE
 70
     0
  9
$MIRRTEXT
 70
     0
  9
$DRAGMODE
 70
     2
  9
$LTSCALE
 40
1.2099999999999991
  9
$OSMODE
 70
  4095
  9
$ATTMODE
 70
     1
  9
$TEXTSIZE
 40
0.2
  9
$TRACEWID
 40
0.05
  9
$TEXTSTYLE
  7
STANDARD
  9
$CLAYER
  8
0
  9
$CELTYPE
  6
BYLAYER
  9
$CECOLOR
 62
   256
  9
$DIMSCALE
 40
1.0
  9
$DIMASZ
 40
0.1875
  9
$DIMEXO
 40
0.0625
  9
$DIMDLI
 40
0.38
  9
$DIMRND
 40
0.0
  9
$DIMDLE
 40
0.0
  9
$DIMEXE
 40
0.125
  9
$DIMTP
 40
1.5
  9
$DIMTM
 40
1.5
  9
$DIMTXT
 40
1.5
  9
$DIMCEN
 40
0.09
  9
$DIMTSZ
 40
0.0
  9
$DIMTOL
 70
     0
  9
$DIMLIM
 70
     0
  9
$DIMTIH
 70
     1
  9
$DIMTOH
 70
     1
  9
$DIMSE1
 70
     0
  9
$DIMSE2
 70
     0
  9
$DIMTAD
 70
     0
  9
$DIMZIN
 70
     4
  9
$DIMBLK
  1

  9
$DIMASO
 70
     1
  9
$DIMSHO
 70
     1
  9
$DIMPOST
  1

  9
$DIMAPOST
  1

  9
$DIMALT
 70
     0
  9
$DIMALTD
 70
     2
  9
$DIMALTF
 40
25.3999999999999986
  9
$DIMLFAC
 40
1.0
  9
$DIMTOFL
 70
     0
  9
$DIMTVP
 40
0.0
  9
$DIMTIX
 70
     0
  9
$DIMSOXD
 70
     0
  9
$DIMSAH
 70
     0
  9
$DIMBLK1
  1

  9
$DIMBLK2
  1

  9
$DIMSTYLE
  2
STANDARD
  9
$DIMCLRD
 70
     0
  9
$DIMCLRE
 70
     0
  9
$DIMCLRT
 70
     0
  9
$DIMTFAC
 40
1.0
  9
$DIMGAP
 40
0.09
  9
$LUNITS
 70
     2
  9
$LUPREC
 70
     4
  9
$SKETCHINC
 40
0.1
  9
$FILLETRAD
 40
0.0
  9
$AUNITS
 70
     0
  9
$AUPREC
 70
     0
  9
$MENU
  1
.
  9
$ELEVATION
 40
0.0
  9
$PELEVATION
 40
0.0
  9
$THICKNESS
 40
0.0
  9
$LIMCHECK
 70
     0
  9
$BLIPMODE
 70
     0
  9
$CHAMFERA
 40
0.0
  9
$CHAMFERB
 40
0.0
  9
$SKPOLY
 70
     0
  9
$TDCREATE
 40
2457827.4934837957844138
  9
$TDUPDATE
 40
2459985.4855208331719041
  9
$TDINDWG
 40
0.3929186343
  9
$TDUSRTIMER
 40
0.3929186343
  9
$USRTIMER
 70
     1
  9
$ANGBASE
 50
0.0
  9
$ANGDIR
 70
     0
  9
$PDMODE
 70
     0
  9
$PDSIZE
 40
0.3125
  9
$PLINEWID
 40
0.0
  9
$COORDS
 70
     1
  9
$SPLFRAME
 70
     0
  9
$SPLINETYPE
 70
     6
  9
$SPLINESEGS
 70
     8
  9
$ATTDIA
 70
     1
  9
$ATTREQ
 70
     1
  9
$HANDLING
 70
     1
  9
$HANDSEED
  5
6754
  9
$SURFTAB1
 70
     6
  9
$SURFTAB2
 70
     6
  9
$SURFTYPE
 70
     6
  9
$SURFU
 70
     6
  9
$SURFV
 70
     6
  9
$UCSNAME
  2

  9
$UCSORG
 10
0.0
 20
0.0
 30
0.0
  9
$UCSXDIR
 10
1.0
 20
0.0
 30
0.0
  9
$UCSYDIR
 10
0.0
 20
1.0
 30
0.0
  9
$PUCSNAME
  2

  9
$PUCSORG
 10
0.0
 20
0.0
 30
0.0
  9
$PUCSXDIR
 10
1.0
 20
0.0
 30
0.0
  9
$PUCSYDIR
 10
0.0
 20
1.0
 30
0.0
  9
$USERI1
 70
     0
  9
$USERI2
 70
     0
  9
$USERI3
 70
     0
  9
$USERI4
 70
     0
  9
$USERI5
 70
     0
  9
$USERR1
 40
0.0
  9
$USERR2
 40
0.0
  9
$USERR3
 40
0.0
  9
$USERR4
 40
0.0
  9
$USERR5
 40
0.0
  9
$WORLDVIEW
 70
     1
  9
$SHADEDGE
 70
     3
  9
$SHADEDIF
 70
    70
  9
$TILEMODE
 70
     1
  9
$MAXACTVP
 70
    48
  9
$PLIMCHECK
 70
     0
  9
$PEXTMIN
 10
1.0000000000000000E+20
 20
1.0000000000000000E+20
 30
1.0000000000000000E+20
  9
$PEXTMAX
 10
-1.0000000000000000E+20
 20
-1.0000000000000000E+20
 30
-1.0000000000000000E+20
  9
$PLIMMIN
 10
0.0
 20
0.0
  9
$PLIMMAX
 10
12.0
 20
9.0
  9
$UNITMODE
 70
     0
  9
$VISRETAIN
 70
     1
  9
$PLINEGEN
 70
     0
  9
$PSLTSCALE
 70
     1
  0
ENDSEC
  0
SECTION
  2
TABLES
  0
TABLE
  2
VPORT
 70
     1
  0
VPORT
  2
*ACTIVE
 70
     0
 10
0.0
 20
0.0
 11
1.0
 21
1.0
 12
285.3897425304360809
 22
16.6856002100620486
 13
0.0
 23
0.0
 14
1.0
 24
1.0
 15
0.0
 25
0.0
 16
-0.0000000000000284
 26
0.0
 36
157.2215818301446859
 17
210.9789276123046875
 27
7.2024491855605604
 37
0.0
 40
27.8056911699649412
 41
1.8858823529411759
 42
50.0
 43
0.0
 44
0.0
 50
0.0
 51
0.0
 71
     0
 72
   100
 73
     1
 74
     1
 75
     0
 76
     0
 77
     0
 78
     0
  0
ENDTAB
  0
TABLE
  2
LTYPE
 70
     2
  0
LTYPE
  2
CONTINUOUS
 70
     0
  3
Solid line
 72
    65
 73
     0
 40
0.0
  0
LTYPE
  2
PHANTOM2
 70
     0
  3
___ _ _ ___ _ _ ___ _ _ ___ _ _
 72
    65
 73
     6
 40
1.25
 49
0.625
 49
-0.125
 49
0.125
 49
-0.125
 49
0.125
 49
-0.125
  0
ENDTAB
  0
TABLE
  2
LAYER
 70
     2
  0
LAYER
  2
0
 70
     0
 62
     7
  6
CONTINUOUS
  0
LAYER
  2
DEFPOINTS
 70
     0
 62
     7
  6
CONTINUOUS
  0
ENDTAB
  0
TABLE
  2
STYLE
 70
     1
  0
STYLE
  2
STANDARD
 70
     0
 40
0.0
 41
0.8
 50
0.0
 71
     0
 42
0.2
  3
txt
  4

  0
ENDTAB
  0
TABLE
  2
VIEW
 70
     0
  0
ENDTAB
  0
TABLE
  2
UCS
 70
     0
  0
ENDTAB
  0
TABLE
  2
APPID
 70
     9
  0
APPID
  2
ACAD
 70
     0
  0
APPID
  2
ACAD_MLEADERVER
 70
     0
  0
APPID
  2
ACAD_EXEMPT_FROM_CAD_STANDARDS
 70
     0
  0
APPID
  2
ACAD_NAV_VCDISPLAY
 70
     0
  0
APPID
  2
ACADANNOMONITORALERTICONDI
 70
     0
  0
APPID
  2
ACAD_DSTYLE_DIMJAG
 70
     0
  0
APPID
  2
ACAD_DSTYLE_DIMTALN
 70
     0
  0
APPID
  2
ACDBATTR
 70
     0
  0
APPID
  2
DCO15
 70
     0
  0
ENDTAB
  0
TABLE
  2
DIMSTYLE
 70
     1
  0
DIMSTYLE
  2
STANDARD
 70
     0
  3

  4

  5

  6

  7

 40
1.0
 41
0.1875
 42
0.0625
 43
0.38
 44
0.125
 45
0.0
 46
0.0
 47
1.5
 48
1.5
140
1.5
141
0.09
142
0.0
143
25.3999999999999986
144
1.0
145
0.0
146
1.0
147
0.09
 71
     0
 72
     0
 73
     1
 74
     1
 75
     0
 76
     0
 77
     0
 78
     4
170
     0
171
     2
172
     0
173
     0
174
     0
175
     0
176
     0
177
     0
178
     0
  0
ENDTAB
  0
ENDSEC
  0
SECTION
  2
BLOCKS
  0
BLOCK
  8
0
  2
$MODEL_SPACE
 70
     0
 10
0.0
 20
0.0
 30
0.0
  3
$MODEL_SPACE
  1

  0
ENDBLK
  5
21
  8
0
  0
BLOCK
 67
     1
  8
0
  2
$PAPER_SPACE
 70
     0
 10
0.0
 20
0.0
 30
0.0
  3
$PAPER_SPACE
  1

  0
ENDBLK
  5
1D
 67
     1
  8
0
  0
ENDSEC
  0
SECTION
  2
ENTITIES
  0
ATTDEF
  5
4EF9
  8
DEFPOINTS
 10
496.6198149870610905
 20
37.6913807052322198
 30
0.0
 40
0.001
  1
K-31191K
  3

  2
MODELNUMBER
 70
     0
1001
ACDBATTR
1070
     0
1070
     1
  0
ATTDEF
  5
4EFA
  8
DEFPOINTS
 10
496.6198149870610905
 20
37.6897140385655405
 30
0.0
 40
0.001
  1
VEIL
  3

  2
TRADENAME
 70
     0
1001
ACDBATTR
1070
     0
1070
     1
  0
ATTDEF
  5
4EFB
  8
DEFPOINTS
 10
496.6198149870610905
 20
37.6880473718988611
 30
0.0
 40
0.001
  1
TOILET
  3

  2
PRODUCT
 70
     0
1001
ACDBATTR
1070
     0
1070
     1
  0
LINE
  5
661D
  8
0
 10
503.7210356368379962
 20
36.8564517463832999
 30
0.0
 11
489.5302425483134243
 21
36.8564517463832999
 31
0.0
  0
ARC
  5
661E
  8
0
 10
489.5303340673348771
 20
36.4625888642479197
 30
0.0
 40
0.3938628927681953
 50
90.0133133986866767
 51
179.982412417153995
  0
ARC
  5
661F
  8
0
 10
1164.4513097912649755
 20
14.4443348552715598
 30
0.0
 40
675.2732915634749133
 50
178.5204102000556077
 51
178.7679135826246863
  0
ARC
  5
6620
  8
0
 10
497.1051834079818832
 20
15.9403187103755908
 30
0.0
 40
5.9649264693310853
 50
219.5256661074861029
 51
231.5595740984159079
  0
ARC
  5
6621
  8
0
 10
502.196964366009297
 20
20.1645165053479509
 30
0.0
 40
12.5808112009811293
 50
204.225289149360691
 51
219.6065502727626892
  0
ARC
  5
6622
  8
0
 10
501.8599359722268787
 20
20.2222689146946806
 30
0.0
 40
12.2986416926146607
 50
191.8610116907682084
 51
205.114942691176708
  0
ARC
  5
6623
  8
0
 10
496.6256390925726123
 20
50.3796114940574071
 30
0.0
 40
19.8590717654372497
 50
248.0753946782074877
 51
291.9246053217925123
  0
ARC
  5
6624
  8
0
 10
496.6256390925726123
 20
50.3794153485764866
 30
0.0
 40
19.3800879735961402
 50
247.8099447305096987
 51
292.1900552694903013
  0
ARC
  5
6626
  8
0
 10
491.7556620728399253
 20
320.4343272943864918
 30
0.0
 40
291.2421104318580092
 50
269.6050834642974223
 51
269.99859477327999
  0
ARC
  5
6627
  8
0
 10
489.7435218670810855
 20
28.7249687596585517
 30
0.0
 40
0.4741899350632386
 50
89.4269564149564218
 51
149.936238837955699
  0
ARC
  5
6628
  8
0
 10
489.7201837425099029
 20
28.7442127841616113
 30
0.0
 40
0.4443786933190057
 50
150.576225221870402
 51
180.1868999303486021
  0
ARC
  5
6629
  8
0
 10
1237.936174168243042
 20
28.1543479218999693
 30
0.0
 40
748.6605998325488827
 50
179.9547896068640966
 51
180.3139088632468088
  0
ARC
  5
662A
  8
0
 10
573.3647466770887604
 20
24.5143116276318409
 30
0.0
 40
84.0792036946058658
 50
180.3146014348639028
 51
182.1882966348277932
  0
ARC
  5
662B
  8
0
 10
517.9092336376767207
 20
23.2424282769208794
 30
0.0
 40
28.6280860769929504
 50
183.8827961850244037
 51
191.1743826356546947
  0
LINE
  5
662C
  8
0
 10
491.8212136339773792
 20
29.2766533142220915
 30
0.0
 11
491.8193048670773919
 21
29.21206035152208
 31
0.0
  0
ARC
  5
662D
  8
0
 10
491.7521732138437187
 20
29.3746335755088914
 30
0.0
 40
0.1824532204094555
 50
268.8524274993466747
 51
286.1442188023938797
  0
ARC
  5
662E
  8
0
 10
491.7941308660097093
 20
29.2276627239311502
 30
0.0
 40
0.0296169605892744
 50
287.2336175330175934
 51
328.2101437764616207
  0
ARC
  5
662F
  8
0
 10
491.8653855192338824
 20
29.2361896957887311
 30
0.0
 40
0.0599037550061099
 50
106.6363923218399066
 51
137.5087844466652882
  0
ARC
  5
6630
  8
0
 10
491.874872846502285
 20
29.2044387644757713
 30
0.0
 40
0.0930418149664832
 50
90.5115850845567422
 51
106.6363923218399066
  0
LINE
  5
6631
  8
0
 10
491.8740421016773894
 20
29.2974768706220985
 30
0.0
 11
492.2555720720774275
 21
29.2974768706220985
 31
0.0
  0
ARC
  5
6632
  8
0
 10
492.2557777625881954
 20
29.2188633736519314
 30
0.0
 40
0.0786137660620916
 50
3.5686419524369302
 51
90.1499128230688882
  0
ARC
  5
6633
  8
0
 10
483.634180272277888
 20
29.0622042734574784
 30
0.0
 40
8.7015586324600473
 50
0.0790017210817708
 51
1.0638094309961681
  0
LINE
  5
6634
  8
0
 10
492.3527458797773875
 20
29.2767494119221006
 30
0.0
 11
492.3471344023773781
 21
29.0879492443220684
 31
0.0
  0
ARC
  5
6635
  8
0
 10
492.4064292405707874
 20
29.21761442040874
 30
0.0
 40
0.0798677059102231
 50
89.9148029179281565
 51
132.2334939740154027
  0
LINE
  5
6636
  8
0
 10
492.4065480013774732
 20
29.2974820380220997
 30
0.0
 11
492.8132716211774209
 21
29.2974823529220707
 31
0.0
  0
ARC
  5
6637
  8
0
 10
492.8141678068246847
 20
29.2196321694323906
 30
0.0
 40
0.0778553416156757
 50
47.1922577097884783
 51
90.6595409921811353
  0
LINE
  5
6638
  8
0
 10
492.8670736603772866
 20
29.2767498101221015
 30
0.0
 11
492.87268471487738
 21
29.0879496641220889
 31
0.0
  0
ARC
  5
6639
  8
0
 10
492.3315346299399948
 20
29.0900420763830887
 30
0.0
 40
0.0157395313188053
 50
302.4080222432810956
 51
352.3589450354642167
  0
ARC
  5
663A
  8
0
 10
492.2843445679641263
 20
29.1643787075418217
 30
0.0
 40
0.1037897254203075
 50
289.9970145569924966
 51
302.4080222432810956
  0
ARC
  5
663B
  8
0
 10
492.2329106769486202
 20
29.3772169785265618
 30
0.0
 40
0.3223137991685369
 50
269.3423595910613813
 51
285.6462228283758122
  0
LINE
  5
663C
  8
0
 10
492.2292112434773799
 20
29.054924410622089
 30
0.0
 11
489.7483839449773768
 21
29.0549225353220884
 31
0.0
  0
ARC
  5
663D
  8
0
 10
489.7413481103598087
 20
28.5826337477233707
 30
0.0
 40
0.4723411922119965
 50
89.1465098859878111
 51
149.2764531264377865
  0
ARC
  5
663E
  8
0
 10
489.7235261681244083
 20
28.5998992308933992
 30
0.0
 40
0.4482365400529761
 50
150.0098015952596029
 51
177.2457667921800066
  0
LINE
  5
663F
  8
0
 10
492.924885319177406
 20
29.2974768699220789
 30
0.0
 11
500.326460122377398
 21
29.2974768699220789
 31
0.0
  0
LINE
  5
6640
  8
0
 10
500.2605359889773808
 20
29.05493088532209
 30
0.0
 11
492.9907791570773838
 21
29.0549251200221086
 31
0.0
  0
ARC
  5
6641
  8
0
 10
492.8836891372820901
 20
29.0883336683559293
 30
0.0
 40
0.0110111203659287
 50
181.9985508682617876
 51
218.8105263119144013
  0
ARC
  5
6642
  8
0
 10
492.9116756186389807
 20
29.1166867603786699
 30
0.0
 40
0.0507935057005472
 50
223.9532014193503926
 51
248.5582685868425017
  0
ARC
  5
6643
  8
0
 10
492.9858410600062939
 20
29.3581945916810803
 30
0.0
 40
0.303309672188357
 50
252.1974387262334005
 51
270.9328572330707061
  0
ARC
  5
6644
  8
0
 10
492.9248853179823868
 20
29.2581067924170313
 30
0.0
 40
0.0393700775050832
 50
89.9999982609716227
 51
179.9999189316822026
  0
LINE
  5
6645
  8
0
 10
492.8855152404773889
 20
29.2581068481221003
 30
0.0
 11
492.8855152404773889
 21
29.0731481012836213
 31
0.0
  0
LINE
  5
6646
  8
0
 10
499.3185788635565245
 20
29.3336740717732489
 30
0.0
 11
493.9327750833455184
 21
29.3336740717732489
 31
0.0
  0
LINE
  5
6647
  8
0
 10
489.1364711931225884
 20
36.4627097648913718
 30
0.0
 11
489.1364711931225884
 21
32.66213352978329
 31
0.0
  0
LINE
  5
6648
  8
0
 10
489.1364711931225884
 20
32.3213783426250032
 30
0.0
 11
489.1364711931225884
 21
32.0663564403089509
 31
0.0
  0
ARC
  5
6649
  8
0
 10
489.2615628259438836
 20
32.3251523425027472
 30
0.0
 40
0.1182717722961168
 50
67.8443609852710097
 51
119.7550039448291983
  0
ARC
  5
664A
  8
0
 10
489.2545537703257992
 20
32.3213620357626894
 30
0.0
 40
0.1180825783292784
 50
118.5432077285431944
 51
179.9920876186558019
  0
LINE
  5
664B
  8
0
 10
489.202865452947492
 20
32.4278306290359311
 30
0.0
 11
489.1981313926813186
 21
32.4250925067238711
 31
0.0
  0
ARC
  5
664C
  8
0
 10
489.2545191784078042
 20
32.0663754947461328
 30
0.0
 40
0.118047986823086
 50
180.0092482630564916
 51
248.1245808099648116
  0
ARC
  5
664D
  8
0
 10
489.254721388790017
 20
32.6622787735784428
 30
0.0
 40
0.1182502848670944
 50
180.0703749556639934
 51
247.4074008413053036
  0
LINE
  5
664E
  8
0
 10
489.1491329480604122
 20
32.6090414647110265
 30
0.0
 11
489.1490401883226014
 21
32.5326405938833005
 31
0.0
  0
ARC
  5
664F
  8
0
 10
483.3475522043802926
 20
32.5396842898353498
 30
0.0
 40
5.8014922598827141
 50
358.3146991794528731
 51
359.9304361479258887
  0
ARC
  5
6650
  8
0
 10
493.935396096655893
 20
27.9749305748965895
 30
0.0
 40
1.358746024838849
 50
90.1105232995137442
 51
103.2553165190984004
  0
ARC
  5
6651
  8
0
 10
503.720944117810177
 20
36.4625888642479197
 30
0.0
 40
0.3938628927681953
 50
0.0175875828459829
 51
89.9866866013133375
  0
ARC
  5
6652
  8
0
 10
-171.2000316061204046
 20
14.4443348552715598
 30
0.0
 40
675.2732915634749133
 50
1.2320864173752579
 51
1.4795897999447261
  0
ARC
  5
6653
  8
0
 10
496.1460947771632277
 20
15.9403187103755908
 30
0.0
 40
5.9649264693310853
 50
308.4404259015830121
 51
320.4743338925139255
  0
ARC
  5
6654
  8
0
 10
490.9746382182602815
 20
20.2141409194396999
 30
0.0
 40
12.6738388882153696
 50
320.4502376817197273
 51
335.7179228961542208
  0
ARC
  5
6655
  8
0
 10
491.3913422129181754
 20
20.2222689146946806
 30
0.0
 40
12.2986416926146607
 50
334.8850573088229794
 51
348.1389883092313084
  0
ARC
  5
6656
  8
0
 10
501.4956161123051857
 20
320.4343272943864918
 30
0.0
 40
291.2421104318580092
 50
270.00140522672001
 51
270.3949165357025777
  0
ARC
  5
6657
  8
0
 10
503.5077563180640254
 20
28.7249687596585517
 30
0.0
 40
0.4741899350632386
 50
30.0637611620442513
 51
90.5730435850468467
  0
ARC
  5
6658
  8
0
 10
503.531094442635208
 20
28.7442127841616113
 30
0.0
 40
0.4443786933190057
 50
359.8131000696512842
 51
29.4237747781295909
  0
ARC
  5
6659
  8
0
 10
-244.6848959830986985
 20
28.1543479218999693
 30
0.0
 40
748.6605998325488827
 50
359.6860911367531912
 51
0.0452103931359084
  0
ARC
  5
665A
  8
0
 10
419.88653150805618
 20
24.5143116276318409
 30
0.0
 40
84.0792036946058658
 50
357.8117033651722068
 51
359.6853985651359835
  0
ARC
  5
665B
  8
0
 10
475.3420445474683902
 20
23.2424282769208794
 30
0.0
 40
28.6280860769929504
 50
348.8256173643453053
 51
356.1172038149754826
  0
LINE
  5
665C
  8
0
 10
501.4300645511676748
 20
29.2766533142220915
 30
0.0
 11
501.431973318067719
 21
29.21206035152208
 31
0.0
  0
ARC
  5
665D
  8
0
 10
501.4991049713013922
 20
29.3746335755088914
 30
0.0
 40
0.1824532204094555
 50
253.8557811976029939
 51
271.1475725006532116
  0
ARC
  5
665E
  8
0
 10
501.4571473191352879
 20
29.2276627239311502
 30
0.0
 40
0.0296169605892744
 50
211.7898562235384077
 51
252.766382466982293
  0
ARC
  5
665F
  8
0
 10
501.3858926659111717
 20
29.2361896957887311
 30
0.0
 40
0.0599037550061099
 50
42.4912155533347189
 51
73.3636076781601361
  0
ARC
  5
6660
  8
0
 10
501.3764053386428259
 20
29.2044387644757713
 30
0.0
 40
0.0930418149664832
 50
73.3636076781601361
 51
89.4884149154465263
  0
LINE
  5
6661
  8
0
 10
501.3772360834677215
 20
29.2974768706220985
 30
0.0
 11
500.9957061130676834
 21
29.2974768706220985
 31
0.0
  0
ARC
  5
6662
  8
0
 10
500.9955004225568018
 20
29.2188633736519314
 30
0.0
 40
0.0786137660620916
 50
89.850087176931126
 51
176.431358047563009
  0
ARC
  5
6663
  8
0
 10
509.6170979128672229
 20
29.0622042734574784
 30
0.0
 40
8.7015586324600473
 50
178.9361905690037986
 51
179.920998278918205
  0
LINE
  5
6664
  8
0
 10
500.8985323053677234
 20
29.2767494119221006
 30
0.0
 11
500.9041437827676759
 21
29.0879492443220684
 31
0.0
  0
ARC
  5
6665
  8
0
 10
500.8448489445743235
 20
29.21761442040874
 30
0.0
 40
0.0798677059102231
 50
47.7665060259845404
 51
90.0851970820718435
  0
LINE
  5
6666
  8
0
 10
500.8447301837675809
 20
29.2974820380220997
 30
0.0
 11
500.43800656396769
 21
29.2974823529220707
 31
0.0
  0
ARC
  5
6667
  8
0
 10
500.4371103783204262
 20
29.2196321694323906
 30
0.0
 40
0.0778553416156757
 50
89.3404590078155962
 51
132.8077422902115075
  0
LINE
  5
6668
  8
0
 10
500.3842045247677106
 20
29.2767498101221015
 30
0.0
 11
500.3785934702676741
 21
29.0879496641220889
 31
0.0
  0
ARC
  5
6669
  8
0
 10
500.9197435552051161
 20
29.0900420763830887
 30
0.0
 40
0.0157395313188053
 50
187.6410549645354138
 51
237.5919777567189044
  0
ARC
  5
666A
  8
0
 10
500.9669336171809846
 20
29.1643787075418217
 30
0.0
 40
0.1037897254203075
 50
237.5919777567189044
 51
250.0029854430073897
  0
ARC
  5
666B
  8
0
 10
501.0183675081964907
 20
29.3772169785265618
 30
0.0
 40
0.3223137991685369
 50
254.3537771716241878
 51
270.6576404089386187
  0
LINE
  5
666C
  8
0
 10
501.0220669416676742
 20
29.054924410622089
 30
0.0
 11
503.5028942401676773
 21
29.0549225353220884
 31
0.0
  0
ARC
  5
666D
  8
0
 10
503.5099300747853022
 20
28.5826337477233707
 30
0.0
 40
0.4723411922119965
 50
30.7235468735621318
 51
90.8534901140089346
  0
ARC
  5
666E
  8
0
 10
503.5277520170208163
 20
28.5998992308933992
 30
0.0
 40
0.4482365400529761
 50
2.7542332078199658
 51
29.9901984047403509
  0
ARC
  5
666F
  8
0
 10
500.3675890478630208
 20
29.0883336683559293
 30
0.0
 40
0.0110111203659287
 50
321.1894736880855135
 51
358.001449131738184
  0
ARC
  5
6670
  8
0
 10
500.3396025665060733
 20
29.1166867603786699
 30
0.0
 40
0.0507935057005472
 50
291.441731413154514
 51
316.0467985806496927
  0
ARC
  5
6671
  8
0
 10
500.265437125138817
 20
29.3581945916810803
 30
0.0
 40
0.303309672188357
 50
269.0671427669261107
 51
287.8025612737665142
  0
ARC
  5
6672
  8
0
 10
500.3263928671627241
 20
29.2581067924170313
 30
0.0
 40
0.0393700775050832
 50
0.0000810683177952
 51
90.0000017390251088
  0
LINE
  5
6673
  8
0
 10
500.365762944667722
 20
29.2581068481221003
 30
0.0
 11
500.365762944667722
 21
29.0731481012836213
 31
0.0
  0
LINE
  5
6674
  8
0
 10
504.1148069920225225
 20
36.4627097648913718
 30
0.0
 11
504.1148069920225225
 21
32.66213352978329
 31
0.0
  0
LINE
  5
6675
  8
0
 10
504.1148069920225225
 20
32.3213783426250032
 30
0.0
 11
504.1148069920225225
 21
32.0663564403089509
 31
0.0
  0
ARC
  5
6676
  8
0
 10
503.9897153592012273
 20
32.3251523425027472
 30
0.0
 40
0.1182717722961168
 50
60.244996055170752
 51
112.1556390147290045
  0
ARC
  5
6677
  8
0
 10
503.9967244148193117
 20
32.3213620357626894
 30
0.0
 40
0.1180825783292784
 50
0.0079123813441785
 51
61.4567922714568269
  0
LINE
  5
6678
  8
0
 10
504.0484127321976189
 20
32.4278306290359311
 30
0.0
 11
504.0531467924637923
 21
32.4250925067238711
 31
0.0
  0
ARC
  5
6679
  8
0
 10
503.9967590067373067
 20
32.0663754947461328
 30
0.0
 40
0.118047986823086
 50
291.8754191900351884
 51
359.9907517369434231
  0
ARC
  5
667A
  8
0
 10
503.9965567963550939
 20
32.6622787735784428
 30
0.0
 40
0.1182502848670944
 50
292.5925991586946111
 51
359.9296250443359781
  0
LINE
  5
667B
  8
0
 10
504.1021452370846987
 20
32.6090414647110265
 30
0.0
 11
504.1022379968225096
 21
32.5326405938833005
 31
0.0
  0
ARC
  5
667C
  8
0
 10
509.9037259807648184
 20
32.5396842898353498
 30
0.0
 40
5.8014922598827141
 50
180.0695638520741113
 51
181.6853008205470985
  0
ARC
  5
667D
  8
0
 10
499.3158820884892179
 20
27.9749305748965895
 30
0.0
 40
1.358746024838849
 50
76.7446834809015286
 51
89.8894767004862558
  0
LINE
  5
667E
  8
0
 10
489.7173764985948878
 20
31.760840578482199
 30
0.0
 11
489.6619658927600085
 21
29.1920926378405809
 31
0.0
  0
LINE
  5
667F
  8
0
 10
503.5339016865501094
 20
31.760840578482199
 30
0.0
 11
503.5893122923851024
 21
29.1920926378405809
 31
0.0
  0
ARC
  5
6680
  8
0
 10
496.6256390925726123
 20
50.3798594482063109
 30
0.0
 40
19.3079113747850108
 50
247.4115497841397939
 51
292.5884502158572218
  0
LINE
  5
6681
  8
0
 10
488.657824839332477
 20
33.94471820213802
 30
0.0
 11
488.657824839332477
 21
35.2800803231558007
 31
0.0
  0
ARC
  5
6682
  8
0
 10
488.4490438270279924
 20
33.9478383339748007
 30
0.0
 40
0.2088043254378627
 50
354.1801733073011746
 51
359.1438058624038945
  0
ARC
  5
6683
  8
0
 10
494.6251839668781258
 20
33.3118016898642324
 30
0.0
 40
5.9999999964458608
 50
174.1181579258164049
 51
185.6929135823152137
  0
ARC
  5
6684
  8
0
 10
488.6746782588854785
 20
32.7186054532628603
 30
0.0
 40
0.0200000001275453
 50
185.6926390205368023
 51
268.4999997606186071
  0
LINE
  5
6685
  8
0
 10
488.6741547198324724
 20
32.6986123066380117
 30
0.0
 11
489.1256390867733899
 21
32.6867897723971907
 31
0.0
  0
LINE
  5
6686
  8
0
 10
488.6773013013324771
 20
35.3000734696380221
 30
0.0
 11
489.0951839688324867
 21
35.3110161123380308
 31
0.0
  0
LINE
  5
6687
  8
0
 10
489.0951839704325153
 20
35.3110161123799173
 30
0.0
 11
489.0951839704325153
 21
33.9224863063321393
 31
0.0
  0
ARC
  5
6688
  8
0
 10
488.6778248392888031
 20
35.2800803231558007
 30
0.0
 40
0.0199999999562878
 50
91.499997109201459
 51
180.0000000509296001
  0
LINE
  5
6689
  8
0
 10
489.0951839704325153
 20
33.9224863063321393
 30
0.0
 11
488.6741541435325189
 21
33.9133308570380194
 31
0.0
  0
LINE
  5
668A
  8
0
 10
489.0951839704325153
 20
33.9224863063321393
 30
0.0
 11
489.1256390867733899
 21
33.9184739786611686
 31
0.0
  0
ARC
  5
668B
  8
0
 10
488.675469431005979
 20
33.8910689922471704
 30
0.0
 40
0.0223006862025373
 50
93.3812493674917619
 51
167.831236855683386
  0
ARC
  5
668C
  8
0
 10
496.6256390925726123
 20
15.0788339051299491
 30
0.0
 40
4.9945940023466413
 50
229.7240388485147093
 51
310.275961151483898
  0
LINE
  5
668D
  8
0
 10
489.1256390867733899
 20
33.9184739786611686
 30
0.0
 11
489.1256390867733899
 21
32.6867897723971907
 31
0.0
  0
LINE
  5
668E
  8
0
 10
489.1256390867733899
 20
32.8689211416532672
 30
0.0
 11
489.1365396767733955
 21
32.8682930689725268
 31
0.0
  0
LINE
  5
668F
  8
0
 10
489.1256390867733899
 20
33.7559934368863779
 30
0.0
 11
489.1364711931225884
 21
33.7564094506190386
 31
0.0
  0
ENDSEC
  0
EOF
