  0
SECTION
  2
HEADER
  9
$ACADVER
  1
AC1009
  9
$INSBASE
 10
6160.1795390195757136
 20
1292.8235088379969966
 30
0.0
  9
$EXTMIN
 10
6133.7161920374019246
 20
1260.9112502881730506
 30
0.0
  9
$EXTMAX
 10
6220.7471920376228809
 20
1386.5233759238049061
 30
0.0
  9
$LIMMIN
 10
0.0
 20
0.0
  9
$LIMMAX
 10
11.6929133858000007
 20
8.2677165353999982
  9
$ORTHOMODE
 70
     0
  9
$REGENMODE
 70
     1
  9
$FILLMODE
 70
     1
  9
$QTEXTMODE
 70
     0
  9
$MIRRTEXT
 70
     0
  9
$DRAGMODE
 70
     2
  9
$LTSCALE
 40
0.6431102362
  9
$OSMODE
 70
  4095
  9
$ATTMODE
 70
     1
  9
$TEXTSIZE
 40
0.2
  9
$TRACEWID
 40
0.05
  9
$TEXTSTYLE
  7
STANDARD
  9
$CLAYER
  8
0
  9
$CELTYPE
  6
BYLAYER
  9
$CECOLOR
 62
   256
  9
$DIMSCALE
 40
1.0
  9
$DIMASZ
 40
0.1875
  9
$DIMEXO
 40
0.0625
  9
$DIMDLI
 40
0.4443307087
  9
$DIMRND
 40
0.0
  9
$DIMDLE
 40
0.0
  9
$DIMEXE
 40
0.125
  9
$DIMTP
 40
0.01
  9
$DIMTM
 40
0.01
  9
$DIMTXT
 40
2.0
  9
$DIMCEN
 40
0.1052362205
  9
$DIMTSZ
 40
0.0
  9
$DIMTOL
 70
     1
  9
$DIMLIM
 70
     0
  9
$DIMTIH
 70
     1
  9
$DIMTOH
 70
     1
  9
$DIMSE1
 70
     0
  9
$DIMSE2
 70
     0
  9
$DIMTAD
 70
     0
  9
$DIMZIN
 70
     0
  9
$DIMBLK
  1

  9
$DIMASO
 70
     1
  9
$DIMSHO
 70
     1
  9
$DIMPOST
  1
\X
  9
$DIMAPOST
  1

  9
$DIMALT
 70
     1
  9
$DIMALTD
 70
     2
  9
$DIMALTF
 40
25.3999999999999986
  9
$DIMLFAC
 40
1.0
  9
$DIMTOFL
 70
     0
  9
$DIMTVP
 40
0.0
  9
$DIMTIX
 70
     0
  9
$DIMSOXD
 70
     0
  9
$DIMSAH
 70
     0
  9
$DIMBLK1
  1

  9
$DIMBLK2
  1

  9
$DIMSTYLE
  2
STANDARD
  9
$DIMCLRD
 70
     0
  9
$DIMCLRE
 70
     0
  9
$DIMCLRT
 70
     0
  9
$DIMTFAC
 40
1.0
  9
$DIMGAP
 40
0.09
  9
$LUNITS
 70
     2
  9
$LUPREC
 70
     4
  9
$SKETCHINC
 40
0.1
  9
$FILLETRAD
 40
0.0
  9
$AUNITS
 70
     0
  9
$AUPREC
 70
     0
  9
$MENU
  1
.
  9
$ELEVATION
 40
0.0
  9
$PELEVATION
 40
0.0
  9
$THICKNESS
 40
0.0
  9
$LIMCHECK
 70
     0
  9
$BLIPMODE
 70
     0
  9
$CHAMFERA
 40
0.0
  9
$CHAMFERB
 40
0.0
  9
$SKPOLY
 70
     0
  9
$TDCREATE
 40
2458060.468368056230247
  9
$TDUPDATE
 40
2459982.6812037038616836
  9
$TDINDWG
 40
0.314972338
  9
$TDUSRTIMER
 40
0.314972338
  9
$USRTIMER
 70
     1
  9
$ANGBASE
 50
0.0
  9
$ANGDIR
 70
     0
  9
$PDMODE
 70
     0
  9
$PDSIZE
 40
0.3125
  9
$PLINEWID
 40
0.0
  9
$COORDS
 70
     1
  9
$SPLFRAME
 70
     0
  9
$SPLINETYPE
 70
     6
  9
$SPLINESEGS
 70
     8
  9
$ATTDIA
 70
     1
  9
$ATTREQ
 70
     1
  9
$HANDLING
 70
     1
  9
$HANDSEED
  5
AFDA
  9
$SURFTAB1
 70
     6
  9
$SURFTAB2
 70
     6
  9
$SURFTYPE
 70
     6
  9
$SURFU
 70
     6
  9
$SURFV
 70
     6
  9
$UCSNAME
  2

  9
$UCSORG
 10
0.0
 20
0.0
 30
0.0
  9
$UCSXDIR
 10
1.0
 20
0.0
 30
0.0
  9
$UCSYDIR
 10
0.0
 20
1.0
 30
0.0
  9
$PUCSNAME
  2

  9
$PUCSORG
 10
0.0
 20
0.0
 30
0.0
  9
$PUCSXDIR
 10
1.0
 20
0.0
 30
0.0
  9
$PUCSYDIR
 10
0.0
 20
1.0
 30
0.0
  9
$USERI1
 70
     0
  9
$USERI2
 70
     0
  9
$USERI3
 70
     0
  9
$USERI4
 70
     0
  9
$USERI5
 70
     0
  9
$USERR1
 40
0.0
  9
$USERR2
 40
0.0
  9
$USERR3
 40
0.0
  9
$USERR4
 40
0.0
  9
$USERR5
 40
0.0
  9
$WORLDVIEW
 70
     1
  9
$SHADEDGE
 70
     3
  9
$SHADEDIF
 70
    70
  9
$TILEMODE
 70
     1
  9
$MAXACTVP
 70
    64
  9
$PLIMCHECK
 70
     0
  9
$PEXTMIN
 10
1.0000000000000000E+20
 20
1.0000000000000000E+20
 30
1.0000000000000000E+20
  9
$PEXTMAX
 10
-1.0000000000000000E+20
 20
-1.0000000000000000E+20
 30
-1.0000000000000000E+20
  9
$PLIMMIN
 10
0.0
 20
0.0
  9
$PLIMMAX
 10
12.0
 20
9.0
  9
$UNITMODE
 70
     0
  9
$VISRETAIN
 70
     1
  9
$PLINEGEN
 70
     0
  9
$PSLTSCALE
 70
     1
  0
ENDSEC
  0
SECTION
  2
TABLES
  0
TABLE
  2
VPORT
 70
     1
  0
VPORT
  2
*ACTIVE
 70
     0
 10
0.0
 20
0.0
 11
1.0
 21
1.0
 12
2678.4137140771631493
 22
1130.1031249022389602
 13
0.0
 23
0.0
 14
1.0
 24
1.0
 15
0.0
 25
0.0
 16
0.0
 26
0.0
 36
199.3126279314143119
 17
3491.9166259765629547
 27
176.9519653320311932
 37
0.0
 40
40.7166952134756812
 41
2.5251322751322749
 42
50.0
 43
0.0
 44
0.0
 50
0.0
 51
0.0
 71
     0
 72
   100
 73
     1
 74
     1
 75
     0
 76
     0
 77
     0
 78
     0
  0
ENDTAB
  0
TABLE
  2
LTYPE
 70
     2
  0
LTYPE
  2
CONTINUOUS
 70
     0
  3
Solid line
 72
    65
 73
     0
 40
0.0
  0
LTYPE
  2
PHANTOM2
 70
     0
  3
___ _ _ ___ _ _ ___ _ _ ___ _ _
 72
    65
 73
     6
 40
1.25
 49
0.625
 49
-0.125
 49
0.125
 49
-0.125
 49
0.125
 49
-0.125
  0
ENDTAB
  0
TABLE
  2
LAYER
 70
     2
  0
LAYER
  2
0
 70
     0
 62
   255
  6
CONTINUOUS
  0
LAYER
  2
DEFPOINTS
 70
     0
 62
     7
  6
CONTINUOUS
  0
ENDTAB
  0
TABLE
  2
STYLE
 70
     1
  0
STYLE
  2
STANDARD
 70
     0
 40
0.0
 41
0.8
 50
0.0
 71
     0
 42
0.2
  3
txt
  4

  0
ENDTAB
  0
TABLE
  2
VIEW
 70
     0
  0
ENDTAB
  0
TABLE
  2
UCS
 70
     0
  0
ENDTAB
  0
TABLE
  2
APPID
 70
     9
  0
APPID
  2
ACAD
 70
     0
  0
APPID
  2
ACAD_MLEADERVER
 70
     0
  0
APPID
  2
ACAD_EXEMPT_FROM_CAD_STANDARDS
 70
     0
  0
APPID
  2
ACAD_NAV_VCDISPLAY
 70
     0
  0
APPID
  2
ACAECLAYERSTANDARD
 70
     0
  0
APPID
  2
ACCMTRANSPARENCY
 70
     0
  0
APPID
  2
ACAD_DSTYLE_DIMJAG
 70
     0
  0
APPID
  2
ACAD_DSTYLE_DIMTALN
 70
     0
  0
APPID
  2
ACDBATTR
 70
     0
  0
ENDTAB
  0
TABLE
  2
DIMSTYLE
 70
     1
  0
DIMSTYLE
  2
STANDARD
 70
     0
  3

  4

  5

  6

  7

 40
1.0
 41
0.1875
 42
0.0625
 43
0.38
 44
0.125
 45
0.0
 46
0.0
 47
0.01
 48
0.01
140
0.15625
141
0.09
142
0.0
143
25.3999999999999986
144
1.0
145
0.0
146
1.0
147
0.09
 71
     1
 72
     0
 73
     1
 74
     1
 75
     0
 76
     0
 77
     0
 78
     4
170
     0
171
     2
172
     0
173
     0
174
     0
175
     0
176
     0
177
     0
178
     0
  0
ENDTAB
  0
ENDSEC
  0
SECTION
  2
BLOCKS
  0
BLOCK
  8
0
  2
$MODEL_SPACE
 70
     0
 10
0.0
 20
0.0
 30
0.0
  3
$MODEL_SPACE
  1

  0
ENDBLK
  5
21
  8
0
  0
BLOCK
 67
     1
  8
0
  2
$PAPER_SPACE
 70
     0
 10
0.0
 20
0.0
 30
0.0
  3
$PAPER_SPACE
  1

  0
ENDBLK
  5
1D
 67
     1
  8
0
  0
BLOCK
  8
0
  2
_FILLED
 70
     0
 10
0.0
 20
0.0
 30
0.0
  3
_FILLED
  1

  0
SOLID
  5
8323
  8
0
  6
BYBLOCK
 62
     0
 10
0.0
 20
0.0
 30
0.0
 11
-1.0
 21
0.1666666667
 31
0.0
 12
-1.0
 22
-0.1666666667
 32
0.0
 13
-1.0
 23
-0.1666666667
 33
0.0
  0
ENDBLK
  5
8324
  8
0
  6
BYBLOCK
 62
     0
  0
BLOCK
  8
0
  2
*D3
 70
     1
 10
0.0
 20
0.0
 30
0.0
  3
*D3
  1

  0
LINE
  5
AEDA
  8
0
 62
     0
 10
6155.619676910425369
 20
1354.3577983335969748
 30
0.0
 11
6145.3687265291428048
 21
1354.3577983335969748
 31
0.0
  0
LINE
  5
AEDB
  8
0
 62
     0
 10
6155.619676910425369
 20
1353.5177983335970566
 30
0.0
 11
6145.3687265291428048
 21
1353.5177983335970566
 31
0.0
  0
LINE
  5
AEDC
  8
0
 62
     0
 10
6145.4937265291437143
 20
1354.1702983335969748
 30
0.0
 11
6145.4937265291437143
 21
1353.7052983335970566
 31
0.0
  0
LINE
  5
AEDD
  8
0
 62
     0
 10
6145.4937265291437143
 20
1353.5177983335970566
 30
0.0
 11
6145.4937265291437143
 21
1353.3302983335970566
 31
0.0
  0
LINE
  5
AEDE
  8
0
 62
     0
 10
6145.4937265291437143
 20
1353.3302983335970566
 30
0.0
 11
6145.3062265291428048
 21
1353.3302983335970566
 31
0.0
  0
SOLID
  5
AEDF
  8
0
 62
     0
 10
6145.4624765291437143
 20
1354.1702983335969748
 30
0.0
 11
6145.5249765291437143
 21
1354.1702983335969748
 31
0.0
 12
6145.4937265291437143
 22
1354.3577983335969748
 32
0.0
 13
6145.4937265291437143
 23
1354.3577983335969748
 33
0.0
  0
SOLID
  5
AEE0
  8
0
 62
     0
 10
6145.4624765291437143
 20
1353.7052983335970566
 30
0.0
 11
6145.5249765291437143
 21
1353.7052983335970566
 31
0.0
 12
6145.4937265291437143
 22
1353.5177983335970566
 32
0.0
 13
6145.4937265291437143
 23
1353.5177983335970566
 33
0.0
  0
INSERT
  5
AEE1
  8
0
  2
*U7
 10
0.0
 20
0.0
 30
0.0
  0
POINT
  5
AEE2
  8
DEFPOINTS
 62
     0
 10
6155.68217691042355
 20
1354.3577983335969748
 30
0.0
  0
POINT
  5
AEE3
  8
DEFPOINTS
 62
     0
 10
6155.68217691042355
 20
1353.5177983335970566
 30
0.0
  0
POINT
  5
AEE4
  8
DEFPOINTS
 62
     0
 10
6145.4937265291437143
 20
1353.5177983335970566
 30
0.0
  0
ENDBLK
  5
AECE
  8
0
  0
BLOCK
  8
0
  2
*D4
 70
     1
 10
0.0
 20
0.0
 30
0.0
  3
*D4
  1

  0
LINE
  5
AEF2
  8
0
 62
     0
 10
6202.3516373150596337
 20
1312.1736904132560539
 30
0.0
 11
6202.3516373150596337
 21
1312.8457802153579905
 31
0.0
  0
LINE
  5
AEF3
  8
0
 62
     0
 10
6203.1916373150597792
 20
1312.1736904132560539
 30
0.0
 11
6203.1916373150597792
 21
1312.8457802153579905
 31
0.0
  0
LINE
  5
AEF4
  8
0
 62
     0
 10
6202.5391373150596337
 20
1312.7207802153579905
 30
0.0
 11
6203.0041373150597792
 21
1312.7207802153579905
 31
0.0
  0
LINE
  5
AEF5
  8
0
 62
     0
 10
6203.1916373150597792
 20
1312.7207802153579905
 30
0.0
 11
6203.3791373150597792
 21
1312.7207802153579905
 31
0.0
  0
SOLID
  5
AEF6
  8
0
 62
     0
 10
6202.5391373150596337
 20
1312.7520302153579905
 30
0.0
 11
6202.5391373150596337
 21
1312.6895302153579905
 31
0.0
 12
6202.3516373150596337
 22
1312.7207802153579905
 32
0.0
 13
6202.3516373150596337
 23
1312.7207802153579905
 33
0.0
  0
SOLID
  5
AEF7
  8
0
 62
     0
 10
6203.0041373150597792
 20
1312.7520302153579905
 30
0.0
 11
6203.0041373150597792
 21
1312.6895302153579905
 31
0.0
 12
6203.1916373150597792
 22
1312.7207802153579905
 32
0.0
 13
6203.1916373150597792
 23
1312.7207802153579905
 33
0.0
  0
INSERT
  5
AEF8
  8
0
  2
*U8
 10
0.0
 20
0.0
 30
0.0
  0
POINT
  5
AEF9
  8
DEFPOINTS
 62
     0
 10
6202.3516373150596337
 20
1312.1111904132560539
 30
0.0
  0
POINT
  5
AEFA
  8
DEFPOINTS
 62
     0
 10
6203.1916373150597792
 20
1312.1111904132560539
 30
0.0
  0
POINT
  5
AEFB
  8
DEFPOINTS
 62
     0
 10
6203.1916373150597792
 20
1312.7207802153579905
 30
0.0
  0
ENDBLK
  5
AEE7
  8
0
  0
BLOCK
  8
0
  2
*U5
 70
     1
 10
0.0
 20
0.0
 30
0.0
  3
*U5
  1

  0
TEXT
  5
AFCB
  8
0
 62
     0
 10
-24.2938006909203708
 20
49.4367218545000213
 30
0.0
 40
1.0
  1
.840±.010 [21.34±0.25]
 41
0.8
  0
ENDBLK
  5
AFCD
  8
0
  0
BLOCK
  8
0
  2
*U6
 70
     1
 10
0.0
 20
0.0
 30
0.0
  3
*U6
  1

  0
TEXT
  5
AFCF
  8
0
 62
     0
 10
47.559110094999852
 20
8.8272037362607705
 30
0.0
 40
1.0
  1
.840±.010 [21.34±0.25]
 41
0.8
  0
ENDBLK
  5
AFD1
  8
0
  0
BLOCK
  8
0
  2
*U7
 70
     1
 10
0.0
 20
0.0
 30
0.0
  3
*U7
  1

  0
TEXT
  5
AFD3
  8
0
 62
     0
 10
6144.4037265291417498
 20
1353.2521733335950103
 30
0.0
 40
0.15625
  1
.840±.010
 41
0.8
  0
ENDBLK
  5
AFD5
  8
0
  0
BLOCK
  8
0
  2
*U8
 70
     1
 10
0.0
 20
0.0
 30
0.0
  3
*U8
  1

  0
TEXT
  5
AFD7
  8
0
 62
     0
 10
6203.4691373150599247
 20
1312.6426552153579905
 30
0.0
 40
0.15625
  1
.840±.010
 41
0.8
  0
ENDBLK
  5
AFD9
  8
0
  0
ENDSEC
  0
SECTION
  2
ENTITIES
  0
ATTDEF
  5
3930
  8
DEFPOINTS
 10
6160.1804452067754028
 20
1292.8214698401620808
 30
0.0
 40
0.001
  1
K-31193K
  3

  2
MODELNUMBER
 70
     0
1001
ACDBATTR
1070
     0
1070
     1
  0
ATTDEF
  5
3931
  8
DEFPOINTS
 10
6160.1804452067754028
 20
1292.8198031734950746
 30
0.0
 40
0.001
  1
VEIL
  3

  2
TRADENAME
 70
     0
1001
ACDBATTR
1070
     0
1070
     1
  0
ATTDEF
  5
3932
  8
DEFPOINTS
 10
6160.1804452067754028
 20
1292.8181365068280684
 30
0.0
 40
0.001
  1
TOILET
  3

  2
PRODUCT
 70
     0
1001
ACDBATTR
1070
     0
1070
     1
  0
LINE
  5
ABDB
  8
0
 10
6166.030813260918876
 20
1292.8235088379969966
 30
0.0
 11
6154.3282647782316417
 21
1292.8235088379969966
 31
0.0
  0
LINE
  5
ABDD
  8
0
 10
6167.1133882403919415
 20
1310.6693129989969293
 30
0.0
 11
6153.2456897987613047
 21
1310.6693129989969293
 31
0.0
  0
LINE
  5
ABDF
  8
0
 10
6165.1716971317364369
 20
1308.5715397117769498
 30
0.0
 11
6155.1873809074149904
 21
1308.5715397117769498
 31
0.0
  0
LINE
  5
ABE0
  8
0
 10
6153.3072714414593065
 20
1308.5715397117769498
 30
0.0
 11
6153.0697775488597472
 21
1308.5715397117769498
 31
0.0
  0
LINE
  5
ABE2
  8
0
 10
6167.4789157073591923
 20
1308.8296794349969332
 30
0.0
 11
6152.8801623317931444
 21
1308.8296794349969332
 31
0.0
  0
LINE
  5
ABE4
  8
0
 10
6167.369905672348068
 20
1309.0729727547638959
 30
0.0
 11
6152.9891723668051782
 21
1309.0729727547638959
 31
0.0
  0
LINE
  5
ABE6
  8
0
 10
6167.5506964671285459
 20
1322.2920127749969197
 30
0.0
 11
6152.8083427050323735
 21
1322.2920127749969197
 31
0.0
  0
LINE
  5
ABE9
  8
0
 10
6152.1795198101599453
 20
1320.5207926862869954
 30
0.0
 11
6152.1795198101599453
 21
1320.2368912137339976
 31
0.0
  0
LINE
  5
ABEB
  8
0
 10
6152.6795198101599453
 20
1320.9924911838970729
 30
0.0
 11
6152.6795198101599453
 21
1319.7424911838970729
 31
0.0
  0
LINE
  5
ABED
  8
0
 10
6152.6903903366601298
 20
1322.1769148933169618
 30
0.0
 11
6152.6903903366601298
 21
1322.146034988431893
 31
0.0
  0
LINE
  5
ABF0
  8
0
 10
6152.7643756509596642
 20
1319.1802775573180497
 30
0.0
 11
6152.7643756509596642
 21
1319.1308472826890466
 31
0.0
  0
LINE
  5
ABF1
  8
0
 10
6152.8444024663604068
 20
1308.362162175819094
 30
0.0
 11
6152.8444024663604068
 21
1308.3215796125969064
 31
0.0
  0
LINE
  5
ABF2
  8
0
 10
6152.8324732016244525
 20
1310.4550672614570885
 30
0.0
 11
6152.8324732016244525
 21
1309.2495086288140556
 31
0.0
  0
LINE
  5
ABF4
  8
0
 10
6154.213300430759773
 20
1293.0323260256141111
 30
0.0
 11
6154.213300430759773
 21
1292.9250724658470517
 31
0.0
  0
ARC
  5
ABF5
  8
0
 10
6154.3299685260381011
 20
1292.9412858055379729
 30
0.0
 40
0.1177892900041774
 50
187.9117097354217947
 51
269.1712237777280734
  0
LINE
  5
ABF6
  8
0
 10
6154.702336470983937
 20
1294.6998452120469665
 30
0.0
 11
6154.3762402342663336
 21
1294.6998452120469665
 31
0.0
  0
LINE
  5
ABF8
  8
0
 10
6154.7074492013143754
 20
1294.0967741054969338
 30
0.0
 11
6154.3747527915402316
 21
1294.0967741054969338
 31
0.0
  0
LINE
  5
ABFB
  8
0
 10
6154.3664195897954414
 20
1294.6913973443970463
 30
0.0
 11
6154.3649573056018198
 21
1294.6913973443970463
 31
0.0
  0
LINE
  5
ABFD
  8
0
 10
6154.3676336336529857
 20
1294.105423295897026
 30
0.0
 11
6154.3646849935767023
 21
1294.105423295897026
 31
0.0
  0
ARC
  5
ABFE
  8
0
 10
6150.2379060104940436
 20
1293.1162993052330421
 30
0.0
 40
3.976281215956774
 50
358.7899064578339221
 51
359.3196362248306741
  0
ARC
  5
ABFF
  8
0
 10
6048.3751138992820415
 20
1294.9786667776700142
 30
0.0
 40
105.8560182950197941
 50
358.9663602793602877
 51
359.4080395713982057
  0
ARC
  5
AC00
  8
0
 10
1877.8577206366610426
 20
1354.7554364731699934
 30
0.0
 40
4276.8009589997709554
 50
359.1844989122865854
 51
359.1953029576619087
  0
ARC
  5
AC01
  8
0
 10
-330.3283860089441077
 20
1385.8641730774859298
 30
0.0
 40
6485.2061820741100746
 50
359.1944762895353733
 51
359.2268836667922187
  0
ARC
  5
AC02
  8
0
 10
30962.5876558437485073
 20
963.5899128171248549
 30
0.0
 40
24810.5588661447982304
 50
179.2252197820820072
 51
179.226883666792105
  0
ARC
  5
AC03
  8
0
 10
6105.7549914707451535
 20
1296.5979726214720813
 30
0.0
 40
48.6055508376892504
 50
2.92661744700961
 51
4.2420773369187819
  0
ARC
  5
AC04
  8
0
 10
6115.9940561143166633
 20
1297.4768640346449047
 30
0.0
 40
38.3297097989854478
 50
4.0640537883249106
 51
9.0762112457052257
  0
ARC
  5
AC05
  8
0
 10
6103.188434980132115
 20
1295.431188686789028
 30
0.0
 40
51.2976980878890174
 50
9.0762112457052257
 51
14.5003015269985305
  0
ARC
  5
AC06
  8
0
 10
6153.1374903077467025
 20
1308.3467313411249506
 30
0.0
 40
0.2941650764733972
 50
184.9048975574862084
 51
194.0398425244246994
  0
ARC
  5
AC07
  8
0
 10
6153.0838342631795967
 20
1308.3304227595378961
 30
0.0
 40
0.2415263461293666
 50
93.3364714827926036
 51
172.4488164979179032
  0
ARC
  5
AC08
  8
0
 10
6154.3723392424408303
 20
1294.1119449715858991
 30
0.0
 40
0.0163274342758804
 50
291.6951108519750164
 51
336.457417155987514
  0
ARC
  5
AC09
  8
0
 10
6154.1905843585936964
 20
1294.1911349173269627
 30
0.0
 40
0.2145845534641304
 50
336.457417155987514
 51
343.8882623191200878
  0
ARC
  5
AC0A
  8
0
 10
6154.2401712610708273
 20
1294.1768113879788871
 30
0.0
 40
0.1629703655863063
 50
343.8882623191200878
 51
350.7274217905978162
  0
ARC
  5
AC0B
  8
0
 10
6153.1441008020055961
 20
1294.3557612041390712
 30
0.0
 40
1.2735528649707
 50
350.7274217905978162
 51
356.6447224271096843
  0
ARC
  5
AC0C
  8
0
 10
6152.5735694162667642
 20
1294.3892101325359363
 30
0.0
 40
1.845063926039898
 50
356.6447224271096843
 51
0.1735553083718307
  0
ARC
  5
AC0D
  8
0
 10
6152.4244321067553756
 20
1294.3887583776049723
 30
0.0
 40
1.994201919760668
 50
0.1735553083718307
 51
6.5668027013263197
  0
ARC
  5
AC0E
  8
0
 10
6154.1191214630180184
 20
1294.5838456409369428
 30
0.0
 40
0.2883206066118622
 50
6.5668027013263197
 51
21.9024929999747613
  0
ARC
  5
AC0F
  8
0
 10
6154.3730739516868198
 20
1294.6857970168380234
 30
0.0
 40
0.0146683266762122
 50
22.4450562320315612
 51
73.2801922394704377
  0
ARC
  5
AC10
  8
0
 10
6154.3779678596101803
 20
1294.6789773945829438
 30
0.0
 40
0.0209392095133571
 50
94.732666307530053
 51
143.6196218090811954
  0
ARC
  5
AC11
  8
0
 10
6154.4083887406259237
 20
1294.6537183651139458
 30
0.0
 40
0.0604566537424954
 50
141.446906608069213
 51
169.7118736504729952
  0
ARC
  5
AC12
  8
0
 10
6155.3232500047897702
 20
1294.4093509746869586
 30
0.0
 40
1.0072035703874609
 50
165.324761609056111
 51
174.9362332487756078
  0
ARC
  5
AC13
  8
0
 10
6155.4060400890311939
 20
1294.3994345982430332
 30
0.0
 40
1.090548823529822
 50
174.8011957184615994
 51
190.8046845829123868
  0
ARC
  5
AC14
  8
0
 10
6154.7920363261782768
 20
1294.272075390279042
 30
0.0
 40
0.4636630327908117
 50
189.5689636737284047
 51
200.0224967030351877
  0
ARC
  5
AC15
  8
0
 10
6154.3932879003850758
 20
1294.1307060352689859
 30
0.0
 40
0.0407807444493286
 50
205.2313811357855116
 51
219.4972378205195866
  0
ARC
  5
AC16
  8
0
 10
6154.3796014194531381
 20
1294.1190789448910436
 30
0.0
 40
0.0228257541608238
 50
218.8271614320873937
 51
257.7358400156671792
  0
ARC
  5
AC17
  8
0
 10
6154.3640891571230895
 20
1294.11588147556904
 30
0.0
 40
0.0110425013437817
 50
288.7224997796461139
 51
329.6255775884516197
  0
ARC
  5
AC18
  8
0
 10
6154.6010955322690279
 20
1293.9769728453600237
 30
0.0
 40
0.263671221295766
 50
148.353001985731197
 51
149.6255775884515913
  0
ARC
  5
AC19
  8
0
 10
6154.2451093548734207
 20
1294.1750147421710153
 30
0.0
 40
0.1444378841132441
 50
335.587020217379802
 51
348.0225007327928211
  0
ARC
  5
AC1A
  8
0
 10
6153.7110434307896867
 20
1294.2881846186910479
 30
0.0
 40
0.6903626305987081
 50
348.0330670799236827
 51
354.1231795208049107
  0
ARC
  5
AC1B
  8
0
 10
6152.8789784166547179
 20
1294.373829973517104
 30
0.0
 40
1.5268238159221701
 50
354.1231795208049107
 51
358.5248955959162913
  0
ARC
  5
AC1C
  8
0
 10
6152.161204076291142
 20
1294.3923134655590275
 30
0.0
 40
2.2448361021422878
 50
358.5248955959162913
 51
3.471080164345334
  0
ARC
  5
AC1D
  8
0
 10
6153.5116650758736796
 20
1294.4742270295810158
 30
0.0
 40
0.891893108751603
 50
3.471080164345334
 51
11.7966659885417808
  0
ARC
  5
AC1E
  8
0
 10
6154.2989899479916858
 20
1294.6386599519439642
 30
0.0
 40
0.0875805822953398
 50
11.7966659885417808
 51
35.0213768706971109
  0
ARC
  5
AC1F
  8
0
 10
6154.3638944631265986
 20
1294.6816571505930824
 30
0.0
 40
0.0099626453442968
 50
46.8106444315965504
 51
63.7189399405881929
  0
ARC
  5
AC20
  8
0
 10
6154.3753437935811235
 20
1294.7096385685210862
 30
0.0
 40
0.0203072319822147
 50
243.9306067940509024
 51
249.7216004781190861
  0
ARC
  5
AC21
  8
0
 10
6154.369460743892887
 20
1294.6784419168850491
 30
0.0
 40
0.0137158324011239
 50
109.1679710474126068
 51
125.4541154198175974
  0
ARC
  5
AC22
  8
0
 10
6154.3721471704257056
 20
1294.6763330534270153
 30
0.0
 40
0.0170193183281852
 50
128.7047548102179064
 51
145.0947526038416981
  0
ARC
  5
AC23
  8
0
 10
6154.425917230201776
 20
1294.6441032219590852
 30
0.0
 40
0.07967680914076
 50
148.2148173997551055
 51
165.992101817535513
  0
ARC
  5
AC24
  8
0
 10
6154.3701622088447039
 20
1294.1195371766409608
 30
0.0
 40
0.0151394027869508
 50
211.0428016026858131
 51
248.7901143736158076
  0
ARC
  5
AC25
  8
0
 10
6117.0318415560523135
 20
1294.0789241835859684
 30
0.0
 40
37.6756118737232697
 50
0.0271455505920203
 51
0.944318174706327
  0
ARC
  5
AC26
  8
0
 10
6152.9940660797201417
 20
1310.4446143193711123
 30
0.0
 40
0.1619306093662273
 50
125.797017783966993
 51
176.2988703139639881
  0
ARC
  5
AC27
  8
0
 10
6153.1127412057840047
 20
1310.2800491456059717
 30
0.0
 40
0.3648233937676581
 50
109.3648799774070994
 51
125.797017783966993
  0
ARC
  5
AC28
  8
0
 10
6153.2176617280410937
 20
1309.9815272563389499
 30
0.0
 40
0.6812465824916387
 50
96.8014154234903259
 51
109.3648799774070994
  0
ARC
  5
AC29
  8
0
 10
6155.6794768223462597
 20
1286.7979877353700431
 30
0.0
 40
23.9950721840558785
 50
95.8214426198413065
 51
96.0824220570380305
  0
ARC
  5
AC2A
  8
0
 10
6153.0320509938283067
 20
1308.9412010944779468
 30
0.0
 40
0.1884336652196744
 50
176.7043357292739074
 51
216.2873417873449
  0
ARC
  5
AC2B
  8
0
 10
6159.3240582249409272
 20
1309.3505418402869509
 30
0.0
 40
6.492371202015601
 50
180.8916634768295921
 51
183.5190821099598963
  0
LINE
  5
AC2C
  8
0
 10
6152.6795198101599453
 20
1319.7424911838970729
 30
0.0
 11
6152.2284905595943201
 21
1319.7543018004980695
 31
0.0
  0
ARC
  5
AC2D
  8
0
 10
6152.2290140985624021
 20
1319.7742949470689382
 30
0.0
 40
0.0200000000720127
 50
185.6929147340815121
 51
268.4999999975079845
  0
LINE
  5
AC2E
  8
0
 10
6152.2091127416597374
 20
1320.962671355277962
 30
0.0
 11
6152.2091127416597374
 21
1319.7723110125159565
 31
0.0
  0
ARC
  5
AC30
  8
0
 10
6159.287203728372333
 20
1320.4564054129371016
 30
0.0
 40
7.1110728561071808
 50
181.7689645119912996
 51
185.5204655150699864
  0
LINE
  5
AC31
  8
0
 10
6152.6795198101599453
 20
1320.9924911831969894
 30
0.0
 11
6152.2284905595597593
 21
1320.9806805672949395
 31
0.0
  0
ARC
  5
AC32
  8
0
 10
6152.229014098496009
 20
1320.9606874207970577
 30
0.0
 40
0.0199999999984799
 50
91.4999999136134363
 51
174.3070854516585939
  0
LINE
  5
AC33
  8
0
 10
6152.2091127416597374
 20
1320.962671355277962
 30
0.0
 11
6152.1795198101599453
 21
1320.5207926862869954
 31
0.0
  0
ARC
  5
AC34
  8
0
 10
6152.8084621664293081
 20
1322.1739025241579384
 30
0.0
 40
0.1181102508381923
 50
89.9969004292830448
 51
178.5385285746183115
  0
ARC
  5
AC35
  8
0
 10
5433.1046769964823397
 20
1302.9806641489819867
 30
0.0
 40
719.8408923385138678
 50
1.2855826746714001
 51
1.525649137009319
  0
ARC
  5
AC36
  8
0
 10
6312.7471012384121423
 20
1322.7210862821739283
 30
0.0
 40
160.0230055412762908
 50
181.2855826746844059
 51
181.6769144912005913
  0
ARC
  5
AC37
  8
0
 10
5334.5590915126877007
 20
1294.0836160782039315
 30
0.0
 40
818.5841102466968096
 50
1.1574071719005601
 51
1.6769144912006491
  0
LINE
  5
AC38
  8
0
 10
6152.6795198101599453
 20
1319.9242590945968914
 30
0.0
 11
6152.7269696111598023
 21
1319.9226021106969711
 31
0.0
  0
ARC
  5
AC39
  8
0
 10
6152.727361509120783
 20
1319.9338245976759936
 30
0.0
 40
0.0112293275851577
 50
267.9999995937579911
 51
3.050183133691958
  0
LINE
  5
AC3A
  8
0
 10
6152.6795198101599453
 20
1320.810723273496933
 30
0.0
 11
6152.7246760513498884
 21
1320.8123001641511109
 31
0.0
  0
LINE
  5
AC3B
  8
0
 10
6152.7283183846302563
 20
1320.6646975681089771
 30
0.0
 11
6152.7184776901613077
 21
1320.664933641997095
 31
0.0
  0
ARC
  5
AC3C
  8
0
 10
6152.7187837218016284
 20
1320.6776905119129424
 30
0.0
 40
0.0127605401701436
 50
204.1351153626779933
 51
268.625763289762574
  0
LINE
  5
AC3D
  8
0
 10
6152.7071386602174243
 20
1320.6724728566809972
 30
0.0
 11
6152.7071841455963295
 21
1320.7143960796270221
 31
0.0
  0
ARC
  5
AC3E
  8
0
 10
6152.72701587681604
 20
1320.7106549479369733
 30
0.0
 40
0.0201815170272584
 50
90.9248969954359865
 51
169.3170527024471994
  0
LINE
  5
AC3F
  8
0
 10
6152.7385749282602774
 20
1319.9344221168969398
 30
0.0
 11
6152.7385749282602774
 21
1320.0064894694000941
 31
0.0
  0
ARC
  5
AC40
  8
0
 10
6152.7769926520022636
 20
1319.8102790070029187
 30
0.0
 40
0.1999361574395508
 50
99.4493395795283703
 51
103.2584964895984996
  0
ARC
  5
AC41
  8
0
 10
6152.7268102821535649
 20
1320.0262203871041038
 30
0.0
 40
0.0217690542142288
 50
244.6743047789761931
 51
281.4678084205875166
  0
ARC
  5
AC42
  8
0
 10
6152.7254472100876228
 20
1320.0233401297550699
 30
0.0
 40
0.0185825439198215
 50
193.0246308307725087
 51
244.6743047789707077
  0
LINE
  5
AC43
  8
0
 10
6152.7073427342447758
 20
1320.019152183604092
 30
0.0
 11
6152.7070788652599731
 21
1320.0616562033969785
 31
0.0
  0
ARC
  5
AC44
  8
0
 10
6152.7172968557506465
 20
1320.0597152774118967
 30
0.0
 40
0.0104006982144745
 50
83.4809158362140948
 51
169.2446967551383921
  0
LINE
  5
AC45
  8
0
 10
6152.7184776901613077
 20
1320.0700487256970064
 30
0.0
 11
6152.7283548007571881
 21
1320.0700970689390488
 31
0.0
  0
ARC
  5
AC46
  8
0
 10
6152.7282969656071145
 20
1320.0819134914909228
 30
0.0
 40
0.0118165640875727
 50
270.2804303518788061
 51
324.1998341369117043
  0
ARC
  5
AC47
  8
0
 10
6152.733431815797303
 20
1320.0782100981380154
 30
0.0
 40
0.0054855445172966
 50
324.1998341369117043
 51
358.777556622074826
  0
ARC
  5
AC48
  8
0
 10
6152.7515828310833967
 20
1320.0746678075608997
 30
0.0
 40
0.0131216689017572
 50
134.6938586367446078
 51
164.8683036573370941
  0
ARC
  5
AC4A
  8
0
 10
6153.2987415858160603
 20
1308.7681488545949833
 30
0.0
 40
0.1967940890292773
 50
272.4801608568008078
 51
332.9744409922777777
  0
ARC
  5
AC4B
  8
0
 10
6153.2993436471579116
 20
1308.7682448305858998
 30
0.0
 40
0.1963017091519814
 50
332.8696383821912264
 51
356.9873036533149957
  0
ARC
  5
AC4C
  8
0
 10
6198.7711811984645465
 20
1306.3750627686449661
 30
0.0
 40
45.3384688587787821
 50
176.9190980377632059
 51
176.9873036533149104
  0
ARC
  5
AC4D
  8
0
 10
6153.3277098491025754
 20
1308.5274856632408955
 30
0.0
 40
0.3315556496263074
 50
59.0465413552662994
 51
65.705403562938713
  0
ARC
  5
AC4E
  8
0
 10
6153.4020566136550769
 20
1308.6514474331609108
 30
0.0
 40
0.1870082117350782
 50
33.9467774161818028
 51
59.0465413552662994
  0
ARC
  5
AC4F
  8
0
 10
6155.4086205699541097
 20
1310.0021816821879383
 30
0.0
 40
2.2318307498765391
 50
213.9467774161817886
 51
214.343553419831693
  0
ARC
  5
AC50
  8
0
 10
6153.5926758922087174
 20
1308.761404427737034
 30
0.0
 40
0.0324710094545268
 50
214.343553419831693
 51
265.7992994592074183
  0
LINE
  5
AC52
  8
0
 10
6154.1215091536678301
 20
1308.6305954521969852
 30
0.0
 11
6153.6226291488555944
 21
1308.6305954521969852
 31
0.0
  0
ARC
  5
AC53
  8
0
 10
6153.6226291488555944
 20
1308.6699655337920376
 30
0.0
 40
0.0393700815954398
 50
180.0000042137747016
 51
270.000003935988218
  0
LINE
  5
AC54
  8
0
 10
6153.5832591078587939
 20
1308.6699655308968886
 30
0.0
 11
6153.583259111361258
 21
1308.7290206489969933
 31
0.0
  0
LINE
  5
AC55
  8
0
 10
6153.583259111361258
 20
1308.7290206489969933
 30
0.0
 11
6154.1580622599603885
 21
1308.7290206489969933
 31
0.0
  0
LINE
  5
AC56
  8
0
 10
6154.1580622599603885
 20
1308.7290206489969933
 30
0.0
 11
6154.1580622599603885
 21
1308.6699655308968886
 31
0.0
  0
ARC
  5
AC57
  8
0
 10
6154.1185836359909445
 20
1308.6699655308968886
 30
0.0
 40
0.0394786239694607
 50
274.2497328911514956
 51
0.0
  0
ARC
  5
AC58
  8
0
 10
6154.1511768381878937
 20
1308.7714013732540934
 30
0.0
 40
0.0429364043858041
 50
279.2279817410118881
 51
311.8588629480705094
  0
ARC
  5
AC59
  8
0
 10
6154.2889197146032529
 20
1308.6176625109410452
 30
0.0
 40
0.1634824362963039
 50
117.849986652987397
 51
131.8588629480705094
  0
ARC
  5
AC5A
  8
0
 10
6154.3135535328228798
 20
1308.5710389572438999
 30
0.0
 40
0.2162136486799957
 50
104.5520959139939947
 51
117.849986652987397
  0
LINE
  5
AC5B
  8
0
 10
6154.2592276516597849
 20
1308.7803163819969541
 30
0.0
 11
6154.475120720259838
 21
1308.7580883740970421
 31
0.0
  0
LINE
  5
AC5C
  8
0
 10
6154.475120720259838
 20
1308.7580883740970421
 30
0.0
 11
6154.963318845860158
 21
1308.6890754081969135
 31
0.0
  0
ARC
  5
AC5D
  8
0
 10
6154.6785331362061697
 20
1307.2892252164260753
 30
0.0
 40
1.4285249244668361
 50
70.4497290080339127
 51
78.5006693608105905
  0
ARC
  5
AC5E
  8
0
 10
6155.1984838959760964
 20
1308.6119631581800604
 30
0.0
 40
0.0419205364243277
 50
184.6538941269699876
 51
254.6437440800829961
  0
LINE
  5
AC5F
  8
0
 10
6155.1567015715590969
 20
1308.6085618730469378
 30
0.0
 11
6155.1567015715590969
 21
1308.6699655308968886
 31
0.0
  0
LINE
  5
AC60
  8
0
 10
6155.1567015715590969
 20
1308.6699655308968886
 30
0.0
 11
6155.9379902612599835
 21
1308.6699655308968886
 31
0.0
  0
LINE
  5
AC61
  8
0
 10
6155.9379902612599835
 20
1308.6699655308968886
 30
0.0
 11
6155.9379951475602866
 21
1308.6109104127970113
 31
0.0
  0
ARC
  5
AC62
  8
0
 10
6155.8986283260210257
 20
1308.6109071555329137
 30
0.0
 40
0.0393668216726376
 50
269.9952292726292171
 51
0.0047407299472031
  0
ARC
  5
AC63
  8
0
 10
6155.9226691274589029
 20
1308.7114997596158901
 30
0.0
 40
0.0425693996598465
 50
282.6613182243928009
 51
329.3488896463309743
  0
ARC
  5
AC64
  8
0
 10
6156.1184212665639279
 20
1308.5954964497600486
 30
0.0
 40
0.184973272956855
 50
112.7060488893160937
 51
149.348889646330889
  0
ARC
  5
AC65
  8
0
 10
6156.0989702931610736
 20
1308.6419817129519743
 30
0.0
 40
0.1345825986175605
 50
78.8106413269301953
 51
112.7060488893160937
  0
ARC
  5
AC66
  8
0
 10
6156.1223271230392129
 20
1308.8209842315930018
 30
0.0
 40
0.0470591320100284
 50
273.3613461962696078
 51
304.7351785773551001
  0
ARC
  5
AC67
  8
0
 10
6156.1467423913545645
 20
1308.7843680929699985
 30
0.0
 40
0.0031594528997836
 50
319.3832859862284863
 51
20.6489482181203208
  0
ARC
  5
AC68
  8
0
 10
6156.1454085354125709
 20
1308.7838654285469602
 30
0.0
 40
0.0045848802728136
 50
20.6489482181203208
 51
55.1422845338019911
  0
ARC
  5
AC69
  8
0
 10
6156.0356862924218149
 20
1308.6263346536920835
 30
0.0
 40
0.1965612216102203
 50
55.1422845338019911
 51
56.3376441787217601
  0
ARC
  5
AC6A
  8
0
 10
6156.0886634690095889
 20
1308.6677786789539368
 30
0.0
 40
0.1343718691335807
 50
65.3813205006919702
 51
78.7583222858207108
  0
ARC
  5
AC6B
  8
0
 10
6155.9269136907842039
 20
1307.9005483503849518
 30
0.0
 40
0.9184594375122397
 50
78.1921001514016041
 51
83.8871275155578644
  0
ARC
  5
AC6C
  8
0
 10
6155.7433144756369074
 20
1306.351864418059904
 30
0.0
 40
2.4779514248691732
 50
83.4792511884186155
 51
85.5168963495528658
  0
ARC
  5
AC6D
  8
0
 10
6155.9690409681543315
 20
1309.3577767093870534
 30
0.0
 40
0.536499744045327
 50
259.8462890611519924
 51
266.5765374810328012
  0
ARC
  5
AC6E
  8
0
 10
6155.1780975089841377
 20
1308.7095839439189149
 30
0.0
 40
0.0396186987845473
 50
193.4631617593811086
 51
269.7823841677370069
  0
ARC
  5
AC6F
  8
0
 10
6154.9857294008061217
 20
1308.6635312386599708
 30
0.0
 40
0.1581850946724271
 50
13.4631617593811193
 51
38.0355027512573471
  0
ARC
  5
AC70
  8
0
 10
6154.9376999042306124
 20
1308.6259585328009507
 30
0.0
 40
0.219164933690475
 50
38.0355027512573471
 51
68.3620383767410118
  0
ARC
  5
AC71
  8
0
 10
6153.1579398768153624
 20
1309.1659969981089944
 30
0.0
 40
0.1927069855647654
 50
179.6985284530655065
 51
208.8634476100235133
  0
ARC
  5
AC72
  8
0
 10
6155.8584226589891841
 20
1309.39743257463806
 30
0.0
 40
2.9023483112493822
 50
181.7255881765836136
 51
184.5535867258967073
  0
LINE
  5
AC73
  8
0
 10
6152.891964111836387
 20
1309.310133027646998
 30
0.0
 11
6167.4671139273150402
 21
1309.310133027646998
 31
0.0
  0
ARC
  5
AC75
  8
0
 10
6155.2007187537456048
 20
1309.6264985315849572
 30
0.0
 40
2.3686742772107059
 50
181.0901366963256862
 51
185.5434921246830982
  0
ARC
  5
AC76
  8
0
 10
6153.0766882844000065
 20
1309.4203502807279165
 30
0.0
 40
0.2346633737615576
 50
185.5434921246830982
 51
199.8225002268193009
  0
ARC
  5
AC77
  8
0
 10
6152.9144956604550316
 20
1309.3618853836260314
 30
0.0
 40
0.0622551620798017
 50
199.8225002268193009
 51
226.303724665699292
  0
ARC
  5
AC78
  8
0
 10
6152.8843631745912717
 20
1309.3303494342010254
 30
0.0
 40
0.0186377021526752
 50
226.303724665699292
 51
260.0896901536366954
  0
ARC
  5
AC79
  8
0
 10
6153.2136630635250185
 20
1311.2151502114390951
 30
0.0
 40
1.9319887903563591
 50
260.0896901536366954
 51
260.4149301070946763
  0
LINE
  5
AC7B
  8
0
 10
6153.9704702836697834
 20
1309.0957596512969303
 30
0.0
 11
6153.8442475934598406
 21
1309.0957596512969303
 31
0.0
  0
ARC
  5
AC7D
  8
0
 10
6153.8992388341475817
 20
1312.1848633866300133
 30
0.0
 40
3.0895931648363821
 50
266.8453567592570153
 51
268.9801465055833773
  0
ARC
  5
AC7E
  8
0
 10
6153.7926081136329231
 20
1310.2069080927819869
 30
0.0
 40
1.10876973195062
 50
263.4368602968913251
 51
266.7223744281088216
  0
ARC
  5
AC7F
  8
0
 10
6153.69665130843714
 20
1309.3728785800899459
 30
0.0
 40
0.2692383528435025
 50
255.1184547885468987
 51
263.4368602968913251
  0
ARC
  5
AC80
  8
0
 10
6153.6403533622979012
 20
1309.1610207506489587
 30
0.0
 40
0.0500279547441701
 50
226.9497168399431928
 51
255.1184547885468987
  0
ARC
  5
AC81
  8
0
 10
6153.6348325517847115
 20
1309.1551108132518948
 30
0.0
 40
0.0419405133223998
 50
182.7144179100816075
 51
226.9497168399431928
  0
LINE
  5
AC82
  8
0
 10
6153.5929390961600802
 20
1309.1531246023969288
 30
0.0
 11
6153.5929056356599176
 21
1309.2037423106689857
 31
0.0
  0
ARC
  5
AC83
  8
0
 10
6153.3495659256077488
 20
1309.088616424546899
 30
0.0
 40
0.2338527441247714
 50
33.7855127071075927
 51
71.3066248936435017
  0
ARC
  5
AC84
  8
0
 10
6153.5644620286211648
 20
1309.2385063992790037
 30
0.0
 40
0.0285592827993484
 50
224.0248654715020962
 51
247.0333616650057138
  0
ARC
  5
AC85
  8
0
 10
6153.6080277475675757
 20
1309.3711930541030597
 30
0.0
 40
0.168132179385799
 50
251.0104779120183878
 51
264.8397407408783124
  0
ARC
  5
AC86
  8
0
 10
6153.7227578864431052
 20
1310.3163681033820467
 30
0.0
 40
1.1201775580876321
 50
263.3432426170195981
 51
266.4926894354621254
  0
ARC
  5
AC87
  8
0
 10
6153.8550000284531052
 20
1312.4080691161259438
 30
0.0
 40
3.2160533765014199
 50
266.4208433374885772
 51
268.9544264182076176
  0
ARC
  5
AC88
  8
0
 10
6153.8821517781016155
 20
1313.4113933078160699
 30
0.0
 40
4.2197152256952659
 50
268.8344109825126793
 51
270.0947067785742775
  0
ARC
  5
AC89
  8
0
 10
6153.9041781708801864
 20
1312.038199960232987
 30
0.0
 40
2.8465559067451829
 50
269.6970416399936994
 51
275.3848512662141275
  0
ARC
  5
AC8A
  8
0
 10
6154.1489125474054163
 20
1309.3998339611550819
 30
0.0
 40
0.1969058850490105
 50
276.5323725076195842
 51
285.6653195802948062
  0
ARC
  5
AC8B
  8
0
 10
6154.1801742856514466
 20
1309.2642887475929001
 30
0.0
 40
0.0583174964694374
 50
292.0638210821891789
 51
309.5489081017386184
  0
ARC
  5
AC8C
  8
0
 10
6154.4210259667188438
 20
1309.0804778127039754
 30
0.0
 40
0.2465336427083046
 50
131.5577317957155969
 51
145.7238331061309111
  0
ARC
  5
AC8D
  8
0
 10
6154.4074657209630459
 20
1309.0949485202679625
 30
0.0
 40
0.2267105321239708
 50
108.3485781653892985
 51
131.4193718544372018
  0
ARC
  5
AC8E
  8
0
 10
6153.9603071516557975
 20
1310.0008172966608981
 30
0.0
 40
0.9051147058157587
 50
270.643362442687021
 51
280.8119604278522274
  0
ARC
  5
AC8F
  8
0
 10
6154.1211849376995815
 20
1309.1584218243299347
 30
0.0
 40
0.0474948635512551
 50
280.8119604278522274
 51
317.2251714136518785
  0
ARC
  5
AC90
  8
0
 10
6154.1236773877435553
 20
1309.1561158234010236
 30
0.0
 40
0.0440992859122398
 50
317.2251714136518785
 51
356.1215428221772186
  0
LINE
  5
AC91
  8
0
 10
6154.1677267637705881
 20
1309.2038706446080596
 30
0.0
 11
6154.1676756766601102
 21
1309.1531329404970165
 31
0.0
  0
ARC
  5
AC92
  8
0
 10
6154.9226551083320373
 20
1309.0787076358610648
 30
0.0
 40
0.2363320008396111
 50
36.1145031767986779
 51
78.3044310715974774
  0
ARC
  5
AC93
  8
0
 10
6154.9222952838854326
 20
1309.0784451078220627
 30
0.0
 40
0.2367774159309899
 50
23.5478902294170211
 51
36.1145031767986779
  0
ARC
  5
AC94
  8
0
 10
6154.9461903206156421
 20
1309.0888587226449999
 30
0.0
 40
0.2107118034491366
 50
22.3483615608210684
 51
23.5478902294170211
  0
ARC
  5
AC95
  8
0
 10
6155.1592881799570023
 20
1309.1764667213099074
 30
0.0
 40
0.0196918837735403
 50
202.3483615608211039
 51
236.0762302736966944
  0
ARC
  5
AC96
  8
0
 10
6155.1595268159499028
 20
1309.1769519019289874
 30
0.0
 40
0.0202277884223295
 50
236.2823214676411965
 51
265.6512528663693047
  0
LINE
  5
AC97
  8
0
 10
6155.1565658585614074
 20
1309.1567823496970959
 30
0.0
 11
6155.9379902612599835
 21
1309.1567823496970959
 31
0.0
  0
LINE
  5
AC98
  8
0
 10
6155.9379902612599835
 20
1309.1567823496970959
 30
0.0
 11
6155.9379951475602866
 21
1309.0977272315969913
 31
0.0
  0
ARC
  5
AC99
  8
0
 10
6155.8950194234521405
 20
1309.097723675728048
 30
0.0
 40
0.0429757242550237
 50
324.8353566517652098
 51
0.0047407299472031
  0
ARC
  5
AC9A
  8
0
 10
6155.1974427987406671
 20
1309.098231843998974
 30
0.0
 40
0.0408849407265842
 50
180.7071771296932923
 51
218.1563207008908876
  0
LINE
  5
AC9B
  8
0
 10
6155.1565609721601504
 20
1309.0977272315969913
 30
0.0
 11
6155.1565658585614074
 21
1309.1567823496970959
 31
0.0
  0
ARC
  5
AC9C
  8
0
 10
6155.9346186891398247
 20
1309.1771545037520355
 30
0.0
 40
0.0206492653474855
 50
279.3972184346010863
 51
341.334947704399724
  0
ARC
  5
AC9D
  8
0
 10
6156.17185186183724
 20
1309.0781277962530567
 30
0.0
 40
0.236476912741068
 50
141.9245310382952994
 51
156.9949132503157045
  0
ARC
  5
AC9E
  8
0
 10
6156.2408250556363782
 20
1308.9908726961000411
 30
0.0
 40
0.3455736071582975
 50
119.1901942751624972
 51
137.5844965841970122
  0
ARC
  5
AC9F
  8
0
 10
6156.1440238489967669
 20
1309.1641476887439239
 30
0.0
 40
0.1470926340591125
 50
97.0347179165418368
 51
119.1901942751624972
  0
LINE
  5
ACA0
  8
0
 10
6167.0518065976939397
 20
1308.5715397117769498
 30
0.0
 11
6167.28930049029168
 21
1308.5715397117769498
 31
0.0
  0
LINE
  5
ACA1
  8
0
 10
6167.6686877024912974
 20
1322.1769148933169618
 30
0.0
 11
6167.6686877024912974
 21
1322.146034988431893
 31
0.0
  0
LINE
  5
ACA2
  8
0
 10
6167.594702388191763
 20
1319.1802775573180497
 30
0.0
 11
6167.594702388191763
 21
1319.1308472826890466
 31
0.0
  0
LINE
  5
ACA3
  8
0
 10
6167.5146755727919299
 20
1308.362162175819094
 30
0.0
 11
6167.5146755727919299
 21
1308.3215796125969064
 31
0.0
  0
LINE
  5
ACA4
  8
0
 10
6167.5266048375269747
 20
1310.4550672614570885
 30
0.0
 11
6167.5266048375269747
 21
1309.2495086288140556
 31
0.0
  0
LINE
  5
ACA5
  8
0
 10
6166.1457776083916542
 20
1293.0323260256141111
 30
0.0
 11
6166.1457776083916542
 21
1292.9250724658470517
 31
0.0
  0
ARC
  5
ACA6
  8
0
 10
6166.0291095131151451
 20
1292.9412858055379729
 30
0.0
 40
0.1177892900041774
 50
270.8287762222719266
 51
352.0882902645781201
  0
LINE
  5
ACA7
  8
0
 10
6165.6567415681683997
 20
1294.6998452120469665
 30
0.0
 11
6165.9828378048860031
 21
1294.6998452120469665
 31
0.0
  0
LINE
  5
ACA8
  8
0
 10
6165.6516288378370518
 20
1294.0967741054969338
 30
0.0
 11
6165.9843252476121052
 21
1294.0967741054969338
 31
0.0
  0
LINE
  5
ACA9
  8
0
 10
6165.9926584493568953
 20
1294.6913973443970463
 30
0.0
 11
6165.9941207335496074
 21
1294.6913973443970463
 31
0.0
  0
LINE
  5
ACAA
  8
0
 10
6165.991444405499351
 20
1294.105423295897026
 30
0.0
 11
6165.994393045574725
 21
1294.105423295897026
 31
0.0
  0
ARC
  5
ACAB
  8
0
 10
6170.1211720286573836
 20
1293.1162993052330421
 30
0.0
 40
3.976281215956774
 50
180.6803637751692122
 51
181.2100935421661063
  0
ARC
  5
ACAC
  8
0
 10
6271.9839641398693857
 20
1294.9786667776700142
 30
0.0
 40
105.8560182950197941
 50
180.5919604286017943
 51
181.0336397206397123
  0
ARC
  5
ACAD
  8
0
 10
10442.501357402490612
 20
1354.7554364731699934
 30
0.0
 40
4276.8009589997709554
 50
180.804697042338006
 51
180.8155010877133861
  0
ARC
  5
ACAE
  8
0
 10
12650.6874640480891685
 20
1385.8641730774859298
 30
0.0
 40
6485.2061820741100746
 50
180.7731163332078097
 51
180.805523710464513
  0
ARC
  5
ACAF
  8
0
 10
-18642.2285778045988991
 20
963.5899128171248549
 30
0.0
 40
24810.5588661447982304
 50
0.7731163332078566
 51
0.7747802179180241
  0
ARC
  5
ACB0
  8
0
 10
6214.6040865684071832
 20
1296.5979726214720813
 30
0.0
 40
48.6055508376892504
 50
175.7579226630811888
 51
177.0733825529904095
  0
ARC
  5
ACB1
  8
0
 10
6204.3650219248347639
 20
1297.4768640346449047
 30
0.0
 40
38.3297097989854478
 50
170.9237887542946908
 51
175.9359462116750876
  0
ARC
  5
ACB2
  8
0
 10
6217.1706430590211312
 20
1295.431188686789028
 30
0.0
 40
51.2976980878890174
 50
165.4996984730013878
 51
170.9237887542946908
  0
ARC
  5
ACB3
  8
0
 10
6167.2215877314047248
 20
1308.3467313411249506
 30
0.0
 40
0.2941650764733972
 50
345.9601574755752722
 51
355.0951024425136779
  0
ARC
  5
ACB4
  8
0
 10
6167.275243775970921
 20
1308.3304227595378961
 30
0.0
 40
0.2415263461293666
 50
7.5511835020820577
 51
86.6635285172073822
  0
ARC
  5
ACB5
  8
0
 10
6165.9867387967105969
 20
1294.1119449715858991
 30
0.0
 40
0.0163274342758804
 50
203.5425828440124008
 51
248.3048891480248983
  0
ARC
  5
ACB6
  8
0
 10
6166.1684936805577308
 20
1294.1911349173269627
 30
0.0
 40
0.2145845534641304
 50
196.1117376808797985
 51
203.5425828440124008
  0
ARC
  5
ACB7
  8
0
 10
6166.1189067780805999
 20
1294.1768113879788871
 30
0.0
 40
0.1629703655863063
 50
189.2725782094022122
 51
196.1117376808797985
  0
ARC
  5
ACB8
  8
0
 10
6167.2149772371458312
 20
1294.3557612041390712
 30
0.0
 40
1.2735528649707
 50
183.3552775728902873
 51
189.2725782094022122
  0
ARC
  5
ACB9
  8
0
 10
6167.7855086228837536
 20
1294.3892101325359363
 30
0.0
 40
1.845063926039898
 50
179.8264446916282111
 51
183.3552775728902873
  0
ARC
  5
ACBA
  8
0
 10
6167.9346459323978706
 20
1294.3887583776049723
 30
0.0
 40
1.994201919760668
 50
173.4331972986736901
 51
179.8264446916282111
  0
ARC
  5
ACBB
  8
0
 10
6166.2399565761315898
 20
1294.5838456409369428
 30
0.0
 40
0.2883206066118622
 50
158.097507000025189
 51
173.4331972986736901
  0
ARC
  5
ACBC
  8
0
 10
6165.9860040874636979
 20
1294.6857970168380234
 30
0.0
 40
0.0146683266762122
 50
106.7198077605295055
 51
157.5549437679684104
  0
ARC
  5
ACBD
  8
0
 10
6165.9811101795412469
 20
1294.6789773945829438
 30
0.0
 40
0.0209392095133571
 50
36.380378190918762
 51
85.267333692469947
  0
ARC
  5
ACBE
  8
0
 10
6165.950689298526413
 20
1294.6537183651139458
 30
0.0
 40
0.0604566537424954
 50
10.2881263495269604
 51
38.5530933919307728
  0
ARC
  5
ACBF
  8
0
 10
6165.035828034361657
 20
1294.4093509746869586
 30
0.0
 40
1.0072035703874609
 50
5.0637667512244056
 51
14.6752383909438695
  0
ARC
  5
ACC0
  8
0
 10
6164.9530379501202333
 20
1294.3994345982430332
 30
0.0
 40
1.090548823529822
 50
349.1953154170876132
 51
5.1988042815383642
  0
ARC
  5
ACC1
  8
0
 10
6165.5670417129740599
 20
1294.272075390279042
 30
0.0
 40
0.4636630327908117
 50
339.977503296964926
 51
350.4310363262716237
  0
ARC
  5
ACC2
  8
0
 10
6165.9657901387663514
 20
1294.1307060352689859
 30
0.0
 40
0.0407807444493286
 50
320.5027621794803849
 51
334.7686188642144884
  0
ARC
  5
ACC3
  8
0
 10
6165.9794766197001081
 20
1294.1190789448910436
 30
0.0
 40
0.0228257541608238
 50
282.2641599843328208
 51
321.1728385679124926
  0
ARC
  5
ACC4
  8
0
 10
6165.9949888820301567
 20
1294.11588147556904
 30
0.0
 40
0.0110425013437817
 50
210.3744224115484087
 51
251.2775002203538861
  0
ARC
  5
ACC5
  8
0
 10
6165.7579825068823993
 20
1293.9769728453600237
 30
0.0
 40
0.263671221295766
 50
30.3744224115483696
 51
31.646998014268739
  0
ARC
  5
ACC6
  8
0
 10
6166.1139686842780065
 20
1294.1750147421710153
 30
0.0
 40
0.1444378841132441
 50
191.9774992672070937
 51
204.4129797826201127
  0
ARC
  5
ACC7
  8
0
 10
6166.6480346083599215
 20
1294.2881846186910479
 30
0.0
 40
0.6903626305987081
 50
185.8768204791950893
 51
191.9669329200762888
  0
ARC
  5
ACC8
  8
0
 10
6167.4800996224967093
 20
1294.373829973517104
 30
0.0
 40
1.5268238159221701
 50
181.4751044040837087
 51
185.8768204791950893
  0
ARC
  5
ACC9
  8
0
 10
6168.1978739628611947
 20
1294.3923134655590275
 30
0.0
 40
2.2448361021422878
 50
176.5289198356547047
 51
181.4751044040837087
  0
ARC
  5
ACCA
  8
0
 10
6166.8474129632777476
 20
1294.4742270295810158
 30
0.0
 40
0.891893108751603
 50
168.2033340114581961
 51
176.5289198356547047
  0
ARC
  5
ACCB
  8
0
 10
6166.060088091158832
 20
1294.6386599519439642
 30
0.0
 40
0.0875805822953398
 50
144.9786231293028891
 51
168.2033340114581961
  0
ARC
  5
ACCC
  8
0
 10
6165.9951835760257381
 20
1294.6816571505930824
 30
0.0
 40
0.0099626453442968
 50
116.2810600594118
 51
133.1893555684034141
  0
ARC
  5
ACCD
  8
0
 10
6165.9837342455703038
 20
1294.7096385685210862
 30
0.0
 40
0.0203072319822147
 50
290.2783995218808855
 51
296.0693932059489839
  0
ARC
  5
ACCE
  8
0
 10
6165.9896172952594497
 20
1294.6784419168850491
 30
0.0
 40
0.0137158324011239
 50
54.5458845801824026
 51
70.8320289525873363
  0
ARC
  5
ACCF
  8
0
 10
6165.9869308687257217
 20
1294.6763330534270153
 30
0.0
 40
0.0170193183281852
 50
34.9052473961583019
 51
51.2952451897820723
  0
ARC
  5
ACD0
  8
0
 10
6165.9331608089487418
 20
1294.6441032219590852
 30
0.0
 40
0.07967680914076
 50
14.0078981824645208
 51
31.7851826002448803
  0
ARC
  5
ACD1
  8
0
 10
6165.9889158303067234
 20
1294.1195371766409608
 30
0.0
 40
0.0151394027869508
 50
291.2098856263842208
 51
328.9571983973141869
  0
ARC
  5
ACD2
  8
0
 10
6203.3272364830991137
 20
1294.0789241835859684
 30
0.0
 40
37.6756118737232697
 50
179.0556818252937035
 51
179.972854449408004
  0
ARC
  5
ACD3
  8
0
 10
6167.365011959430376
 20
1310.4446143193711123
 30
0.0
 40
0.1619306093662273
 50
3.7011296860359719
 51
54.2029822160330284
  0
ARC
  5
ACD4
  8
0
 10
6167.2463368333674225
 20
1310.2800491456059717
 30
0.0
 40
0.3648233937676581
 50
54.2029822160330284
 51
70.6351200225928721
  0
ARC
  5
ACD5
  8
0
 10
6167.1414163111103335
 20
1309.9815272563389499
 30
0.0
 40
0.6812465824916387
 50
70.6351200225928721
 51
83.1985845765096883
  0
ARC
  5
ACD6
  8
0
 10
6164.6796012168051675
 20
1286.7979877353700431
 30
0.0
 40
23.9950721840558785
 50
83.9175779429619979
 51
84.1785573801586793
  0
ARC
  5
ACD7
  8
0
 10
6167.32702704532403
 20
1308.9412010944779468
 30
0.0
 40
0.1884336652196744
 50
323.7126582126551284
 51
3.2956642707261339
  0
ARC
  5
ACD8
  8
0
 10
6161.0350198142095905
 20
1309.3505418402869509
 30
0.0
 40
6.492371202015601
 50
356.4809178900400752
 51
359.1083365231704079
  0
ARC
  5
ACD9
  8
0
 10
6167.550615824758097
 20
1322.1739025032059089
 30
0.0
 40
0.1181102993209824
 50
1.461480992476369
 51
89.9608800596723484
  0
ARC
  5
ACDA
  8
0
 10
6887.2544010426709065
 20
1302.9806641489819867
 30
0.0
 40
719.8408923385138678
 50
178.4743508629906898
 51
178.7144173253286112
  0
ARC
  5
ACDB
  8
0
 10
6007.6119768007401944
 20
1322.7210862821739283
 30
0.0
 40
160.0230055412762908
 50
358.3230855087994087
 51
358.7144173253155941
  0
ARC
  5
ACDC
  8
0
 10
6985.799986526462817
 20
1294.0836160782039315
 30
0.0
 40
818.5841102466968096
 50
178.323085508799295
 51
178.8425928280994128
  0
LINE
  5
ACDD
  8
0
 10
6167.6307596545220804
 20
1320.6646975681089771
 30
0.0
 11
6167.6406003489919385
 21
1320.664933641997095
 31
0.0
  0
ARC
  5
ACDE
  8
0
 10
6167.0603364533362765
 20
1308.7681488545949833
 30
0.0
 40
0.1967940890292773
 50
207.0255590077221939
 51
267.5198391431991922
  0
ARC
  5
ACDF
  8
0
 10
6167.0597343919944251
 20
1308.7682448305858998
 30
0.0
 40
0.1963017091519814
 50
183.0126963466850043
 51
207.1303616178088021
  0
ARC
  5
ACE0
  8
0
 10
6121.5878968406859713
 20
1306.3750627686449661
 30
0.0
 40
45.3384688587787821
 50
3.0126963466850261
 51
3.0809019622367488
  0
ARC
  5
ACE1
  8
0
 10
6167.0313681900479423
 20
1308.5274856632408955
 30
0.0
 40
0.3315556496263074
 50
114.2945964370613012
 51
120.9534586447337006
  0
ARC
  5
ACE2
  8
0
 10
6166.9570214254963503
 20
1308.6514474331609108
 30
0.0
 40
0.1870082117350782
 50
120.9534586447337006
 51
146.0532225838182114
  0
ARC
  5
ACE3
  8
0
 10
6164.950457469198227
 20
1310.0021816821879383
 30
0.0
 40
2.2318307498765391
 50
325.6564465801682786
 51
326.053222583818183
  0
ARC
  5
ACE4
  8
0
 10
6166.7664021469418003
 20
1308.761404427737034
 30
0.0
 40
0.0324710094545268
 50
274.2007005407925817
 51
325.6564465801682786
  0
LINE
  5
ACE5
  8
0
 10
6166.2375688854854161
 20
1308.6305954521969852
 30
0.0
 11
6166.7364488902958328
 21
1308.6305954521969852
 31
0.0
  0
ARC
  5
ACE6
  8
0
 10
6166.7364488902958328
 20
1308.6699655337920376
 30
0.0
 40
0.0393700815954398
 50
269.999996064011782
 51
359.9999957862253268
  0
LINE
  5
ACE7
  8
0
 10
6166.7758189312917239
 20
1308.6699655308968886
 30
0.0
 11
6166.7758189277919882
 21
1308.7290206489969933
 31
0.0
  0
LINE
  5
ACE8
  8
0
 10
6166.7758189277919882
 20
1308.7290206489969933
 30
0.0
 11
6166.2010157791919482
 21
1308.7290206489969933
 31
0.0
  0
LINE
  5
ACE9
  8
0
 10
6166.2010157791919482
 20
1308.7290206489969933
 30
0.0
 11
6166.2010157791919482
 21
1308.6699655308968886
 31
0.0
  0
ARC
  5
ACEA
  8
0
 10
6166.2404944031623018
 20
1308.6699655308968886
 30
0.0
 40
0.0394786239694607
 50
180.0
 51
265.7502671088483908
  0
ARC
  5
ACEB
  8
0
 10
6166.207901200962624
 20
1308.7714013732540934
 30
0.0
 40
0.0429364043858041
 50
228.1411370519294906
 51
260.7720182589881119
  0
ARC
  5
ACEC
  8
0
 10
6166.0701583245481743
 20
1308.6176625109410452
 30
0.0
 40
0.1634824362963039
 50
48.1411370519295119
 51
62.1500133470125604
  0
ARC
  5
ACED
  8
0
 10
6166.0455245063303664
 20
1308.5710389572438999
 30
0.0
 40
0.2162136486799957
 50
62.1500133470125604
 51
75.4479040860060053
  0
LINE
  5
ACEE
  8
0
 10
6166.0998503874907328
 20
1308.7803163819969541
 30
0.0
 11
6165.8839573188915892
 21
1308.7580883740970421
 31
0.0
  0
LINE
  5
ACEF
  8
0
 10
6165.8839573188915892
 20
1308.7580883740970421
 30
0.0
 11
6165.3957591932912692
 21
1308.6890754081969135
 31
0.0
  0
ARC
  5
ACF0
  8
0
 10
6165.6805449029452575
 20
1307.2892252164260753
 30
0.0
 40
1.4285249244668361
 50
101.4993306391893952
 51
109.5502709919661015
  0
ARC
  5
ACF1
  8
0
 10
6165.1605941431762403
 20
1308.6119631581800604
 30
0.0
 40
0.0419205364243277
 50
285.3562559199169755
 51
355.3461058730300124
  0
LINE
  5
ACF2
  8
0
 10
6165.2023764675923303
 20
1308.6085618730469378
 30
0.0
 11
6165.2023764675923303
 21
1308.6699655308968886
 31
0.0
  0
LINE
  5
ACF3
  8
0
 10
6165.2023764675923303
 20
1308.6699655308968886
 30
0.0
 11
6164.4210877778923532
 21
1308.6699655308968886
 31
0.0
  0
LINE
  5
ACF4
  8
0
 10
6164.4210877778923532
 20
1308.6699655308968886
 30
0.0
 11
6164.4210828915929596
 21
1308.6109104127970113
 31
0.0
  0
ARC
  5
ACF5
  8
0
 10
6164.4604497131285825
 20
1308.6109071555329137
 30
0.0
 40
0.0393668216726376
 50
179.9952592700527987
 51
270.0047707273187143
  0
ARC
  5
ACF6
  8
0
 10
6164.4364089116934338
 20
1308.7114997596158901
 30
0.0
 40
0.0425693996598465
 50
210.6511103536689973
 51
257.3386817756071991
  0
ARC
  5
ACF7
  8
0
 10
6164.2406567725884088
 20
1308.5954964497600486
 30
0.0
 40
0.184973272956855
 50
30.6511103536690293
 51
67.2939511106839063
  0
ARC
  5
ACF8
  8
0
 10
6164.2601077459921726
 20
1308.6419817129519743
 30
0.0
 40
0.1345825986175605
 50
67.2939511106839063
 51
101.1893586730698047
  0
ARC
  5
ACF9
  8
0
 10
6164.2367509161131238
 20
1308.8209842315930018
 30
0.0
 40
0.0470591320100284
 50
235.2648214226450136
 51
266.6386538037303922
  0
ARC
  5
ACFA
  8
0
 10
6164.2123356477977723
 20
1308.7843680929699985
 30
0.0
 40
0.0031594528997836
 50
159.3510517818795904
 51
220.6167140137715137
  0
ARC
  5
ACFB
  8
0
 10
6164.2136695037379468
 20
1308.7838654285469602
 30
0.0
 40
0.0045848802728136
 50
124.8577154661980018
 51
159.3510517818795904
  0
ARC
  5
ACFC
  8
0
 10
6164.3233917467296124
 20
1308.6263346536920835
 30
0.0
 40
0.1965612216102203
 50
123.6623558212781973
 51
124.8577154661980018
  0
ARC
  5
ACFD
  8
0
 10
6164.2704145701418383
 20
1308.6677786789539368
 30
0.0
 40
0.1343718691335807
 50
101.2416777141793034
 51
114.6186794993080014
  0
ARC
  5
ACFE
  8
0
 10
6164.4321643483672233
 20
1307.9005483503849518
 30
0.0
 40
0.9184594375122397
 50
96.1128724844421498
 51
101.8078998485983959
  0
ARC
  5
ACFF
  8
0
 10
6164.6157635635154293
 20
1306.351864418059904
 30
0.0
 40
2.4779514248691732
 50
94.4831036504471342
 51
96.5207488115813987
  0
ARC
  5
AD00
  8
0
 10
6164.3900370709970957
 20
1309.3577767093870534
 30
0.0
 40
0.536499744045327
 50
273.4234625189673125
 51
280.1537109388480076
  0
ARC
  5
AD01
  8
0
 10
6165.1809805301672895
 20
1308.7095839439189149
 30
0.0
 40
0.0396186987845473
 50
270.2176158322629931
 51
346.5368382406189198
  0
ARC
  5
AD02
  8
0
 10
6165.3733486383471245
 20
1308.6635312386599708
 30
0.0
 40
0.1581850946724271
 50
141.9644972487425889
 51
166.5368382406188914
  0
ARC
  5
AD03
  8
0
 10
6165.4213781349199053
 20
1308.6259585328009507
 30
0.0
 40
0.219164933690475
 50
111.6379616232590024
 51
141.9644972487425889
  0
ARC
  5
AD04
  8
0
 10
6167.2011381623369743
 20
1309.1659969981089944
 30
0.0
 40
0.1927069855647654
 50
331.1365523899764867
 51
0.3014715469345297
  0
ARC
  5
AD05
  8
0
 10
6164.5006553801631526
 20
1309.39743257463806
 30
0.0
 40
2.9023483112493822
 50
355.4464132741032927
 51
358.2744118234164148
  0
ARC
  5
AD06
  8
0
 10
6165.1583592854058224
 20
1309.6264985315849572
 30
0.0
 40
2.3686742772107059
 50
354.4565078753169018
 51
358.9098633036741717
  0
ARC
  5
AD07
  8
0
 10
6167.2823897547523302
 20
1309.4203502807279165
 30
0.0
 40
0.2346633737615576
 50
340.1774997731807275
 51
354.4565078753169018
  0
ARC
  5
AD08
  8
0
 10
6167.4445823786973051
 20
1309.3618853836260314
 30
0.0
 40
0.0622551620798017
 50
313.696275334300708
 51
340.1774997731807275
  0
ARC
  5
AD09
  8
0
 10
6167.474714864561065
 20
1309.3303494342010254
 30
0.0
 40
0.0186377021526752
 50
279.9103098463631909
 51
313.696275334300708
  0
ARC
  5
AD0A
  8
0
 10
6167.1454149756264087
 20
1311.2151502114390951
 30
0.0
 40
1.9319887903563591
 50
279.5850698929053237
 51
279.9103098463631909
  0
LINE
  5
AD0B
  8
0
 10
6166.3886077554807343
 20
1309.0957596512969303
 30
0.0
 11
6166.5148304456915866
 21
1309.0957596512969303
 31
0.0
  0
ARC
  5
AD0C
  8
0
 10
6166.4598392050029361
 20
1312.1848633866300133
 30
0.0
 40
3.0895931648363821
 50
271.0198534944166227
 51
273.1546432407429847
  0
ARC
  5
AD0D
  8
0
 10
6166.5664699255194137
 20
1310.2069080927819869
 30
0.0
 40
1.10876973195062
 50
273.2776255718911784
 51
276.5631397031086749
  0
ARC
  5
AD0E
  8
0
 10
6166.6624267307142873
 20
1309.3728785800899459
 30
0.0
 40
0.2692383528435025
 50
276.5631397031086749
 51
284.8815452114529876
  0
ARC
  5
AD0F
  8
0
 10
6166.7187246768544355
 20
1309.1610207506489587
 30
0.0
 40
0.0500279547441701
 50
284.8815452114529876
 51
313.0502831600567788
  0
ARC
  5
AD10
  8
0
 10
6166.7242454873658062
 20
1309.1551108132518948
 30
0.0
 40
0.0419405133223998
 50
313.0502831600567788
 51
357.2855820899183072
  0
LINE
  5
AD11
  8
0
 10
6166.7661389429922565
 20
1309.1531246023969288
 30
0.0
 11
6166.7661724034906001
 21
1309.2037423106689857
 31
0.0
  0
ARC
  5
AD12
  8
0
 10
6167.0095121135436784
 20
1309.088616424546899
 30
0.0
 40
0.2338527441247714
 50
108.6933751063564983
 51
146.214487292892386
  0
ARC
  5
AD13
  8
0
 10
6166.7946160105311719
 20
1309.2385063992790037
 30
0.0
 40
0.0285592827993484
 50
292.9666383349942862
 51
315.9751345284980175
  0
ARC
  5
AD14
  8
0
 10
6166.751050291582942
 20
1309.3711930541030597
 30
0.0
 40
0.168132179385799
 50
275.1602592591216876
 51
288.989522087981527
  0
ARC
  5
AD15
  8
0
 10
6166.636320152708322
 20
1310.3163681033820467
 30
0.0
 40
1.1201775580876321
 50
273.5073105645378746
 51
276.6567573829805156
  0
ARC
  5
AD16
  8
0
 10
6166.5040780106992315
 20
1312.4080691161259438
 30
0.0
 40
3.2160533765014199
 50
271.0455735817923824
 51
273.5791566625114228
  0
ARC
  5
AD17
  8
0
 10
6166.4769262610507212
 20
1313.4113933078160699
 30
0.0
 40
4.2197152256952659
 50
269.9052932214257225
 51
271.1655890174873207
  0
ARC
  5
AD18
  8
0
 10
6166.4548998682730598
 20
1312.038199960232987
 30
0.0
 40
2.8465559067451829
 50
264.6151487337858725
 51
270.3029583600064143
  0
ARC
  5
AD19
  8
0
 10
6166.2101654917469205
 20
1309.3998339611550819
 30
0.0
 40
0.1969058850490105
 50
254.3346804197051085
 51
263.4676274923803021
  0
ARC
  5
AD1A
  8
0
 10
6166.1789037534999807
 20
1309.2642887475929001
 30
0.0
 40
0.0583174964694374
 50
230.4510918982614101
 51
247.9361789178107927
  0
ARC
  5
AD1B
  8
0
 10
6165.9380520724344024
 20
1309.0804778127039754
 30
0.0
 40
0.2465336427083046
 50
34.2761668938691315
 51
48.4422682042843817
  0
ARC
  5
AD1C
  8
0
 10
6165.9516123181883813
 20
1309.0949485202679625
 30
0.0
 40
0.2267105321239708
 50
48.5806281455627911
 51
71.6514218346107299
  0
ARC
  5
AD1D
  8
0
 10
6166.3987708874956297
 20
1310.0008172966608981
 30
0.0
 40
0.9051147058157587
 50
259.1880395721477726
 51
269.356637557312979
  0
ARC
  5
AD1E
  8
0
 10
6166.2378931014509362
 20
1309.1584218243299347
 30
0.0
 40
0.0474948635512551
 50
222.7748285863480078
 51
259.1880395721477726
  0
ARC
  5
AD1F
  8
0
 10
6166.2354006514078719
 20
1309.1561158234010236
 30
0.0
 40
0.0440992859122398
 50
183.8784571778228099
 51
222.7748285863480078
  0
LINE
  5
AD20
  8
0
 10
6166.1913512753790201
 20
1309.2038706446080596
 30
0.0
 11
6166.1914023624922265
 21
1309.1531329404970165
 31
0.0
  0
ARC
  5
AD21
  8
0
 10
6165.4364229308202994
 20
1309.0787076358610648
 30
0.0
 40
0.2363320008396111
 50
101.6955689284024942
 51
143.8854968232012936
  0
ARC
  5
AD22
  8
0
 10
6165.4367827552659946
 20
1309.0784451078220627
 30
0.0
 40
0.2367774159309899
 50
143.8854968232012936
 51
156.4521097705830073
  0
ARC
  5
AD23
  8
0
 10
6165.4128877185348756
 20
1309.0888587226449999
 30
0.0
 40
0.2107118034491366
 50
156.4521097705830073
 51
157.6516384391788961
  0
ARC
  5
AD24
  8
0
 10
6165.1997898591944249
 20
1309.1764667213099074
 30
0.0
 40
0.0196918837735403
 50
303.9237697263033056
 51
337.6516384391788961
  0
ARC
  5
AD25
  8
0
 10
6165.1995512232024339
 20
1309.1769519019289874
 30
0.0
 40
0.0202277884223295
 50
274.3487471336305816
 51
303.7176785323587751
  0
LINE
  5
AD26
  8
0
 10
6165.2025121805918388
 20
1309.1567823496970959
 30
0.0
 11
6164.4210877778923532
 21
1309.1567823496970959
 31
0.0
  0
LINE
  5
AD27
  8
0
 10
6164.4210877778923532
 20
1309.1567823496970959
 30
0.0
 11
6164.4210828915929596
 21
1309.0977272315969913
 31
0.0
  0
ARC
  5
AD28
  8
0
 10
6164.4640586156992867
 20
1309.097723675728048
 30
0.0
 40
0.0429757242550237
 50
179.9952592700527987
 51
215.1646433482347049
  0
ARC
  5
AD29
  8
0
 10
6165.1616352404116697
 20
1309.098231843998974
 30
0.0
 40
0.0408849407265842
 50
321.8436792991091124
 51
359.2928228703066793
  0
LINE
  5
AD2A
  8
0
 10
6165.2025170669912768
 20
1309.0977272315969913
 30
0.0
 11
6165.2025121805918388
 21
1309.1567823496970959
 31
0.0
  0
ARC
  5
AD2B
  8
0
 10
6164.4244593500116025
 20
1309.1771545037520355
 30
0.0
 40
0.0206492653474855
 50
198.6650522956003044
 51
260.6027815653989137
  0
ARC
  5
AD2C
  8
0
 10
6164.1872261773150967
 20
1309.0781277962530567
 30
0.0
 40
0.236476912741068
 50
23.0050867496842812
 51
38.0754689617046722
  0
ARC
  5
AD2D
  8
0
 10
6164.118252983516868
 20
1308.9908726961000411
 30
0.0
 40
0.3455736071582975
 50
42.4155034158029594
 51
60.8098057248374886
  0
ARC
  5
AD2E
  8
0
 10
6164.2150541901546603
 20
1309.1641476887439239
 30
0.0
 40
0.1470926340591125
 50
60.8098057248374886
 51
82.9652820834581632
  0
ENDSEC
  0
EOF
