  0
SECTION
  2
HEADER
  9
$ACADVER
  1
AC1009
  9
$INSBASE
 10
535.4409330159893443
 20
1.2287971695727431
 30
0.0
  9
$EXTMIN
 10
534.240928944089319
 20
0.0292823225727448
 30
0.0
  9
$EXTMAX
 10
536.640937087889256
 20
8.7055817449262243
 30
0.0
  9
$LIMMIN
 10
0.0
 20
0.0
  9
$LIMMAX
 10
11.6929133858000007
 20
8.2677165353999982
  9
$ORTHOMODE
 70
     1
  9
$REGENMODE
 70
     1
  9
$FILLMODE
 70
     1
  9
$QTEXTMODE
 70
     0
  9
$MIRRTEXT
 70
     0
  9
$DRAGMODE
 70
     2
  9
$LTSCALE
 40
0.6431102362
  9
$OSMODE
 70
  4095
  9
$ATTMODE
 70
     1
  9
$TEXTSIZE
 40
0.2
  9
$TRACEWID
 40
0.05
  9
$TEXTSTYLE
  7
STANDARD
  9
$CLAYER
  8
0
  9
$CELTYPE
  6
BYLAYER
  9
$CECOLOR
 62
   256
  9
$DIMSCALE
 40
1.0
  9
$DIMASZ
 40
0.1875
  9
$DIMEXO
 40
0.0625
  9
$DIMDLI
 40
0.4443307087
  9
$DIMRND
 40
0.0
  9
$DIMDLE
 40
0.0
  9
$DIMEXE
 40
0.125
  9
$DIMTP
 40
0.01
  9
$DIMTM
 40
0.01
  9
$DIMTXT
 40
1.0
  9
$DIMCEN
 40
0.1052362205
  9
$DIMTSZ
 40
0.0
  9
$DIMTOL
 70
     1
  9
$DIMLIM
 70
     0
  9
$DIMTIH
 70
     1
  9
$DIMTOH
 70
     1
  9
$DIMSE1
 70
     0
  9
$DIMSE2
 70
     0
  9
$DIMTAD
 70
     0
  9
$DIMZIN
 70
     0
  9
$DIMBLK
  1

  9
$DIMASO
 70
     1
  9
$DIMSHO
 70
     1
  9
$DIMPOST
  1
\X
  9
$DIMAPOST
  1

  9
$DIMALT
 70
     1
  9
$DIMALTD
 70
     2
  9
$DIMALTF
 40
25.3999999999999986
  9
$DIMLFAC
 40
1.0
  9
$DIMTOFL
 70
     0
  9
$DIMTVP
 40
0.0
  9
$DIMTIX
 70
     0
  9
$DIMSOXD
 70
     0
  9
$DIMSAH
 70
     0
  9
$DIMBLK1
  1

  9
$DIMBLK2
  1

  9
$DIMSTYLE
  2
STANDARD
  9
$DIMCLRD
 70
     0
  9
$DIMCLRE
 70
     0
  9
$DIMCLRT
 70
     0
  9
$DIMTFAC
 40
1.0
  9
$DIMGAP
 40
0.09
  9
$LUNITS
 70
     2
  9
$LUPREC
 70
     4
  9
$SKETCHINC
 40
0.1
  9
$FILLETRAD
 40
0.0
  9
$AUNITS
 70
     0
  9
$AUPREC
 70
     0
  9
$MENU
  1
.
  9
$ELEVATION
 40
0.0
  9
$PELEVATION
 40
0.0
  9
$THICKNESS
 40
0.0
  9
$LIMCHECK
 70
     0
  9
$BLIPMODE
 70
     0
  9
$CHAMFERA
 40
0.0
  9
$CHAMFERB
 40
0.0
  9
$SKPOLY
 70
     0
  9
$TDCREATE
 40
2458306.6094560190103948
  9
$TDUPDATE
 40
2459891.8022222220897675
  9
$TDINDWG
 40
0.0663863426
  9
$TDUSRTIMER
 40
0.0663862153
  9
$USRTIMER
 70
     1
  9
$ANGBASE
 50
0.0
  9
$ANGDIR
 70
     0
  9
$PDMODE
 70
     0
  9
$PDSIZE
 40
0.3125
  9
$PLINEWID
 40
0.0
  9
$COORDS
 70
     1
  9
$SPLFRAME
 70
     0
  9
$SPLINETYPE
 70
     6
  9
$SPLINESEGS
 70
     8
  9
$ATTDIA
 70
     1
  9
$ATTREQ
 70
     1
  9
$HANDLING
 70
     1
  9
$HANDSEED
  5
1E25
  9
$SURFTAB1
 70
     6
  9
$SURFTAB2
 70
     6
  9
$SURFTYPE
 70
     6
  9
$SURFU
 70
     6
  9
$SURFV
 70
     6
  9
$UCSNAME
  2

  9
$UCSORG
 10
0.0
 20
0.0
 30
0.0
  9
$UCSXDIR
 10
1.0
 20
0.0
 30
0.0
  9
$UCSYDIR
 10
0.0
 20
1.0
 30
0.0
  9
$PUCSNAME
  2

  9
$PUCSORG
 10
0.0
 20
0.0
 30
0.0
  9
$PUCSXDIR
 10
1.0
 20
0.0
 30
0.0
  9
$PUCSYDIR
 10
0.0
 20
1.0
 30
0.0
  9
$USERI1
 70
     0
  9
$USERI2
 70
     0
  9
$USERI3
 70
     0
  9
$USERI4
 70
     0
  9
$USERI5
 70
     0
  9
$USERR1
 40
0.0
  9
$USERR2
 40
0.0
  9
$USERR3
 40
0.0
  9
$USERR4
 40
0.0
  9
$USERR5
 40
0.0
  9
$WORLDVIEW
 70
     1
  9
$SHADEDGE
 70
     3
  9
$SHADEDIF
 70
    70
  9
$TILEMODE
 70
     1
  9
$MAXACTVP
 70
    64
  9
$PLIMCHECK
 70
     0
  9
$PEXTMIN
 10
1.0000000000000000E+20
 20
1.0000000000000000E+20
 30
1.0000000000000000E+20
  9
$PEXTMAX
 10
-1.0000000000000000E+20
 20
-1.0000000000000000E+20
 30
-1.0000000000000000E+20
  9
$PLIMMIN
 10
0.0
 20
0.0
  9
$PLIMMAX
 10
12.0
 20
9.0
  9
$UNITMODE
 70
     0
  9
$VISRETAIN
 70
     1
  9
$PLINEGEN
 70
     0
  9
$PSLTSCALE
 70
     1
  0
ENDSEC
  0
SECTION
  2
TABLES
  0
TABLE
  2
VPORT
 70
     1
  0
VPORT
  2
*ACTIVE
 70
     0
 10
0.0
 20
0.0
 11
1.0
 21
1.0
 12
0.0
 22
0.0
 13
0.0
 23
0.0
 14
1.0
 24
1.0
 15
0.0
 25
0.0
 16
0.0
 26
0.0
 36
25.5919595119493017
 17
535.4409179687498863
 27
4.3674319935962549
 37
0.0
 40
9.0021268306691482
 41
2.127494456762749
 42
50.0
 43
0.0
 44
0.0
 50
0.0
 51
0.0
 71
     0
 72
   100
 73
     1
 74
     1
 75
     0
 76
     0
 77
     0
 78
     0
  0
ENDTAB
  0
TABLE
  2
LTYPE
 70
     1
  0
LTYPE
  2
CONTINUOUS
 70
     0
  3
Solid line
 72
    65
 73
     0
 40
0.0
  0
ENDTAB
  0
TABLE
  2
LAYER
 70
     2
  0
LAYER
  2
0
 70
     0
 62
   255
  6
CONTINUOUS
  0
LAYER
  2
DEFPOINT
 70
     0
 62
     7
  6
CONTINUOUS
  0
ENDTAB
  0
TABLE
  2
STYLE
 70
     1
  0
STYLE
  2
STANDARD
 70
     0
 40
0.0
 41
0.8
 50
0.0
 71
     0
 42
0.2
  3
txt
  4

  0
ENDTAB
  0
TABLE
  2
VIEW
 70
     0
  0
ENDTAB
  0
TABLE
  2
UCS
 70
     0
  0
ENDTAB
  0
TABLE
  2
APPID
 70
    10
  0
APPID
  2
ACAD
 70
     0
  0
APPID
  2
ACADANNOTATIVE
 70
     0
  0
APPID
  2
ACAD_MLEADERVER
 70
     0
  0
APPID
  2
ACAD_EXEMPT_FROM_CAD_STANDARDS
 70
     0
  0
APPID
  2
ACAD_DSTYLE_DIMJAG
 70
     0
  0
APPID
  2
ACAD_DSTYLE_DIMTALN
 70
     0
  0
APPID
  2
ACAD_NAV_VCDISPLAY
 70
     0
  0
APPID
  2
ACAECLAYERSTANDARD
 70
     0
  0
APPID
  2
ACCMTRANSPARENCY
 70
     0
  0
APPID
  2
ACDBATTR
 70
     0
  0
ENDTAB
  0
TABLE
  2
DIMSTYLE
 70
     1
  0
DIMSTYLE
  2
STANDARD
 70
     0
  3

  4

  5

  6

  7

 40
1.0
 41
0.1875
 42
0.0625
 43
0.38
 44
0.125
 45
0.0
 46
0.0
 47
0.01
 48
0.01
140
0.15625
141
0.09
142
0.0
143
25.3999999999999986
144
1.0
145
0.0
146
1.0
147
0.09
 71
     1
 72
     0
 73
     1
 74
     1
 75
     0
 76
     0
 77
     0
 78
     4
170
     0
171
     2
172
     0
173
     0
174
     0
175
     0
176
     0
177
     0
178
     0
  0
ENDTAB
  0
ENDSEC
  0
SECTION
  2
BLOCKS
  0
BLOCK
  8
0
  2
$MODEL_SPACE
 70
     0
 10
0.0
 20
0.0
 30
0.0
  3
$MODEL_SPACE
  1

  0
ENDBLK
  5
1598
  8
0
  0
BLOCK
 67
     1
  8
0
  2
$PAPER_SPACE
 70
     0
 10
0.0
 20
0.0
 30
0.0
  3
$PAPER_SPACE
  1

  0
ENDBLK
  5
1594
 67
     1
  8
0
  0
ENDSEC
  0
SECTION
  2
ENTITIES
  0
ATTDEF
  5
659
  8
DEFPOINT
 10
535.4355634444020779
 20
1.2269860009314471
 30
0.0
 40
0.001
  1
K-31207
  3

  2
MODELNUMBER
 70
     0
1001
ACDBATTR
1070
     0
1070
     1
  0
ATTDEF
  5
65A
  8
DEFPOINT
 10
535.4355634444020779
 20
1.225319334264781
 30
0.0
 40
0.001
  1
REFINED
  3

  2
TRADENAME
 70
     0
1001
ACDBATTR
1070
     0
1070
     1
  0
ATTDEF
  5
65B
  8
DEFPOINT
 10
535.4355634444020779
 20
1.223652667598117
 30
0.0
 40
0.001
  1
TOILET TISSUE HOLDER
  3

  2
PRODUCT
 70
     0
1001
ACDBATTR
1070
     0
1070
     1
  0
LINE
  5
1D04
  8
0
 10
535.1238816735892669
 20
0.6598298345262208
 30
0.0
 11
535.7579843583894217
 21
0.6598298345262208
 31
0.0
  0
LINE
  5
1D05
  8
0
 10
535.1066452739230499
 20
0.6695829588569496
 30
0.0
 11
534.7896586977893776
 21
1.218909542826224
 31
0.0
  0
LINE
  5
1D06
  8
0
 10
534.240928944089319
 20
3.6411294789262239
 30
0.0
 11
534.240928944089319
 21
3.7053814789262201
 31
0.0
  0
LINE
  5
1D07
  8
0
 10
534.2488029440893342
 20
3.6332554789262228
 30
0.0
 11
536.6330630878893544
 21
3.6332554789262228
 31
0.0
  0
LINE
  5
1D08
  8
0
 10
536.6330549440893947
 20
3.7132554789262211
 30
0.0
 11
534.248811087889294
 21
3.7132554789262211
 31
0.0
  0
LINE
  5
1D09
  8
0
 10
535.125968314189322
 20
3.7132554789262211
 30
0.0
 11
535.125968314189322
 21
8.3195546915262213
 31
0.0
  0
LINE
  5
1D0A
  8
0
 10
535.0216210342892964
 20
1.640476461926226
 30
0.0
 11
534.7896480380843514
 21
1.2387050485671049
 31
0.0
  0
LINE
  5
1D0B
  8
0
 10
535.7558977177893667
 20
8.3195546915262213
 30
0.0
 11
535.125968314189322
 21
8.3195546915262213
 31
0.0
  0
LINE
  5
1D0C
  8
0
 10
535.7821985638893239
 20
8.7055817449262207
 30
0.0
 11
535.0996674680892511
 21
8.7055817449262207
 31
0.0
  0
ARC
  5
1D0D
  8
0
 10
535.4409435800894244
 20
1.228807733626226
 30
0.0
 40
1.1995254110999991
 50
106.3750644478356975
 51
269.9994954018166027
  0
ARC
  5
1D0E
  8
0
 10
535.4408827029892564
 20
1.2288308359262241
 30
0.0
 40
1.1522472425000001
 50
107.1897587545486061
 51
270.002501826386208
  0
ARC
  5
1D0F
  8
0
 10
534.249209258722999
 20
3.6415357935598389
 30
0.0
 40
0.00829027755948
 50
182.8092477825748858
 51
267.1907522174245742
  0
ARC
  5
1D10
  8
0
 10
534.2491144436094146
 20
3.705069661444703
 30
0.0
 40
0.0081914365366289
 50
92.12233565194731
 51
177.8184359818260987
  0
ARC
  5
1D11
  8
0
 10
535.1404091812862589
 20
8.339647351937387
 30
0.0
 40
0.0202124684509805
 50
184.3997764080046977
 51
263.7585472296740932
  0
ARC
  5
1D12
  8
0
 10
535.1027556824110434
 20
8.6326482144421988
 30
0.0
 40
0.0729988831185847
 50
92.4246188553129571
 51
151.66840061693091
  0
ARC
  5
1D13
  8
0
 10
534.7253333670621487
 20
8.8098485500208383
 30
0.0
 40
0.3440877894454418
 50
327.4971511064571814
 51
335.5244997781593952
  0
ARC
  5
1D14
  8
0
 10
534.9541100382194827
 20
8.6693718616460682
 30
0.0
 40
0.0757928804007726
 50
305.7520762416942262
 51
324.1250759915039907
  0
ARC
  5
1D15
  8
0
 10
535.0248642469119886
 20
8.5782561278932832
 30
0.0
 40
0.0397135441115114
 50
131.7993188171109011
 51
176.1699487242435964
  0
ARC
  5
1D16
  8
0
 10
535.0327621386877581
 20
8.5834121207003591
 30
0.0
 40
0.0475886212749231
 50
183.0152417092444921
 51
202.3582751223374885
  0
ARC
  5
1D17
  8
0
 10
535.3080729782765275
 20
8.8108516437091282
 30
0.0
 40
0.4028118639130934
 50
217.5584290106748995
 51
227.3109162180865894
  0
ARC
  5
1D18
  8
0
 10
534.8302947078276475
 20
8.3070278583777508
 30
0.0
 40
0.2916213094832677
 50
6.1158122637119918
 51
45.427277203913107
  0
LINE
  5
1D19
  8
0
 10
534.9983942322312487
 20
8.6078619365917959
 30
0.0
 11
535.8834717997475536
 21
8.6078619365917959
 31
0.0
  0
ARC
  5
1D1A
  8
0
 10
535.099572465942515
 20
3.5659334731056371
 30
0.0
 40
0.0673762270904804
 50
92.2987844886287832
 51
133.2448486661174059
  0
ARC
  5
1D1B
  8
0
 10
535.1529050230425355
 20
3.5245594816237888
 30
0.0
 40
0.1344642902010156
 50
137.7248367855021911
 51
158.2936462547357905
  0
ARC
  5
1D1C
  8
0
 10
534.9364692713154454
 20
3.614671518129732
 30
0.0
 40
0.1000197451871216
 50
309.2215997603228743
 51
336.1887616854548924
  0
ARC
  5
1D1D
  8
0
 10
535.0207435115378303
 20
3.508254809268748
 30
0.0
 40
0.0357664035412171
 50
126.0131692778229962
 51
198.5131747978252008
  0
ARC
  5
1D1E
  8
0
 10
535.5646822466081858
 20
3.9447395377350878
 30
0.0
 40
0.731079634260987
 50
217.7759524819911121
 51
222.5993678097493955
  0
ARC
  5
1D1F
  8
0
 10
534.838263914916979
 20
3.2388571016544878
 30
0.0
 40
0.2828102988333592
 50
1.8076053958435041
 51
48.2638234391664582
  0
ARC
  5
1D20
  8
0
 10
516.5800131144764009
 20
3.2015016020375948
 30
0.0
 40
18.54097811827058
 50
357.4595438666260065
 51
0.1430043134347438
  0
ARC
  5
1D21
  8
0
 10
529.4270587356566011
 20
2.6286883661711751
 30
0.0
 40
5.681169781018844
 50
349.9827220517839237
 51
357.4878587846919231
  0
ARC
  5
1D22
  8
0
 10
534.806907617060233
 20
1.228816586957393
 30
0.0
 40
0.0198915745839382
 50
150.1904830209996078
 51
209.8712235152524954
  0
ARC
  5
1D23
  8
0
 10
534.7841485051214931
 20
1.3871581549731571
 30
0.0
 40
0.1485549382027291
 50
272.1215857926642911
 51
333.6880020308934718
  0
ARC
  5
1D24
  8
0
 10
534.1909176856680688
 20
1.719218774314178
 30
0.0
 40
0.8282394015403906
 50
331.2866787651847176
 51
348.0172792778859048
  0
ARC
  5
1D25
  8
0
 10
533.1045751240702657
 20
2.0134448984838542
 30
0.0
 40
1.9529901373244529
 50
346.1900621287956028
 51
348.9904256676954901
  0
ARC
  5
1D26
  8
0
 10
533.924905192036249
 20
-6.3879119160031719
 30
0.0
 40
7.6754847738799086
 50
83.531153473048704
 51
87.6281097431067337
  0
ARC
  5
1D27
  8
0
 10
535.1241052204585458
 20
0.6803321464249948
 30
0.0
 40
0.0205035305837116
 50
211.6184619040087114
 51
269.3753004704726095
  0
ARC
  5
1D28
  8
0
 10
541.3491221587765949
 20
-3.9436626327050628
 30
0.0
 40
7.7621229406648444
 50
143.5352713985672892
 51
147.5854048668159919
  0
ARC
  5
1D29
  8
0
 10
534.3170301261760642
 20
1.0504316646750591
 30
0.0
 40
0.876662887474368
 50
334.2509671047333768
 51
352.1248742090662063
  0
ARC
  5
1D2A
  8
0
 10
527.1915149200681299
 20
2.0422581985078452
 30
0.0
 40
8.0708746362172157
 50
352.0810470677179751
 51
358.1525586993352022
  0
ARC
  5
1D2B
  8
0
 10
497.6281345319399065
 20
3.0997598703129579
 30
0.0
 40
37.6531236518792127
 50
357.9944908217515831
 51
0.2252357823737869
  0
LINE
  5
1D2C
  8
0
 10
534.9997138967893306
 20
3.5371856047262251
 30
0.0
 11
535.8821521351892443
 21
3.5371856047262251
 31
0.0
  0
ARC
  5
1D2D
  8
0
 10
535.3852657883079473
 20
0.2277984369261787
 30
0.0
 40
0.197027928844048
 50
268.3510256586301921
 51
275.1379699277866848
  0
ARC
  5
1D2E
  8
0
 10
535.4486001306613616
 20
-0.3731481152544731
 30
0.0
 40
0.4072811863340676
 50
91.0786632850079343
 51
96.4411158304140059
  0
LINE
  5
1D2F
  8
0
 10
535.775220758055525
 20
0.6695829588569496
 30
0.0
 11
536.0922073341891974
 21
1.218909542826224
 31
0.0
  0
LINE
  5
1D30
  8
0
 10
536.640937087889256
 20
3.6411294789262239
 30
0.0
 11
536.640937087889256
 21
3.7053814789262201
 31
0.0
  0
LINE
  5
1D31
  8
0
 10
535.7558977177893667
 20
3.7132554789262211
 30
0.0
 11
535.7558977177893667
 21
8.3195546915262213
 31
0.0
  0
LINE
  5
1D32
  8
0
 10
535.8602449976893922
 20
1.640476461926226
 30
0.0
 11
536.0922179938943373
 21
1.2387050485671049
 31
0.0
  0
ARC
  5
1D33
  8
0
 10
535.4409224518892643
 20
1.228807733626226
 30
0.0
 40
1.1995254110999991
 50
270.0005045981833973
 51
73.6249355521642457
  0
ARC
  5
1D34
  8
0
 10
535.4409833289893186
 20
1.2288308359262241
 30
0.0
 40
1.1522472425000001
 50
269.9974981736136783
 51
72.8102412454513939
  0
ARC
  5
1D35
  8
0
 10
536.6326567732556896
 20
3.6415357935598389
 30
0.0
 40
0.00829027755948
 50
272.8092477825754258
 51
357.1907522174249721
  0
ARC
  5
1D36
  8
0
 10
536.6327515883693877
 20
3.705069661444703
 30
0.0
 40
0.0081914365366289
 50
2.1815640181738551
 51
87.8776643480526758
  0
ARC
  5
1D37
  8
0
 10
535.741456850692316
 20
8.339647351937387
 30
0.0
 40
0.0202124684509805
 50
276.2414527703259068
 51
355.6002235919953023
  0
ARC
  5
1D38
  8
0
 10
535.7791103495676452
 20
8.6326482144421988
 30
0.0
 40
0.0729988831185847
 50
28.3315993830690616
 51
87.5753811446870287
  0
ARC
  5
1D39
  8
0
 10
536.1565326649165399
 20
8.8098485500208383
 30
0.0
 40
0.3440877894454418
 50
204.4755002218406048
 51
212.5028488935427049
  0
ARC
  5
1D3A
  8
0
 10
535.9277559937590922
 20
8.6693718616460682
 30
0.0
 40
0.0757928804007726
 50
215.8749240084960093
 51
234.2479237583058023
  0
ARC
  5
1D3B
  8
0
 10
535.8570017850665863
 20
8.5782561278932832
 30
0.0
 40
0.0397135441115114
 50
3.830051275756337
 51
48.200681182889042
  0
ARC
  5
1D3C
  8
0
 10
535.8491038932909305
 20
8.5834121207003591
 30
0.0
 40
0.0475886212749231
 50
337.6417248776623978
 51
356.9847582907556216
  0
ARC
  5
1D3D
  8
0
 10
535.5737930537021612
 20
8.8108516437091282
 30
0.0
 40
0.4028118639130934
 50
312.6890837819133253
 51
322.4415709893251005
  0
ARC
  5
1D3E
  8
0
 10
536.0515713241509275
 20
8.3070278583777508
 30
0.0
 40
0.2916213094832677
 50
134.5727227960867936
 51
173.8841877362883963
  0
ARC
  5
1D3F
  8
0
 10
535.7822935660359462
 20
3.5659334731056371
 30
0.0
 40
0.0673762270904804
 50
46.7551513338825373
 51
87.7012155113712168
  0
ARC
  5
1D40
  8
0
 10
535.7289610089361531
 20
3.5245594816237888
 30
0.0
 40
0.1344642902010156
 50
21.7063537452642201
 51
42.2751632144978231
  0
ARC
  5
1D41
  8
0
 10
535.9453967606631295
 20
3.614671518129732
 30
0.0
 40
0.1000197451871216
 50
203.8112383145445961
 51
230.7784002396770973
  0
ARC
  5
1D42
  8
0
 10
535.8611225204407447
 20
3.508254809268748
 30
0.0
 40
0.0357664035412171
 50
341.4868252021748276
 51
53.986830722177011
  0
ARC
  5
1D43
  8
0
 10
535.3171837853705028
 20
3.9447395377350878
 30
0.0
 40
0.731079634260987
 50
317.4006321902505761
 51
322.22404751800849
  0
ARC
  5
1D44
  8
0
 10
536.0436021170617096
 20
3.2388571016544878
 30
0.0
 40
0.2828102988333592
 50
131.7361765608335133
 51
178.1923946041561067
  0
ARC
  5
1D45
  8
0
 10
554.301852917502174
 20
3.2015016020375948
 30
0.0
 40
18.54097811827058
 50
179.8569956865651989
 51
182.5404561333739935
  0
ARC
  5
1D46
  8
0
 10
541.4548072963220875
 20
2.6286883661711751
 30
0.0
 40
5.681169781018844
 50
182.5121412153081053
 51
190.017277948215991
  0
ARC
  5
1D47
  8
0
 10
536.0749584149185694
 20
1.228816586957393
 30
0.0
 40
0.0198915745839382
 50
330.1287764847475046
 51
29.8095169790003816
  0
ARC
  5
1D48
  8
0
 10
536.0977175268571955
 20
1.3871581549731571
 30
0.0
 40
0.1485549382027291
 50
206.3119979691064998
 51
267.8784142073358225
  0
ARC
  5
1D49
  8
0
 10
536.6909483463103925
 20
1.719218774314178
 30
0.0
 40
0.8282394015403906
 50
191.9827207221136973
 51
208.7133212348153108
  0
ARC
  5
1D4A
  8
0
 10
537.7772909079084229
 20
2.0134448984838542
 30
0.0
 40
1.9529901373244529
 50
191.0095743323043962
 51
193.8099378712043972
  0
ARC
  5
1D4B
  8
0
 10
536.9569608399423259
 20
-6.3879119160031719
 30
0.0
 40
7.6754847738799086
 50
92.3718902568932663
 51
96.4688465269513102
  0
ARC
  5
1D4C
  8
0
 10
535.7577608115200292
 20
0.6803321464249948
 30
0.0
 40
0.0205035305837116
 50
270.6246995295275042
 51
328.3815380959912886
  0
ARC
  5
1D4D
  8
0
 10
529.53274387320198
 20
-3.9436626327050628
 30
0.0
 40
7.7621229406648444
 50
32.4145951331839512
 51
36.464728601432661
  0
ARC
  5
1D4E
  8
0
 10
536.5648359058025108
 20
1.0504316646750591
 30
0.0
 40
0.876662887474368
 50
187.8751257909337937
 51
205.7490328952665948
  0
ARC
  5
1D4F
  8
0
 10
543.6903511119104451
 20
2.0422581985078452
 30
0.0
 40
8.0708746362172157
 50
181.8474413006647126
 51
187.9189529322819965
  0
ARC
  5
1D50
  8
0
 10
573.2537315000388389
 20
3.0997598703129579
 30
0.0
 40
37.6531236518792127
 50
179.7747642176261991
 51
182.0055091782483032
  0
ARC
  5
1D51
  8
0
 10
535.4966002436706276
 20
0.2277984369261787
 30
0.0
 40
0.197027928844048
 50
264.8620300722133152
 51
271.6489743413698079
  0
ARC
  5
1D52
  8
0
 10
535.433265901317327
 20
-0.3731481152544731
 30
0.0
 40
0.4072811863340676
 50
83.5588841695860083
 51
88.9213367149953342
  0
LINE
  5
1D53
  8
0
 10
535.1209334822892743
 20
3.2477779092229819
 30
0.0
 11
535.7609325496893007
 21
3.2477779092229819
 31
0.0
  0
ENDSEC
  0
EOF
