  0
SECTION
  2
HEADER
  9
$ACADVER
  1
AC1009
  9
$INSBASE
 10
547.8748450599960051
 20
-2.0767027925332608
 30
0.0
  9
$EXTMIN
 10
542.9292876734959918
 20
-3.2762176395332769
 30
0.0
  9
$EXTMAX
 10
547.8935556006141496
 20
5.4000817828202203
 30
0.0
  9
$LIMMIN
 10
0.0
 20
0.0
  9
$LIMMAX
 10
11.6929133858000007
 20
8.2677165353999982
  9
$ORTHOMODE
 70
     1
  9
$REGENMODE
 70
     1
  9
$FILLMODE
 70
     1
  9
$QTEXTMODE
 70
     0
  9
$MIRRTEXT
 70
     0
  9
$DRAGMODE
 70
     2
  9
$LTSCALE
 40
0.6431102362
  9
$OSMODE
 70
  4095
  9
$ATTMODE
 70
     1
  9
$TEXTSIZE
 40
0.2
  9
$TRACEWID
 40
0.05
  9
$TEXTSTYLE
  7
STANDARD
  9
$CLAYER
  8
0
  9
$CELTYPE
  6
BYLAYER
  9
$CECOLOR
 62
   256
  9
$DIMSCALE
 40
1.0
  9
$DIMASZ
 40
0.1875
  9
$DIMEXO
 40
0.0625
  9
$DIMDLI
 40
0.4443307087
  9
$DIMRND
 40
0.0
  9
$DIMDLE
 40
0.0
  9
$DIMEXE
 40
0.125
  9
$DIMTP
 40
0.01
  9
$DIMTM
 40
0.01
  9
$DIMTXT
 40
1.0
  9
$DIMCEN
 40
0.1052362205
  9
$DIMTSZ
 40
0.0
  9
$DIMTOL
 70
     1
  9
$DIMLIM
 70
     0
  9
$DIMTIH
 70
     1
  9
$DIMTOH
 70
     1
  9
$DIMSE1
 70
     0
  9
$DIMSE2
 70
     0
  9
$DIMTAD
 70
     0
  9
$DIMZIN
 70
     0
  9
$DIMBLK
  1

  9
$DIMASO
 70
     1
  9
$DIMSHO
 70
     1
  9
$DIMPOST
  1
\X
  9
$DIMAPOST
  1

  9
$DIMALT
 70
     1
  9
$DIMALTD
 70
     2
  9
$DIMALTF
 40
25.3999999999999986
  9
$DIMLFAC
 40
1.0
  9
$DIMTOFL
 70
     0
  9
$DIMTVP
 40
0.0
  9
$DIMTIX
 70
     0
  9
$DIMSOXD
 70
     0
  9
$DIMSAH
 70
     0
  9
$DIMBLK1
  1

  9
$DIMBLK2
  1

  9
$DIMSTYLE
  2
STANDARD
  9
$DIMCLRD
 70
     0
  9
$DIMCLRE
 70
     0
  9
$DIMCLRT
 70
     0
  9
$DIMTFAC
 40
1.0
  9
$DIMGAP
 40
0.09
  9
$LUNITS
 70
     2
  9
$LUPREC
 70
     4
  9
$SKETCHINC
 40
0.1
  9
$FILLETRAD
 40
0.0
  9
$AUNITS
 70
     0
  9
$AUPREC
 70
     0
  9
$MENU
  1
.
  9
$ELEVATION
 40
0.0
  9
$PELEVATION
 40
0.0
  9
$THICKNESS
 40
0.0
  9
$LIMCHECK
 70
     0
  9
$BLIPMODE
 70
     0
  9
$CHAMFERA
 40
0.0
  9
$CHAMFERB
 40
0.0
  9
$SKPOLY
 70
     0
  9
$TDCREATE
 40
2458306.6094560190103948
  9
$TDUPDATE
 40
2459891.8023958341218531
  9
$TDINDWG
 40
0.0665252315
  9
$TDUSRTIMER
 40
0.0665251042
  9
$USRTIMER
 70
     1
  9
$ANGBASE
 50
0.0
  9
$ANGDIR
 70
     0
  9
$PDMODE
 70
     0
  9
$PDSIZE
 40
0.3125
  9
$PLINEWID
 40
0.0
  9
$COORDS
 70
     1
  9
$SPLFRAME
 70
     0
  9
$SPLINETYPE
 70
     6
  9
$SPLINESEGS
 70
     8
  9
$ATTDIA
 70
     1
  9
$ATTREQ
 70
     1
  9
$HANDLING
 70
     1
  9
$HANDSEED
  5
1EB6
  9
$SURFTAB1
 70
     6
  9
$SURFTAB2
 70
     6
  9
$SURFTYPE
 70
     6
  9
$SURFU
 70
     6
  9
$SURFV
 70
     6
  9
$UCSNAME
  2

  9
$UCSORG
 10
0.0
 20
0.0
 30
0.0
  9
$UCSXDIR
 10
1.0
 20
0.0
 30
0.0
  9
$UCSYDIR
 10
0.0
 20
1.0
 30
0.0
  9
$PUCSNAME
  2

  9
$PUCSORG
 10
0.0
 20
0.0
 30
0.0
  9
$PUCSXDIR
 10
1.0
 20
0.0
 30
0.0
  9
$PUCSYDIR
 10
0.0
 20
1.0
 30
0.0
  9
$USERI1
 70
     0
  9
$USERI2
 70
     0
  9
$USERI3
 70
     0
  9
$USERI4
 70
     0
  9
$USERI5
 70
     0
  9
$USERR1
 40
0.0
  9
$USERR2
 40
0.0
  9
$USERR3
 40
0.0
  9
$USERR4
 40
0.0
  9
$USERR5
 40
0.0
  9
$WORLDVIEW
 70
     1
  9
$SHADEDGE
 70
     3
  9
$SHADEDIF
 70
    70
  9
$TILEMODE
 70
     1
  9
$MAXACTVP
 70
    64
  9
$PLIMCHECK
 70
     0
  9
$PEXTMIN
 10
1.0000000000000000E+20
 20
1.0000000000000000E+20
 30
1.0000000000000000E+20
  9
$PEXTMAX
 10
-1.0000000000000000E+20
 20
-1.0000000000000000E+20
 30
-1.0000000000000000E+20
  9
$PLIMMIN
 10
0.0
 20
0.0
  9
$PLIMMAX
 10
12.0
 20
9.0
  9
$UNITMODE
 70
     0
  9
$VISRETAIN
 70
     1
  9
$PLINEGEN
 70
     0
  9
$PSLTSCALE
 70
     1
  0
ENDSEC
  0
SECTION
  2
TABLES
  0
TABLE
  2
VPORT
 70
     1
  0
VPORT
  2
*ACTIVE
 70
     0
 10
0.0
 20
0.0
 11
1.0
 21
1.0
 12
0.0
 22
0.0
 13
0.0
 23
0.0
 14
1.0
 24
1.0
 15
0.0
 25
0.0
 16
0.0
 26
0.0
 36
28.4177596953194893
 17
545.4114079274193045
 27
1.0619319677352901
 37
0.0
 40
9.9961191678697858
 41
2.127494456762749
 42
50.0
 43
0.0
 44
0.0
 50
0.0
 51
0.0
 71
     0
 72
   100
 73
     1
 74
     1
 75
     0
 76
     0
 77
     0
 78
     0
  0
ENDTAB
  0
TABLE
  2
LTYPE
 70
     1
  0
LTYPE
  2
CONTINUOUS
 70
     0
  3
Solid line
 72
    65
 73
     0
 40
0.0
  0
ENDTAB
  0
TABLE
  2
LAYER
 70
     2
  0
LAYER
  2
0
 70
     0
 62
   255
  6
CONTINUOUS
  0
LAYER
  2
DEFPOINT
 70
     0
 62
     7
  6
CONTINUOUS
  0
ENDTAB
  0
TABLE
  2
STYLE
 70
     1
  0
STYLE
  2
STANDARD
 70
     0
 40
0.0
 41
0.8
 50
0.0
 71
     0
 42
0.2
  3
txt
  4

  0
ENDTAB
  0
TABLE
  2
VIEW
 70
     0
  0
ENDTAB
  0
TABLE
  2
UCS
 70
     0
  0
ENDTAB
  0
TABLE
  2
APPID
 70
    10
  0
APPID
  2
ACAD
 70
     0
  0
APPID
  2
ACADANNOTATIVE
 70
     0
  0
APPID
  2
ACAD_MLEADERVER
 70
     0
  0
APPID
  2
ACAD_EXEMPT_FROM_CAD_STANDARDS
 70
     0
  0
APPID
  2
ACAD_DSTYLE_DIMJAG
 70
     0
  0
APPID
  2
ACAD_DSTYLE_DIMTALN
 70
     0
  0
APPID
  2
ACAD_NAV_VCDISPLAY
 70
     0
  0
APPID
  2
ACAECLAYERSTANDARD
 70
     0
  0
APPID
  2
ACCMTRANSPARENCY
 70
     0
  0
APPID
  2
ACDBATTR
 70
     0
  0
ENDTAB
  0
TABLE
  2
DIMSTYLE
 70
     1
  0
DIMSTYLE
  2
STANDARD
 70
     0
  3

  4

  5

  6

  7

 40
1.0
 41
0.1875
 42
0.0625
 43
0.38
 44
0.125
 45
0.0
 46
0.0
 47
0.01
 48
0.01
140
0.15625
141
0.09
142
0.0
143
25.3999999999999986
144
1.0
145
0.0
146
1.0
147
0.09
 71
     1
 72
     0
 73
     1
 74
     1
 75
     0
 76
     0
 77
     0
 78
     4
170
     0
171
     2
172
     0
173
     0
174
     0
175
     0
176
     0
177
     0
178
     0
  0
ENDTAB
  0
ENDSEC
  0
SECTION
  2
BLOCKS
  0
BLOCK
  8
0
  2
$MODEL_SPACE
 70
     0
 10
0.0
 20
0.0
 30
0.0
  3
$MODEL_SPACE
  1

  0
ENDBLK
  5
1598
  8
0
  0
BLOCK
 67
     1
  8
0
  2
$PAPER_SPACE
 70
     0
 10
0.0
 20
0.0
 30
0.0
  3
$PAPER_SPACE
  1

  0
ENDBLK
  5
1594
 67
     1
  8
0
  0
ENDSEC
  0
SECTION
  2
ENTITIES
  0
ATTDEF
  5
659
  8
DEFPOINT
 10
547.882888933947811
 20
-2.0755866257698581
 30
0.0
 40
0.001
  1
K-31207
  3

  2
MODELNUMBER
 70
     0
1001
ACDBATTR
1070
     0
1070
     1
  0
ATTDEF
  5
65A
  8
DEFPOINT
 10
547.882888933947811
 20
-2.0772532924365228
 30
0.0
 40
0.001
  1
REFINED
  3

  2
TRADENAME
 70
     0
1001
ACDBATTR
1070
     0
1070
     1
  0
ATTDEF
  5
65B
  8
DEFPOINT
 10
547.882888933947811
 20
-2.0789199591031871
 30
0.0
 40
0.001
  1
TOILET TISSUE HOLDER
  3

  2
PRODUCT
 70
     0
1001
ACDBATTR
1070
     0
1070
     1
  0
LINE
  5
1DE9
  8
0
 10
547.6312233345959157
 20
-0.8771879455332598
 30
0.0
 11
547.8748450599960051
 21
-0.8771879455332598
 31
0.0
  0
LINE
  5
1DEA
  8
0
 10
547.8748450599960051
 20
-3.2762176395332618
 30
0.0
 11
547.8748450599960051
 21
-0.8771879455332598
 31
0.0
  0
ARC
  5
1DEB
  8
0
 10
547.6336538119950319
 20
-0.9297332209569812
 30
0.0
 40
0.0526014561560984
 50
92.6483239402095222
 51
174.4253985175355979
  0
LINE
  5
1DEC
  8
0
 10
547.5813011312958452
 20
-0.9246234251332605
 30
0.0
 11
547.5813011312958452
 21
-3.2287821599333402
 31
0.0
  0
LINE
  5
1DED
  8
0
 10
547.797816689698152
 20
-3.2762176395332618
 30
0.0
 11
547.8748450599960051
 21
-3.2762176395332618
 31
0.0
  0
ARC
  5
1DEE
  8
0
 10
547.6336538119950319
 20
-3.2236723641095408
 30
0.0
 40
0.0526014561560984
 50
185.5746014824644021
 51
258.3564195698991739
  0
ARC
  5
1DEF
  8
0
 10
547.7034968693932342
 20
-4.455990693930671
 30
0.0
 40
1.1835373624793479
 50
85.4290718002388303
 51
93.8980882304134497
  0
LINE
  5
1DF0
  8
0
 10
542.9292876734959918
 20
0.3356295168202195
 30
0.0
 11
542.9292876734959918
 21
0.3998815168202192
 31
0.0
  0
LINE
  5
1DF1
  8
0
 10
542.9371616734960071
 20
0.3277555168202184
 30
0.0
 11
545.3214218172960273
 21
0.3277555168202184
 31
0.0
  0
LINE
  5
1DF2
  8
0
 10
545.3214136734959538
 20
0.4077555168202185
 30
0.0
 11
542.9371698172959668
 21
0.4077555168202185
 31
0.0
  0
LINE
  5
1DF3
  8
0
 10
543.8143270435959948
 20
0.4077555168202185
 30
0.0
 11
543.8143270435959948
 21
5.0140547294202182
 31
0.0
  0
LINE
  5
1DF4
  8
0
 10
544.4442564471960395
 20
5.01405472942022
 30
0.0
 11
543.8143270435959948
 21
5.0140547294202182
 31
0.0
  0
LINE
  5
1DF5
  8
0
 10
544.470557293295883
 20
5.4000817828202186
 30
0.0
 11
543.7880261974960376
 21
5.4000817828202186
 31
0.0
  0
ARC
  5
1DF6
  8
0
 10
542.9375679881294445
 20
0.3360358314538381
 30
0.0
 40
0.00829027755948
 50
182.8092477825748858
 51
267.1907522174245742
  0
ARC
  5
1DF7
  8
0
 10
542.9374731730159738
 20
0.3995696993386986
 30
0.0
 40
0.0081914365366289
 50
92.12233565194731
 51
177.8184359818260134
  0
ARC
  5
1DF8
  8
0
 10
543.8287679106930455
 20
5.0341473898313831
 30
0.0
 40
0.0202124684509805
 50
184.3997764080044135
 51
263.7585472296740932
  0
ARC
  5
1DF9
  8
0
 10
543.7911144118174889
 20
5.327148252336193
 30
0.0
 40
0.0729988831185847
 50
92.4246188553129855
 51
151.668400616931109
  0
ARC
  5
1DFA
  8
0
 10
543.4136920964688215
 20
5.5043485879148326
 30
0.0
 40
0.3440877894454418
 50
327.4971511064571246
 51
335.5244997781593952
  0
ARC
  5
1DFB
  8
0
 10
543.6424687676261556
 20
5.3638718995400607
 30
0.0
 40
0.0757928804007726
 50
305.7520762416941125
 51
324.1250759915041044
  0
ARC
  5
1DFC
  8
0
 10
543.7132229763185478
 20
5.272756165787281
 30
0.0
 40
0.0397135441115114
 50
131.7993188171111001
 51
176.1699487242437954
  0
ARC
  5
1DFD
  8
0
 10
543.721120868094431
 20
5.2779121585943569
 30
0.0
 40
0.0475886212749231
 50
183.0152417092442931
 51
202.3582751223374032
  0
ARC
  5
1DFE
  8
0
 10
543.9964317076832003
 20
5.5053516816031234
 30
0.0
 40
0.4028118639130934
 50
217.5584290106748995
 51
227.3109162180865042
  0
ARC
  5
1DFF
  8
0
 10
543.518653437234434
 20
5.0015278962717451
 30
0.0
 40
0.2916213094832677
 50
6.1158122637117902
 51
45.4272772039106627
  0
LINE
  5
1E00
  8
0
 10
543.6867529616376942
 20
5.3023619744857919
 30
0.0
 11
544.5718305291541128
 21
5.3023619744857919
 31
0.0
  0
ARC
  5
1E01
  8
0
 10
543.7879311953491879
 20
0.260433510999631
 30
0.0
 40
0.0673762270904804
 50
92.2987844886287832
 51
133.2448486661174911
  0
ARC
  5
1E02
  8
0
 10
543.8412637524490947
 20
0.2190595195177849
 30
0.0
 40
0.1344642902010156
 50
137.7248367855021911
 51
158.2936462547357905
  0
ARC
  5
1E03
  8
0
 10
543.624828000722232
 20
0.3091715560237276
 30
0.0
 40
0.1000197451871216
 50
309.2215997603228743
 51
336.1887616854551197
  0
ARC
  5
1E04
  8
0
 10
543.7091022409445031
 20
0.2027548471627441
 30
0.0
 40
0.0357664035412171
 50
126.0131692778227972
 51
198.5131747978250019
  0
ARC
  5
1E05
  8
0
 10
544.2530409760148586
 20
0.6392395756290857
 30
0.0
 40
0.731079634260987
 50
217.7759524819911121
 51
222.5993678097493103
  0
ARC
  5
1E06
  8
0
 10
543.5266226443236519
 20
-0.0666428604515126
 30
0.0
 40
0.2828102988333592
 50
1.8076053958437071
 51
48.2638234391663872
  0
LINE
  5
1E07
  8
0
 10
543.6880726261960035
 20
0.231685642620219
 30
0.0
 11
544.5705108645960308
 21
0.231685642620219
 31
0.0
  0
LINE
  5
1E08
  8
0
 10
545.3292958172959288
 20
0.3356295168202195
 30
0.0
 11
545.3292958172959288
 21
0.3998815168202192
 31
0.0
  0
LINE
  5
1E09
  8
0
 10
544.4442564471960395
 20
0.4077555168202185
 30
0.0
 11
544.4442564471960395
 21
5.0140547294202182
 31
0.0
  0
ARC
  5
1E0A
  8
0
 10
545.3210155026622488
 20
0.3360358314538381
 30
0.0
 40
0.00829027755948
 50
272.8092477825754258
 51
357.1907522174249152
  0
ARC
  5
1E0B
  8
0
 10
545.3211103177759469
 20
0.3995696993386986
 30
0.0
 40
0.0081914365366289
 50
2.181564018173956
 51
87.8776643480526758
  0
ARC
  5
1E0C
  8
0
 10
544.4298155800988752
 20
5.0341473898313831
 30
0.0
 40
0.0202124684509805
 50
276.2414527703259068
 51
355.600223591995416
  0
ARC
  5
1E0D
  8
0
 10
544.4674690789743181
 20
5.327148252336193
 30
0.0
 40
0.0729988831185847
 50
28.3315993830688804
 51
87.5753811446870287
  0
ARC
  5
1E0E
  8
0
 10
544.8448913943232128
 20
5.5043485879148326
 30
0.0
 40
0.3440877894454418
 50
204.4755002218404059
 51
212.5028488935427049
  0
ARC
  5
1E0F
  8
0
 10
544.6161147231657651
 20
5.3638718995400607
 30
0.0
 40
0.0757928804007726
 50
215.8749240084958103
 51
234.2479237583058023
  0
ARC
  5
1E10
  8
0
 10
544.5453605144732592
 20
5.272756165787281
 30
0.0
 40
0.0397135441115114
 50
3.830051275756134
 51
48.2006811828888999
  0
ARC
  5
1E11
  8
0
 10
544.5374626226974897
 20
5.2779121585943569
 30
0.0
 40
0.0475886212749231
 50
337.6417248776625115
 51
356.9847582907556216
  0
ARC
  5
1E12
  8
0
 10
544.262151783108834
 20
5.5053516816031234
 30
0.0
 40
0.4028118639130934
 50
312.6890837819133822
 51
322.4415709893248732
  0
ARC
  5
1E13
  8
0
 10
544.739930053557373
 20
5.0015278962717451
 30
0.0
 40
0.2916213094832677
 50
134.5727227960892947
 51
173.8841877362881974
  0
ARC
  5
1E14
  8
0
 10
544.4706522954426191
 20
0.260433510999631
 30
0.0
 40
0.0673762270904804
 50
46.7551513338824734
 51
87.7012155113712311
  0
ARC
  5
1E15
  8
0
 10
544.4173197383427123
 20
0.2190595195177849
 30
0.0
 40
0.1344642902010156
 50
21.7063537452642201
 51
42.2751632144977378
  0
ARC
  5
1E16
  8
0
 10
544.6337554900698024
 20
0.3091715560237276
 30
0.0
 40
0.1000197451871216
 50
203.8112383145447097
 51
230.7784002396770973
  0
ARC
  5
1E17
  8
0
 10
544.5494812498473038
 20
0.2027548471627441
 30
0.0
 40
0.0357664035412171
 50
341.4868252021748845
 51
53.9868307221771317
  0
ARC
  5
1E18
  8
0
 10
544.0055425147769483
 20
0.6392395756290857
 30
0.0
 40
0.731079634260987
 50
317.4006321902505761
 51
322.2240475180087174
  0
ARC
  5
1E19
  8
0
 10
544.7319608464683824
 20
-0.0666428604515126
 30
0.0
 40
0.2828102988333592
 50
131.7361765608335986
 51
178.1923946041563056
  0
LINE
  5
1E1A
  8
0
 10
543.8092922116959471
 20
-0.0577220528830207
 30
0.0
 11
544.4492912790957462
 21
-0.0577220528830207
 31
0.0
  0
ARC
  5
1E1B
  8
0
 10
546.509009685018782
 20
-0.0915534425548117
 30
0.0
 40
2.6999294432802849
 50
179.2820380632045953
 51
209.8636303506160061
  0
ARC
  5
1E1C
  8
0
 10
546.2968454080477159
 20
-0.0401183382230705
 30
0.0
 40
2.545986594658046
 50
213.2468685287977905
 51
255.2879781708886924
  0
ARC
  5
1E1D
  8
0
 10
547.2057059930334617
 20
2.890993422552167
 30
0.0
 40
5.6134311731570197
 50
253.9132270679197063
 51
263.0714116728182148
  0
ARC
  5
1E1E
  8
0
 10
546.0947043239480081
 20
-5.6831222593658017
 30
0.0
 40
3.0328679821754569
 50
68.5806538778856662
 51
81.775824812858005
  0
ARC
  5
1E1F
  8
0
 10
546.968896997437696
 20
-3.5429422279278402
 30
0.0
 40
0.7219774717328162
 50
37.7229257051266202
 51
71.1400272933969688
  0
ARC
  5
1E20
  8
0
 10
547.29475482653163
 20
-3.252792428016273
 30
0.0
 40
0.2882832193415044
 50
6.2926774739161564
 51
31.7240226009477198
  0
ARC
  5
1E21
  8
0
 10
546.2084368236481851
 20
-0.1227542986937902
 30
0.0
 40
1.7603471930029619
 50
177.8828487388904023
 51
213.0257234716212054
  0
ARC
  5
1E22
  8
0
 10
545.7126093408204497
 20
-0.245088931112214
 30
0.0
 40
1.2889099967318489
 50
220.5001056489342943
 51
258.0567291287414946
  0
ARC
  5
1E23
  8
0
 10
545.8795072772222738
 20
0.8345177425548264
 30
0.0
 40
2.3804443936885771
 50
259.5042238340540166
 51
280.2800012829486036
  0
ARC
  5
1E24
  8
0
 10
545.7858926011034555
 20
2.713040559174356
 30
0.0
 40
4.252474219661587
 50
277.0024387119771063
 51
288.5332710890858152
  0
ARC
  5
1E25
  8
0
 10
546.8523456121699837
 20
-0.4166345968856256
 30
0.0
 40
0.9462701423735568
 50
287.5425081973240822
 51
312.5601253534553052
  0
ARC
  5
1E26
  8
0
 10
547.2834616350683064
 20
-0.8999040410147038
 30
0.0
 40
0.2988635365252175
 50
314.3470896112659716
 51
355.255572949063378
  0
ARC
  5
1E27
  8
0
 10
546.2722329053091244
 20
-0.1357732853551887
 30
0.0
 40
2.14436209855999
 50
177.9140676627966116
 51
215.4986333974302966
  0
ARC
  5
1E28
  8
0
 10
545.9631594790854479
 20
-0.1855230095061184
 30
0.0
 40
1.869021262100786
 50
219.7627983816331039
 51
255.8712434081047036
  0
ARC
  5
1E29
  8
0
 10
546.2581383680842464
 20
1.129164028247764
 30
0.0
 40
3.2161323371622639
 50
256.4923217779738138
 51
270.8712516407244948
  0
ARC
  5
1E2A
  8
0
 10
546.5109448238965797
 20
53.7158267893647192
 30
0.0
 40
55.8027958060503906
 50
269.7906410209387786
 51
271.0990607050638914
  0
ENDSEC
  0
EOF
