  0
SECTION
  2
HEADER
  9
$ACADVER
  1
AC1009
  9
$INSBASE
 10
3128.6690113157787891
 20
143.8493856366588943
 30
0.0
  9
$EXTMIN
 10
3119.9724915170068016
 20
143.8467912329221861
 30
-0.0000000349181948
  9
$EXTMAX
 10
3130.0017895768451126
 20
150.855791717138402
 30
0.0000000814935746
  9
$LIMMIN
 10
0.0
 20
0.0
  9
$LIMMAX
 10
11.6929133858000007
 20
8.2677165353999982
  9
$ORTHOMODE
 70
     1
  9
$REGENMODE
 70
     1
  9
$FILLMODE
 70
     1
  9
$QTEXTMODE
 70
     0
  9
$MIRRTEXT
 70
     0
  9
$DRAGMODE
 70
     2
  9
$LTSCALE
 40
0.6431102362
  9
$OSMODE
 70
  2039
  9
$ATTMODE
 70
     1
  9
$TEXTSIZE
 40
0.2
  9
$TRACEWID
 40
0.05
  9
$TEXTSTYLE
  7
STANDARD
  9
$CLAYER
  8
0
  9
$CELTYPE
  6
BYLAYER
  9
$CECOLOR
 62
   256
  9
$DIMSCALE
 40
1.0
  9
$DIMASZ
 40
0.1875
  9
$DIMEXO
 40
0.0625
  9
$DIMDLI
 40
0.4443307087
  9
$DIMRND
 40
0.0
  9
$DIMDLE
 40
0.0
  9
$DIMEXE
 40
0.125
  9
$DIMTP
 40
0.01
  9
$DIMTM
 40
0.01
  9
$DIMTXT
 40
2.0
  9
$DIMCEN
 40
0.1052362205
  9
$DIMTSZ
 40
0.0
  9
$DIMTOL
 70
     1
  9
$DIMLIM
 70
     0
  9
$DIMTIH
 70
     1
  9
$DIMTOH
 70
     1
  9
$DIMSE1
 70
     0
  9
$DIMSE2
 70
     0
  9
$DIMTAD
 70
     0
  9
$DIMZIN
 70
     0
  9
$DIMBLK
  1

  9
$DIMASO
 70
     1
  9
$DIMSHO
 70
     1
  9
$DIMPOST
  1
\X
  9
$DIMAPOST
  1

  9
$DIMALT
 70
     1
  9
$DIMALTD
 70
     2
  9
$DIMALTF
 40
25.3999999999999986
  9
$DIMLFAC
 40
1.0
  9
$DIMTOFL
 70
     0
  9
$DIMTVP
 40
0.0
  9
$DIMTIX
 70
     0
  9
$DIMSOXD
 70
     0
  9
$DIMSAH
 70
     0
  9
$DIMBLK1
  1

  9
$DIMBLK2
  1

  9
$DIMSTYLE
  2
STANDARD
  9
$DIMCLRD
 70
     0
  9
$DIMCLRE
 70
     0
  9
$DIMCLRT
 70
     0
  9
$DIMTFAC
 40
1.0
  9
$DIMGAP
 40
0.09
  9
$LUNITS
 70
     2
  9
$LUPREC
 70
     4
  9
$SKETCHINC
 40
0.1
  9
$FILLETRAD
 40
0.0
  9
$AUNITS
 70
     0
  9
$AUPREC
 70
     0
  9
$MENU
  1
.
  9
$ELEVATION
 40
0.0
  9
$PELEVATION
 40
0.0
  9
$THICKNESS
 40
0.0
  9
$LIMCHECK
 70
     0
  9
$BLIPMODE
 70
     0
  9
$CHAMFERA
 40
0.0
  9
$CHAMFERB
 40
0.0
  9
$SKPOLY
 70
     0
  9
$TDCREATE
 40
2458060.468368056230247
  9
$TDUPDATE
 40
2459254.8353240741416812
  9
$TDINDWG
 40
0.6172292824
  9
$TDUSRTIMER
 40
0.6172292824
  9
$USRTIMER
 70
     1
  9
$ANGBASE
 50
0.0
  9
$ANGDIR
 70
     0
  9
$PDMODE
 70
     0
  9
$PDSIZE
 40
0.3125
  9
$PLINEWID
 40
0.0
  9
$COORDS
 70
     1
  9
$SPLFRAME
 70
     0
  9
$SPLINETYPE
 70
     6
  9
$SPLINESEGS
 70
     8
  9
$ATTDIA
 70
     1
  9
$ATTREQ
 70
     1
  9
$HANDLING
 70
     1
  9
$HANDSEED
  5
2BD1F
  9
$SURFTAB1
 70
     6
  9
$SURFTAB2
 70
     6
  9
$SURFTYPE
 70
     6
  9
$SURFU
 70
     6
  9
$SURFV
 70
     6
  9
$UCSNAME
  2

  9
$UCSORG
 10
0.0
 20
0.0
 30
0.0
  9
$UCSXDIR
 10
1.0
 20
0.0
 30
0.0
  9
$UCSYDIR
 10
0.0
 20
1.0
 30
0.0
  9
$PUCSNAME
  2

  9
$PUCSORG
 10
0.0
 20
0.0
 30
0.0
  9
$PUCSXDIR
 10
1.0
 20
0.0
 30
0.0
  9
$PUCSYDIR
 10
0.0
 20
1.0
 30
0.0
  9
$USERI1
 70
     0
  9
$USERI2
 70
     0
  9
$USERI3
 70
     0
  9
$USERI4
 70
     0
  9
$USERI5
 70
     0
  9
$USERR1
 40
0.0
  9
$USERR2
 40
0.0
  9
$USERR3
 40
0.0
  9
$USERR4
 40
0.0
  9
$USERR5
 40
0.0
  9
$WORLDVIEW
 70
     1
  9
$SHADEDGE
 70
     3
  9
$SHADEDIF
 70
    70
  9
$TILEMODE
 70
     1
  9
$MAXACTVP
 70
    64
  9
$PLIMCHECK
 70
     0
  9
$PEXTMIN
 10
1.0000000000000000E+20
 20
1.0000000000000000E+20
 30
1.0000000000000000E+20
  9
$PEXTMAX
 10
-1.0000000000000000E+20
 20
-1.0000000000000000E+20
 30
-1.0000000000000000E+20
  9
$PLIMMIN
 10
0.0
 20
0.0
  9
$PLIMMAX
 10
12.0
 20
9.0
  9
$UNITMODE
 70
     0
  9
$VISRETAIN
 70
     1
  9
$PLINEGEN
 70
     0
  9
$PSLTSCALE
 70
     1
  0
ENDSEC
  0
SECTION
  2
TABLES
  0
TABLE
  2
VPORT
 70
     1
  0
VPORT
  2
*ACTIVE
 70
     0
 10
0.0
 20
0.0
 11
1.0
 21
1.0
 12
-178.7059746874492134
 22
-47.9102201008574582
 13
0.0
 23
0.0
 14
1.0
 24
1.0
 15
0.0
 25
0.0
 16
0.0
 26
0.0
 36
96.5995694866707311
 17
3303.693115234375
 27
195.2615115758877096
 37
0.0
 40
7.0673278114080063
 41
2.6486111111111108
 42
50.0
 43
0.0
 44
0.0
 50
0.0
 51
0.0
 71
     0
 72
   100
 73
     1
 74
     1
 75
     0
 76
     0
 77
     0
 78
     0
  0
ENDTAB
  0
TABLE
  2
LTYPE
 70
     2
  0
LTYPE
  2
CONTINUOUS
 70
     0
  3
Solid line
 72
    65
 73
     0
 40
0.0
  0
LTYPE
  2
PHANTOM2
 70
     0
  3
___ _ _ ___ _ _ ___ _ _ ___ _ _
 72
    65
 73
     6
 40
1.25
 49
0.625
 49
-0.125
 49
0.125
 49
-0.125
 49
0.125
 49
-0.125
  0
ENDTAB
  0
TABLE
  2
LAYER
 70
     2
  0
LAYER
  2
0
 70
     0
 62
   255
  6
CONTINUOUS
  0
LAYER
  2
DEFPOINTS
 70
     0
 62
     7
  6
CONTINUOUS
  0
ENDTAB
  0
TABLE
  2
STYLE
 70
     1
  0
STYLE
  2
STANDARD
 70
     0
 40
0.0
 41
0.8
 50
0.0
 71
     0
 42
0.2
  3
txt
  4

  0
ENDTAB
  0
TABLE
  2
VIEW
 70
     0
  0
ENDTAB
  0
TABLE
  2
UCS
 70
     0
  0
ENDTAB
  0
TABLE
  2
APPID
 70
     9
  0
APPID
  2
ACAD
 70
     0
  0
APPID
  2
ACAD_MLEADERVER
 70
     0
  0
APPID
  2
ACAD_EXEMPT_FROM_CAD_STANDARDS
 70
     0
  0
APPID
  2
ACAD_NAV_VCDISPLAY
 70
     0
  0
APPID
  2
ACAECLAYERSTANDARD
 70
     0
  0
APPID
  2
ACCMTRANSPARENCY
 70
     0
  0
APPID
  2
ACAD_DSTYLE_DIMJAG
 70
     0
  0
APPID
  2
ACAD_DSTYLE_DIMTALN
 70
     0
  0
APPID
  2
ACDBATTR
 70
     0
  0
ENDTAB
  0
TABLE
  2
DIMSTYLE
 70
     1
  0
DIMSTYLE
  2
STANDARD
 70
     0
  3

  4

  5

  6

  7

 40
1.0
 41
0.1875
 42
0.0625
 43
0.38
 44
0.125
 45
0.0
 46
0.0
 47
0.01
 48
0.01
140
0.15625
141
0.09
142
0.0
143
25.3999999999999986
144
1.0
145
0.0
146
1.0
147
0.09
 71
     1
 72
     0
 73
     1
 74
     1
 75
     0
 76
     0
 77
     0
 78
     4
170
     0
171
     2
172
     0
173
     0
174
     0
175
     0
176
     0
177
     0
178
     0
  0
ENDTAB
  0
ENDSEC
  0
SECTION
  2
BLOCKS
  0
BLOCK
  8
0
  2
$MODEL_SPACE
 70
     0
 10
0.0
 20
0.0
 30
0.0
  3
$MODEL_SPACE
  1

  0
ENDBLK
  5
21
  8
0
  0
BLOCK
 67
     1
  8
0
  2
$PAPER_SPACE
 70
     0
 10
0.0
 20
0.0
 30
0.0
  3
$PAPER_SPACE
  1

  0
ENDBLK
  5
1D
 67
     1
  8
0
  0
BLOCK
  8
0
  2
_FILLED
 70
     0
 10
0.0
 20
0.0
 30
0.0
  3
_FILLED
  1

  0
SOLID
  5
2822A
  8
0
  6
BYBLOCK
 62
     0
 10
0.0
 20
0.0
 30
0.0
 11
-1.0
 21
0.1666666667
 31
0.0
 12
-1.0
 22
-0.1666666667
 32
0.0
 13
-1.0
 23
-0.1666666667
 33
0.0
  0
ENDBLK
  5
2822B
  8
0
  6
BYBLOCK
 62
     0
  0
ENDSEC
  0
SECTION
  2
ENTITIES
  0
ATTDEF
  5
27B3E
  8
DEFPOINTS
 10
3128.6693802542458798
 20
143.8537618994729996
 30
0.0
 40
0.001
  1
K-31236T-4
  3

  2
MODELNUMBER
 70
     0
1001
ACDBATTR
1070
     0
1070
     1
  0
ATTDEF
  5
27B3F
  8
DEFPOINTS
 10
3128.6693802542458798
 20
143.8520952328063061
 30
0.0
 40
0.001
  1
STILLNESS
  3

  2
TRADENAME
 70
     0
1001
ACDBATTR
1070
     0
1070
     1
  0
ATTDEF
  5
27B40
  8
DEFPOINTS
 10
3128.6693802542458798
 20
143.8504285661396978
 30
0.0
 40
0.001
  1
BATH AND SHOWER FAUCET
  3

  2
PRODUCT
 70
     0
1001
ACDBATTR
1070
     0
1070
     1
  0
LINE
  5
2B6D7
  8
0
 10
3127.5272790323278969
 20
143.8493856366588943
 30
0.0
 11
3129.8107435992278624
 21
143.8493856366588943
 31
0.0
  0
LINE
  5
2B6D8
  8
0
 10
3128.0587750952281567
 20
144.4005667389589007
 30
0.0
 11
3129.2792475362289224
 21
144.4005667389589007
 31
0.0
  0
LINE
  5
2B6D9
  8
0
 10
3127.5272790323278969
 20
143.8493856366588943
 30
0.0
 11
3127.5272790323278969
 21
144.0265509909588957
 31
0.0
  0
ARC
  5
2B6DA
  8
0
 10
3127.5469640717278708
 20
144.0265509909588957
 30
0.0
 40
0.0196850393999988
 50
90.0000002910615962
 51
179.9999999999967031
  0
LINE
  5
2B6DB
  8
0
 10
3127.5469640716278263
 20
144.046236030358898
 30
0.0
 11
3129.7910585598278885
 21
144.0462360417587035
 31
0.0
  0
ARC
  5
2B6DC
  8
0
 10
3129.7910585599288424
 20
144.0265510024586888
 30
0.0
 40
0.0196850393000006
 50
359.999966528393827
 51
90.0000002910615962
  0
LINE
  5
2B6DD
  8
0
 10
3129.8107435992278624
 20
144.0265509909588957
 30
0.0
 11
3129.8107434957300939
 21
143.8493856366588943
 31
0.0
  0
LINE
  5
2B6DE
  8
0
 10
3129.8107435992278624
 20
143.8493856366588943
 30
0.0
 11
3127.5272790323278969
 21
143.8493856366588943
 31
0.0
  0
LINE
  5
2B6DF
  8
0
 10
3129.7910797450499558
 20
144.046236030358898
 30
0.0
 11
3127.5469640716278263
 21
144.046236030358898
 31
0.0
  0
LINE
  5
2B6E0
  8
0
 10
3128.0390900559282272
 20
144.0934580775588927
 30
0.0
 11
3127.9800349378288047
 21
144.0934580775588927
 31
0.0
  0
LINE
  5
2B6E1
  8
0
 10
3129.2989325756288963
 20
144.0934580775588927
 30
0.0
 11
3129.3579902739288627
 21
144.0934580775588927
 31
0.0
  0
LINE
  5
2B6E2
  8
0
 10
3129.3384852577460151
 20
146.0378767896548879
 30
0.0
 11
3128.1281176496017906
 21
146.0378767896548879
 31
0.0
  0
LINE
  5
2B6E3
  8
0
 10
3128.6886963551291956
 20
149.2903305185589033
 30
0.0
 11
3129.2398774575281095
 21
149.2903305185589033
 31
0.0
  0
LINE
  5
2B6E4
  8
0
 10
3129.2595624969239907
 20
149.3100155577575094
 30
0.0
 11
3128.6690113157292217
 21
149.3100155577575094
 31
0.0
  0
LINE
  5
2B6E5
  8
0
 10
3121.9696832955769423
 20
149.1643462664588924
 30
0.0
 11
3121.5606497788157867
 21
149.1643462664588924
 31
0.0
  0
LINE
  5
2B6E6
  8
0
 10
3124.7954224768877793
 20
149.1643462664588924
 30
0.0
 11
3129.5745231267278541
 21
149.1643462664588924
 31
0.0
  0
ARC
  5
2B6E7
  8
0
 10
3120.3693773849890931
 20
150.8158667443123875
 30
0.0
 40
0.0307171850530246
 50
90.0000000000260485
 51
159.8927851571559131
  0
ARC
  5
2B6E8
  8
0
 10
3110.2751331623449005
 20
112.7889586491188965
 30
0.0
 40
39.3746909820043811
 50
69.1817116102923393
 51
75.1348739520335016
  0
ARC
  5
2B6E9
  8
0
 10
3120.1063520484681248
 20
150.0317798521606107
 30
0.0
 40
0.0295277596708084
 50
161.5639781796330112
 51
251.9396638871050982
  0
LINE
  5
2B6EA
  8
0
 10
3120.0783397309110114
 20
150.0411178742344873
 30
0.0
 11
3120.3406389296260386
 21
150.826391655473401
 31
0.0
  0
LINE
  5
2B6EB
  8
0
 10
3120.0971979012520023
 20
150.0037069082478922
 30
0.0
 11
3124.0908137326819087
 21
148.708333316812201
 31
0.0
  0
ARC
  5
2B6EC
  8
0
 10
3123.6558104850078053
 20
147.3185654237404947
 30
0.0
 40
1.45625637238105
 50
69.2996382147176462
 51
72.6196585076520194
  0
ARC
  5
2B6ED
  8
0
 10
3123.9474405715000103
 20
148.1334036984943907
 30
0.0
 40
0.5911331093068412
 50
45.8024012112101389
 51
67.8236245348999773
  0
LINE
  5
2B6EE
  8
0
 10
3124.3595401854740885
 20
148.5572105661618991
 30
0.0
 11
3124.5666948875041271
 21
148.3506966915495866
 31
0.0
  0
ARC
  5
2B6EF
  8
0
 10
3124.2548165539919864
 20
148.019780575065397
 30
0.0
 40
0.4547236205243004
 50
1.352252228509508
 51
46.6964456451097689
  0
ARC
  5
2B6F0
  8
0
 10
3120.184808850517129
 20
149.9888706582329974
 30
0.0
 40
0.0201085664598477
 50
202.003655780119999
 51
234.1834085920656889
  0
LINE
  5
2B6F1
  8
0
 10
3120.1730414679568639
 20
149.97256473437821
 30
0.0
 11
3120.3382476901988412
 21
149.8924461358488998
 31
0.0
  0
LINE
  5
2B6F2
  8
0
 10
3120.3412412569359731
 20
149.90225555210219
 30
0.0
 11
3120.3266157602702151
 21
149.8543302524306
 31
0.0
  0
ARC
  5
2B6F3
  8
0
 10
3120.3384535752920783
 20
149.8509274856924947
 30
0.0
 40
0.0123171703722501
 50
163.9627617718695944
 51
238.6383421566424943
  0
ARC
  5
2B6F4
  8
0
 10
3120.9301902459110352
 20
150.9795057192912111
 30
0.0
 40
1.2865920881172519
 50
242.2957296768663866
 51
247.9847249834024012
  0
ARC
  5
2B6F5
  8
0
 10
3120.4523459374759113
 20
149.799410392667113
 30
0.0
 40
0.0134380931365687
 50
250.7085885407134072
 51
335.4483943761734963
  0
LINE
  5
2B6F6
  8
0
 10
3120.4645690575730441
 20
149.793826694767688
 30
0.0
 11
3120.4806036481118099
 21
149.8403931489685021
 31
0.0
  0
ARC
  5
2B6F7
  8
0
 10
3120.2960047596970981
 20
149.6045270744928928
 30
0.0
 40
0.2306480829189899
 50
59.3597579903320067
 51
71.1147032586851111
  0
ARC
  5
2B6F8
  8
0
 10
3120.5075237441237732
 20
150.0630219657286943
 30
0.0
 40
0.2765104971877899
 50
240.3323107731945925
 51
250.1322518901982903
  0
ARC
  5
2B6F9
  8
0
 10
3120.4840960227948017
 20
150.2059582396059909
 30
0.0
 40
0.3376210259740069
 50
241.4937391967916085
 51
244.857766227225909
  0
ARC
  5
2B6FA
  8
0
 10
3120.2837187381378499
 20
149.7796713521441063
 30
0.0
 40
0.1354094762121615
 50
64.8617273166076558
 51
73.1520863948976654
  0
ARC
  5
2B6FB
  8
0
 10
3119.9819934286470016
 20
148.9050415780573076
 30
0.0
 40
1.0599503347611341
 50
61.9391485167904108
 51
70.1883681242445476
  0
ARC
  5
2B6FC
  8
0
 10
3120.4678731657832031
 20
149.8100109197908978
 30
0.0
 40
0.0329415395833086
 50
36.6789616683220601
 51
67.2657893244106333
  0
ARC
  5
2B6FD
  8
0
 10
3120.427132802441065
 20
149.6990779219314049
 30
0.0
 40
0.1468649118390329
 50
62.7879540323310295
 51
69.2238246900621164
  0
ARC
  5
2B6FE
  8
0
 10
3121.9269642932267743
 20
148.8070694963626863
 30
0.0
 40
0.4161352866281283
 50
76.1311989750638531
 51
85.3540085908459929
  0
LINE
  5
2B6FF
  8
0
 10
3121.9799241549540056
 20
149.2198210315785047
 30
0.0
 11
3121.966199606995815
 21
149.1759662768843953
 31
0.0
  0
ARC
  5
2B700
  8
0
 10
3121.9794504662340842
 20
149.1735333038431861
 30
0.0
 40
0.0134723653584059
 50
169.5958786210076994
 51
250.8655533018913957
  0
ARC
  5
2B701
  8
0
 10
3122.8168183370198676
 20
151.4670081268720878
 30
0.0
 40
2.4550299057638321
 50
249.9474820981085088
 51
254.1046752921307075
  0
ARC
  5
2B702
  8
0
 10
3122.1488936310020108
 20
149.1184931236062994
 30
0.0
 40
0.0134073544446033
 50
250.5669211765813031
 51
334.7557186569110854
  0
LINE
  5
2B703
  8
0
 10
3122.1610205524830235
 20
149.1127751756677071
 30
0.0
 11
3122.1761094686012257
 21
149.1577580506456115
 31
0.0
  0
ARC
  5
2B704
  8
0
 10
3122.0628291140938018
 20
148.9730788787202869
 30
0.0
 40
0.2166537220082189
 50
58.4754641755569722
 51
71.0823920611990729
  0
ARC
  5
2B705
  8
0
 10
3121.8585226763711944
 20
148.5118065709615109
 30
0.0
 40
0.6538383747740047
 50
69.6211271987651799
 51
74.4522906721664697
  0
ARC
  5
2B706
  8
0
 10
3122.2410615022968159
 20
149.6917116476643059
 30
0.0
 40
0.5877566756884047
 50
249.3493516601930935
 51
254.7240647319480047
  0
LINE
  5
2B707
  8
0
 10
3122.0182754386710258
 20
149.1484624234491889
 30
0.0
 11
3122.1027116642308101
 21
149.1210750590909129
 31
0.0
  0
ARC
  5
2B708
  8
0
 10
3122.1038344296111973
 20
149.1268069286130924
 30
0.0
 40
0.0058407987740721
 50
258.9171604964071776
 51
312.2989796870207897
  0
ARC
  5
2B709
  8
0
 10
3122.0968708295799843
 20
149.1351773061026051
 30
0.0
 40
0.0167253551229379
 50
310.6452410798099777
 51
342.5603812581454122
  0
LINE
  5
2B70A
  8
0
 10
3122.1128273756639828
 20
149.1301647078659869
 30
0.0
 11
3122.1170306283720493
 21
149.1429040052977086
 31
0.0
  0
ARC
  5
2B70B
  8
0
 10
3122.1124626164591973
 20
149.1538881751000076
 30
0.0
 40
0.0118961640872448
 50
292.5810726046764216
 51
341.5401607911588258
  0
LINE
  5
2B70C
  8
0
 10
3122.123746673335063
 20
149.1501213753404045
 30
0.0
 11
3122.1385659714069334
 21
149.1944837922355873
 31
0.0
  0
ARC
  5
2B70D
  8
0
 10
3121.9972115431692146
 20
148.9254166171546956
 30
0.0
 40
0.3016971161950732
 50
65.8251350837137039
 51
72.8625958889237921
  0
ARC
  5
2B70E
  8
0
 10
3122.0423026753442173
 20
148.945543327238795
 30
0.0
 40
0.2669044347361371
 50
68.8589105406931168
 51
72.9044770887021656
  0
ARC
  5
2B70F
  8
0
 10
3122.1309801092561429
 20
149.164197645231809
 30
0.0
 40
0.0312217232855049
 50
40.2095414211518971
 51
75.9382525456648807
  0
ARC
  5
2B710
  8
0
 10
3122.1817298429928087
 20
149.4160959374086985
 30
0.0
 40
0.2332987354271891
 50
258.7368543077353138
 51
263.3774102690662176
  0
ARC
  5
2B711
  8
0
 10
3121.9646687035019568
 20
148.8402104464406079
 30
0.0
 40
0.3927551080647893
 50
71.9886205429248918
 51
77.4254336351370824
  0
ARC
  5
2B712
  8
0
 10
3121.9609324844959701
 20
148.971037160403398
 30
0.0
 40
0.2678140709579535
 50
70.5352280934569649
 51
74.5232474306088051
  0
ARC
  5
2B713
  8
0
 10
3122.0212119091779641
 20
149.2019560841364978
 30
0.0
 40
0.0293954355949727
 50
67.6330418889194362
 51
105.6401152929940963
  0
ARC
  5
2B714
  8
0
 10
3122.066055760081781
 20
149.3124490713755961
 30
0.0
 40
0.0975798042584991
 50
237.2842432900951053
 51
248.360075237998899
  0
LINE
  5
2B715
  8
0
 10
3122.0323979640738798
 20
149.2291399729253101
 30
0.0
 11
3122.0182939326377891
 21
149.1843248043452093
 31
0.0
  0
ARC
  5
2B716
  8
0
 10
3122.0311700144798124
 20
149.1812242434295968
 30
0.0
 40
0.0132441293252878
 50
166.460932650968914
 51
248.7923587366335028
  0
ARC
  5
2B717
  8
0
 10
3122.2878493720959341
 20
149.8288176524829964
 30
0.0
 40
0.7098509366953362
 50
248.3863831275940015
 51
254.5914837629732972
  0
ARC
  5
2B718
  8
0
 10
3122.1120106434750596
 20
149.1873742983682121
 30
0.0
 40
0.0447527341989067
 50
253.4228249357873892
 51
276.4405128010760109
  0
ARC
  5
2B719
  8
0
 10
3122.0203591614931611
 20
149.153452248668998
 30
0.0
 40
0.0054074260467136
 50
190.3390472173394983
 51
247.3348612499540025
  0
ARC
  5
2B71A
  8
0
 10
3122.0358272359922012
 20
149.1562741652506077
 30
0.0
 40
0.0211308016980887
 50
164.955397211139001
 51
190.3390472173489911
  0
LINE
  5
2B71B
  8
0
 10
3122.0154207125551693
 20
149.1617591066035118
 30
0.0
 11
3122.0194358744929559
 21
149.1750828331391858
 31
0.0
  0
ARC
  5
2B71C
  8
0
 10
3122.068150019345012
 20
149.1583714015918076
 30
0.0
 40
0.0969154069951539
 50
57.924404970004872
 51
86.1349665440039161
  0
ARC
  5
2B71D
  8
0
 10
3122.1270620483578568
 20
149.3400017530931905
 30
0.0
 40
0.0997878194746814
 50
238.33802777258731
 51
265.7204474334919837
  0
ARC
  5
2B71E
  8
0
 10
3122.1929616871639155
 20
149.5566109304220106
 30
0.0
 40
0.3309881967668671
 50
242.4824346226344005
 51
252.7469676892719974
  0
ARC
  5
2B71F
  8
0
 10
3122.0517060964530174
 20
149.2854644548532121
 30
0.0
 40
0.0252537480690411
 50
215.8570610075879017
 51
242.4824346226351963
  0
ARC
  5
2B720
  8
0
 10
3122.0418094048850435
 20
149.2783117420752035
 30
0.0
 40
0.0130428593184582
 50
163.0905844698897056
 51
215.8570610075865943
  0
LINE
  5
2B721
  8
0
 10
3122.0293304431620527
 20
149.2821053806337943
 30
0.0
 11
3122.0458982785198714
 21
149.3363971319899974
 31
0.0
  0
ARC
  5
2B722
  8
0
 10
3122.0724024500959786
 20
149.3754121540293909
 30
0.0
 40
0.0609694170049241
 50
221.1927766782355889
 51
239.7908669255556049
  0
ARC
  5
2B723
  8
0
 10
3122.0377465105411829
 20
149.3097045314302136
 30
0.0
 40
0.0279096084081191
 50
73.0176275603666483
 51
113.7116955562669034
  0
ARC
  5
2B724
  8
0
 10
3121.9853805388470391
 20
149.0597819468451064
 30
0.0
 40
0.283157831295585
 50
71.722158012454102
 51
77.6592981570140779
  0
ARC
  5
2B725
  8
0
 10
3122.0403777425149201
 20
149.0825810185530997
 30
0.0
 40
0.2483841741652225
 50
71.3321334317192424
 51
82.1770321069417662
  0
ARC
  5
2B726
  8
0
 10
3122.0543262933520055
 20
149.099864185435905
 30
0.0
 40
0.227675259275161
 50
61.3556006985360725
 51
73.2658936296128758
  0
ARC
  5
2B727
  8
0
 10
3122.0772796380738328
 20
149.0326386509709948
 30
0.0
 40
0.2806003854153912
 50
66.1767097719174018
 51
72.1121378801740462
  0
ARC
  5
2B728
  8
0
 10
3122.1776070567661918
 20
149.2551243576606907
 30
0.0
 40
0.036597527458858
 50
38.8826856444528914
 51
69.1734324084788454
  0
ARC
  5
2B729
  8
0
 10
3122.190654641700803
 20
149.3158846339885883
 30
0.0
 40
0.0408201562537983
 50
263.1894110036358825
 51
292.2267049105320211
  0
LINE
  5
2B72A
  8
0
 10
3122.1906189561477731
 20
149.2893306361864916
 30
0.0
 11
3122.1719831870718735
 21
149.2352083510081115
 31
0.0
  0
ARC
  5
2B72B
  8
0
 10
3122.1607158641631941
 20
149.239087995541297
 30
0.0
 40
0.0119165518170755
 50
284.604965121629391
 51
341.0000266937245215
  0
ARC
  5
2B72C
  8
0
 10
3122.1551512009618818
 20
149.2604434797480053
 30
0.0
 40
0.0339851308890997
 50
260.9143016007558913
 51
284.604965121629391
  0
ARC
  5
2B72D
  8
0
 10
3122.3283426786351811
 20
150.0649857421279023
 30
0.0
 40
0.8569108902355635
 50
254.1843053174357863
 51
257.9729066110447775
  0
LINE
  5
2B72E
  8
0
 10
3120.5825082696851496
 20
149.8163756707104994
 30
0.0
 11
3120.5664289395540436
 21
149.7636864024202907
 31
0.0
  0
ARC
  5
2B72F
  8
0
 10
3120.5791864450748108
 20
149.7602602386320996
 30
0.0
 40
0.0132095626504115
 50
164.9673186726222127
 51
237.9990494055583952
  0
ARC
  5
2B730
  8
0
 10
3120.8904490918498595
 20
150.2989111590356117
 30
0.0
 40
0.6353185947932147
 50
239.9371302145108871
 51
250.8749309887307106
  0
ARC
  5
2B731
  8
0
 10
3120.6996151050580011
 20
149.7485943253741993
 30
0.0
 40
0.0528529495176148
 50
250.8749309887307106
 51
259.5258316381464283
  0
ARC
  5
2B732
  8
0
 10
3120.6925253933131899
 20
149.7102451811666128
 30
0.0
 40
0.0138539639656176
 50
259.5258316381460872
 51
335.6947246351563763
  0
LINE
  5
2B733
  8
0
 10
3120.7051514164968467
 20
149.7045429135376082
 30
0.0
 11
3120.7219385943258203
 21
149.7533759484184088
 31
0.0
  0
ARC
  5
2B734
  8
0
 10
3120.5055828334020589
 20
149.6938354455963065
 30
0.0
 40
0.1376137585549221
 50
57.0826595158663608
 51
65.2121982445612218
  0
ARC
  5
2B735
  8
0
 10
3120.5678631662090083
 20
149.7771800105321915
 30
0.0
 40
0.041842309121735
 50
69.5122532439056755
 51
96.2903779578929004
  0
ARC
  5
2B736
  8
0
 10
3120.5075397666951176
 20
149.6233254856720123
 30
0.0
 40
0.2070957517284012
 50
60.7154280290590407
 51
68.7769734543065567
  0
ARC
  5
2B737
  8
0
 10
3120.418227498655142
 20
149.225989106477499
 30
0.0
 40
0.6085863214269891
 50
60.0632561915426066
 51
71.747476924299562
  0
ARC
  5
2B738
  8
0
 10
3120.6317071726139147
 20
149.641264655795112
 30
0.0
 40
0.1439119570593732
 50
43.8413029984229965
 51
51.1715697460203174
  0
ARC
  5
2B739
  8
0
 10
3120.7873844099731286
 20
149.9804313602595016
 30
0.0
 40
0.2450390075613203
 50
253.8178072991748877
 51
257.7769559228838716
  0
ARC
  5
2B73A
  8
0
 10
3120.5554841412608766
 20
149.5509065399110966
 30
0.0
 40
0.1898772028814662
 50
58.8244046907677216
 51
73.1172457453987192
  0
ARC
  5
2B73B
  8
0
 10
3120.7106232612318308
 20
149.8987477220069024
 30
0.0
 40
0.1939051386373303
 50
238.957594698982092
 51
252.9522828330217123
  0
LINE
  5
2B73C
  8
0
 10
3120.5808364831891595
 20
149.7441411621466898
 30
0.0
 11
3120.574523232491174
 21
149.7238179049205087
 31
0.0
  0
ARC
  5
2B73D
  8
0
 10
3120.5857406960149092
 20
149.7203332932440958
 30
0.0
 40
0.0117462337132183
 50
162.7430279214466111
 51
247.515441956153694
  0
LINE
  5
2B73E
  8
0
 10
3120.5812485319261214
 20
149.7094799772416991
 30
0.0
 11
3120.6611742350501117
 21
149.6759306047931091
 31
0.0
  0
ARC
  5
2B73F
  8
0
 10
3120.6657069162511107
 20
149.6868984108008078
 30
0.0
 40
0.0118678099262974
 50
247.5462938341343886
 51
340.7371971009883964
  0
LINE
  5
2B740
  8
0
 10
3120.6769103107130832
 20
149.6829832013613952
 30
0.0
 11
3120.6822988235708181
 21
149.6986585599532873
 31
0.0
  0
LINE
  5
2B741
  8
0
 10
3120.8301123699848176
 20
149.7465137750133124
 30
0.0
 11
3120.8140933565068735
 21
149.6939467090290066
 31
0.0
  0
ARC
  5
2B742
  8
0
 10
3120.8273200623862067
 20
149.6903771879090925
 30
0.0
 40
0.0136997506120099
 50
164.8944647755222093
 51
235.3048531751200869
  0
ARC
  5
2B743
  8
0
 10
3120.9333422278878061
 20
149.8435203541579881
 30
0.0
 40
0.1999617406863832
 50
235.3048531751200869
 51
247.708805320907004
  0
ARC
  5
2B744
  8
0
 10
3121.1415161820727917
 20
150.2795878256090987
 30
0.0
 40
0.6829465916141352
 50
245.4254004690808131
 51
250.8447082425510075
  0
ARC
  5
2B745
  8
0
 10
3120.9861026223820772
 20
149.8491130938587901
 30
0.0
 40
0.2253788107607707
 50
252.2576047937357941
 51
257.1941326902058904
  0
ARC
  5
2B746
  8
0
 10
3120.9387435796202226
 20
149.6455290197719989
 30
0.0
 40
0.0163956046929684
 50
260.8904340932177206
 51
332.7332341528402821
  0
LINE
  5
2B747
  8
0
 10
3120.9533173558861563
 20
149.6380176351717068
 30
0.0
 11
3120.9703051946371488
 21
149.6867108252295964
 31
0.0
  0
ARC
  5
2B748
  8
0
 10
3121.0988571410330223
 20
150.1620961189296111
 30
0.0
 40
0.5044187430616476
 50
235.1391156163664107
 51
237.418846926366399
  0
ARC
  5
2B749
  8
0
 10
3120.8170496657407966
 20
149.7093130667049934
 30
0.0
 40
0.0394274896588671
 50
70.6517202775417843
 51
99.5054745964626193
  0
ARC
  5
2B74A
  8
0
 10
3120.6189886458460023
 20
149.0573584817834956
 30
0.0
 40
0.7207692037544077
 50
60.8296762481634801
 51
72.9674785171556834
  0
ARC
  5
2B74B
  8
0
 10
3120.9645493364810136
 20
149.6662938034207002
 30
0.0
 40
0.0212154702447798
 50
22.9247150286744983
 51
74.2813001461003637
  0
ARC
  5
2B74C
  8
0
 10
3120.956996275137044
 20
149.5817297163235082
 30
0.0
 40
0.0966850704282208
 50
73.7306341539547958
 51
83.9290152142711605
  0
ARC
  5
2B74D
  8
0
 10
3120.8301956711948151
 20
149.5357028208630936
 30
0.0
 40
0.1310694606662944
 50
56.7924886309430335
 51
77.5569891067917041
  0
ARC
  5
2B74E
  8
0
 10
3120.9323053756429545
 20
149.7783127317941876
 30
0.0
 40
0.136360147314634
 50
237.1995194586239961
 51
257.1499582791219041
  0
LINE
  5
2B74F
  8
0
 10
3120.8272751440499633
 20
149.6740079019174061
 30
0.0
 11
3120.8117023086078916
 21
149.6244765933172971
 31
0.0
  0
ARC
  5
2B750
  8
0
 10
3120.8231445418477961
 20
149.6208791108284117
 30
0.0
 40
0.0119944396193429
 50
162.5466501916370134
 51
243.4831614808882136
  0
ARC
  5
2B751
  8
0
 10
3121.2145220325701302
 20
150.4516610414499951
 30
0.0
 40
0.9303459128880607
 50
244.7584393320211973
 51
250.253187008586508
  0
ARC
  5
2B752
  8
0
 10
3120.903930166470218
 20
149.5872170647027133
 30
0.0
 40
0.0118007275735523
 50
251.5284648597150863
 51
342.2757342067217223
  0
LINE
  5
2B753
  8
0
 10
3120.9151707445698776
 20
149.5836244924682887
 30
0.0
 11
3120.9308199433448863
 21
149.6304589419507067
 31
0.0
  0
ARC
  5
2B754
  8
0
 10
3117.8058501465538939
 20
144.2870660893080128
 30
0.0
 40
6.1486171984598537
 50
63.2738970351364785
 51
64.2654818619290893
  0
ARC
  5
2B755
  8
0
 10
3119.4469072131710163
 20
146.7524943909540127
 30
0.0
 40
3.219263521975301
 50
64.6807806460889054
 51
66.9280849240237643
  0
ARC
  5
2B756
  8
0
 10
3122.1599981019671759
 20
152.1030518628581945
 30
0.0
 40
2.776911420109291
 50
243.6121719954321065
 51
246.6305022316169016
  0
LINE
  5
2B757
  8
0
 10
3121.0711416530948554
 20
149.5941242976300884
 30
0.0
 11
3121.0555839444359663
 21
149.5446434546610135
 31
0.0
  0
ARC
  5
2B758
  8
0
 10
3121.0673241390368275
 20
149.5409521164332887
 30
0.0
 40
0.0123068333528953
 50
162.5458706066492027
 51
242.571759381479211
  0
ARC
  5
2B759
  8
0
 10
3121.2795061446108775
 20
149.9608078947624108
 30
0.0
 40
0.4827315589979681
 50
243.1736449016918016
 51
253.8823856135178971
  0
ARC
  5
2B75A
  8
0
 10
3121.1477964897931088
 20
149.5092194098837979
 30
0.0
 40
0.0123844806741292
 50
259.2902336024939132
 51
340.625327944507319
  0
LINE
  5
2B75B
  8
0
 10
3121.1594796298909387
 20
149.5051109309661967
 30
0.0
 11
3121.1744809181441269
 21
149.5500169593699127
 31
0.0
  0
ARC
  5
2B75C
  8
0
 10
3121.1618258219718882
 20
149.5183757389386869
 30
0.0
 40
0.0340781203924899
 50
37.0398489668494335
 51
68.2007635026792229
  0
ARC
  5
2B75D
  8
0
 10
3121.1613633763099642
 20
149.429172241630198
 30
0.0
 40
0.1131646180874467
 50
75.8501025097218218
 51
84.7308344531565041
  0
ARC
  5
2B75E
  8
0
 10
3120.7759857637602181
 20
148.7594916803462866
 30
0.0
 40
0.8852844767886466
 50
63.247826292991931
 51
70.5245875220969083
  0
ARC
  5
2B75F
  8
0
 10
3121.0538664665068609
 20
149.5452740638496891
 30
0.0
 40
0.0518148377594578
 50
70.5245875220969083
 51
91.7137520516025688
  0
ARC
  5
2B760
  8
0
 10
3121.552837324176835
 20
150.316811005010095
 30
0.0
 40
0.8766721044293689
 50
235.1847349724639002
 51
236.4712882055322893
  0
LINE
  5
2B761
  8
0
 10
3121.0582256429938752
 20
149.5540649104040938
 30
0.0
 11
3121.0449795700301365
 21
149.5132014263440965
 31
0.0
  0
ARC
  5
2B762
  8
0
 10
3121.0561085151798579
 20
149.5095939312205076
 30
0.0
 40
0.0116990359105991
 50
162.0396766148938923
 51
251.8499958571655952
  0
LINE
  5
2B763
  8
0
 10
3121.0524641969218465
 20
149.4984769898395882
 30
0.0
 11
3121.1349595187748491
 21
149.4676812254674019
 31
0.0
  0
ARC
  5
2B764
  8
0
 10
3121.1386549781659596
 20
149.4789249660368
 30
0.0
 40
0.0118354603671601
 50
251.805952796054612
 51
341.4517711049306854
  0
LINE
  5
2B765
  8
0
 10
3121.149875660068119
 20
149.4751600729761094
 30
0.0
 11
3121.1628138452920211
 21
149.5137203344337138
 31
0.0
  0
LINE
  5
2B766
  8
0
 10
3121.162406635993193
 20
149.5138728597376883
 30
0.0
 11
3121.1628138452920211
 21
149.5137203344337138
 31
0.0
  0
LINE
  5
2B767
  8
0
 10
3121.1628138452920211
 20
149.5137203344337138
 30
0.0
 11
3121.2985389111718177
 21
149.4622206299140998
 31
0.0
  0
LINE
  5
2B768
  8
0
 10
3121.3224676064501182
 20
149.5368562825672996
 30
0.0
 11
3121.3065052271408604
 21
149.4844874427732009
 31
0.0
  0
ARC
  5
2B769
  8
0
 10
3121.3187946843090685
 20
149.4810260694877968
 30
0.0
 40
0.0127676098976125
 50
164.2699201292396083
 51
237.136250518297004
  0
ARC
  5
2B76A
  8
0
 10
3121.4831081550250929
 20
149.8002686942764115
 30
0.0
 40
0.371755183519683
 50
242.5722086214352942
 51
256.3540333487961789
  0
ARC
  5
2B76B
  8
0
 10
3121.3976043731408936
 20
149.4522595963437084
 30
0.0
 40
0.0134337906346608
 50
260.5684925891598027
 51
337.4261925781107152
  0
LINE
  5
2B76C
  8
0
 10
3121.4100089446528727
 20
149.4471027236074008
 30
0.0
 11
3121.4269710578100785
 21
149.4964460599375116
 31
0.0
  0
ARC
  5
2B76D
  8
0
 10
3121.4427388697167771
 20
149.5441907986435126
 30
0.0
 40
0.0628538904146217
 50
251.5910459500396996
 51
272.61550079458749
  0
ARC
  5
2B76E
  8
0
 10
3121.4012519230841463
 20
149.4455203469628088
 30
0.0
 40
0.0570517496010976
 50
38.9718462222919229
 51
63.2047455168640084
  0
ARC
  5
2B76F
  8
0
 10
3121.1410873351928785
 20
148.91246370490299
 30
0.0
 40
0.6502037325664145
 50
63.9163238383828585
 51
73.8019074971382878
  0
ARC
  5
2B770
  8
0
 10
3121.299118782153073
 20
149.4525861243359088
 30
0.0
 40
0.0874449950793211
 50
74.5134858186448525
 51
90.2427975199582022
  0
ARC
  5
2B771
  8
0
 10
3121.3884992106268328
 20
149.6417803947998095
 30
0.0
 40
0.1356772429293605
 50
228.585352475296304
 51
239.1636493709563922
  0
ARC
  5
2B772
  8
0
 10
3121.3041248548879594
 20
149.3177324051756898
 30
0.0
 40
0.147857073674835
 50
60.5446909612278077
 51
78.918211889252234
  0
ARC
  5
2B773
  8
0
 10
3121.4121458530280506
 20
149.6102445013347051
 30
0.0
 40
0.167531119830457
 50
241.6312827272211052
 51
257.8316230808125056
  0
LINE
  5
2B774
  8
0
 10
3121.3004438579741873
 20
149.4682731170047134
 30
0.0
 11
3121.2863437722089657
 21
149.4234736575313036
 31
0.0
  0
ARC
  5
2B775
  8
0
 10
3121.2977107159708794
 20
149.4198960500372948
 30
0.0
 40
0.0119166558174044
 50
162.5292377121785989
 51
244.5159638278668126
  0
ARC
  5
2B776
  8
0
 10
3121.7207213524548024
 20
150.4460998850584872
 30
0.0
 40
1.1218691096086599
 50
247.5653709382453087
 51
252.1134893752858943
  0
ARC
  5
2B777
  8
0
 10
3121.3792829881099351
 20
149.3902479857538879
 30
0.0
 40
0.0122004074718378
 50
255.1628964856689095
 51
340.4069063839227738
  0
LINE
  5
2B778
  8
0
 10
3121.3907769661368548
 20
149.3861567253603084
 30
0.0
 11
3121.4043322074521711
 21
149.426702046635711
 31
0.0
  0
ARC
  5
2B779
  8
0
 10
3121.3917223952130371
 20
149.3868702406714135
 30
0.0
 40
0.0417801403334381
 50
47.1934244383521886
 51
72.4334386139005773
  0
ARC
  5
2B77A
  8
0
 10
3121.2753336571331602
 20
149.0122992811182883
 30
0.0
 40
0.4303101067680407
 50
70.3390416551028324
 51
72.7194340679133546
  0
ARC
  5
2B77B
  8
0
 10
3121.1141197890460717
 20
149.1598157929464037
 30
0.0
 40
0.3556439847855164
 50
58.6809203290972121
 51
61.820147241679777
  0
ARC
  5
2B77C
  8
0
 10
3121.2729714209140184
 20
149.4040206135360052
 30
0.0
 40
0.0698793173983337
 50
66.8499056706114487
 51
82.5191030391983134
  0
ARC
  5
2B77D
  8
0
 10
3120.9495796024989431
 20
148.4408537340509895
 30
0.0
 40
1.0856780494298659
 50
65.2370450880627999
 51
71.1451031683363055
  0
LINE
  5
2B77E
  8
0
 10
3121.5619473509900672
 20
149.5071599076995881
 30
0.0
 11
3121.5455065551582265
 21
149.4534527361421112
 31
0.0
  0
ARC
  5
2B77F
  8
0
 10
3121.5599797778568245
 20
149.4498034815555059
 30
0.0
 40
0.014926192895788
 50
165.8485028562351999
 51
235.3295567977970961
  0
ARC
  5
2B780
  8
0
 10
3121.750636727319943
 20
149.7879176266033028
 30
0.0
 40
0.4030297768911541
 50
240.3878162686091002
 51
256.4760414794719168
  0
ARC
  5
2B781
  8
0
 10
3121.6704873547669195
 20
149.4474572984804013
 30
0.0
 40
0.0532933838445729
 50
254.6584914620507902
 51
277.9164878718602836
  0
ARC
  5
2B782
  8
0
 10
3121.6741166602691919
 20
149.407666135554507
 30
0.0
 40
0.0135137845655614
 50
285.9376687762044185
 51
339.6628841598734994
  0
LINE
  5
2B783
  8
0
 10
3121.6867880494942256
 20
149.4029695124712021
 30
0.0
 11
3121.704669240748899
 21
149.4549840068085871
 31
0.0
  0
ARC
  5
2B784
  8
0
 10
3121.5742412013619287
 20
149.5214686412062122
 30
0.0
 40
0.0358152737720798
 50
205.9348462317940118
 51
240.807371634270396
  0
ARC
  5
2B785
  8
0
 10
3121.5540052678989014
 20
149.4768657903200051
 30
0.0
 40
0.0313178899606939
 50
75.3096086578270416
 51
112.4754802066144066
  0
ARC
  5
2B786
  8
0
 10
3121.24696268275693
 20
148.4242626832858036
 30
0.0
 40
1.1277773449857811
 50
66.0557008800557242
 51
73.781756550184312
  0
ARC
  5
2B787
  8
0
 10
3121.7030376266970961
 20
149.438348856684911
 30
0.0
 40
0.0167149747878723
 50
14.8688238900186604
 51
84.3982147602460344
  0
ARC
  5
2B788
  8
0
 10
3121.7179512655188773
 20
149.5684108170362094
 30
0.0
 40
0.1257789108012475
 50
262.1745554994577105
 51
270.5656148171589734
  0
LINE
  5
2B789
  8
0
 10
3121.5488871744159951
 20
149.4023774545134131
 30
0.0
 11
3121.5333838547530831
 21
149.3537811071595058
 31
0.0
  0
ARC
  5
2B78A
  8
0
 10
3121.5448122360180605
 20
149.3501351984106122
 30
0.0
 40
0.0119958554902538
 50
162.3061562093128884
 51
244.4357378100852998
  0
ARC
  5
2B78B
  8
0
 10
3121.806204466561212
 20
149.9665121586008922
 30
0.0
 40
0.6814959796618809
 50
246.9737821059358112
 51
254.50060005227499
  0
ARC
  5
2B78C
  8
0
 10
3121.6268593512590996
 20
149.3218346928040887
 30
0.0
 40
0.0123493636968546
 50
257.0386443481331753
 51
340.6238921083112245
  0
LINE
  5
2B78D
  8
0
 10
3121.6385092604041347
 20
149.3177375717891096
 30
0.0
 11
3121.6536879462719298
 21
149.3629738298247958
 31
0.0
  0
ARC
  5
2B78E
  8
0
 10
3121.4338258819511793
 20
149.2346080439496063
 30
0.0
 40
0.1937439617780352
 50
54.6920067449334866
 51
60.5243750825920799
  0
ARC
  5
2B78F
  8
0
 10
3121.5377469266381922
 20
149.3747695990234945
 30
0.0
 40
0.0297707709894075
 50
68.0250709625456267
 51
106.7673446380087938
  0
ARC
  5
2B790
  8
0
 10
3121.394208585861179
 20
148.8319132051472877
 30
0.0
 40
0.5910625394678415
 50
63.9595919189196422
 51
74.8292908172056457
  0
ARC
  5
2B791
  8
0
 10
3121.5826481587141643
 20
149.2585171723872008
 30
0.0
 40
0.1263243630474087
 50
47.0638137407664985
 51
55.7808246108320205
  0
ARC
  5
2B792
  8
0
 10
3121.6635350985411606
 20
149.4137572275787136
 30
0.0
 40
0.0629684091887515
 50
257.6500986792481172
 51
274.7032756770419724
  0
ARC
  5
2B793
  8
0
 10
3121.4768410158890219
 20
149.0223902053440099
 30
0.0
 40
0.3208943293903395
 50
66.5476349767615574
 51
74.9740000976710661
  0
ARC
  5
2B794
  8
0
 10
3121.6902708269972209
 20
149.6339302463208867
 30
0.0
 40
0.3285338842162156
 50
246.645776929333806
 51
254.8758581248692963
  0
LINE
  5
2B795
  8
0
 10
3121.4025635305151809
 20
149.4214117258698025
 30
0.0
 11
3121.5365167417908197
 21
149.3636013824321935
 31
0.0
  0
LINE
  5
2B796
  8
0
 10
3121.6439181355808614
 20
149.3338366911306139
 30
0.0
 11
3121.7354441067532207
 21
149.2985164623044056
 31
0.0
  0
LINE
  5
2B797
  8
0
 10
3121.9787336661502195
 20
149.2159786184591042
 30
0.0
 11
3121.929981295361813
 21
149.2317917233540072
 31
0.0
  0
ARC
  5
2B798
  8
0
 10
3121.713328628392901
 20
149.2227034872113904
 30
0.0
 40
0.0832748922946843
 50
73.6789858241953652
 51
87.9966122833421451
  0
LINE
  5
2B799
  8
0
 10
3121.7367304315771435
 20
149.302622591901212
 30
0.0
 11
3121.7229870969358672
 21
149.2587656865449048
 31
0.0
  0
ARC
  5
2B79A
  8
0
 10
3121.7355019131719018
 20
149.2558772836258925
 30
0.0
 40
0.0128438116169597
 50
167.0037818622188013
 51
253.0508187675409886
  0
ARC
  5
2B79B
  8
0
 10
3122.7209306918798575
 20
151.9075270075555864
 30
0.0
 40
2.8416573437713679
 50
249.6290227091882059
 51
253.2293278157708869
  0
ARC
  5
2B79C
  8
0
 10
3121.9059448741109009
 20
149.1975489669430885
 30
0.0
 40
0.0118952716207177
 50
245.4044474704938068
 51
341.3126131312080247
  0
LINE
  5
2B79D
  8
0
 10
3121.9172130369411207
 20
149.1937376688233883
 30
0.0
 11
3121.931031531023109
 21
149.2349218076481066
 31
0.0
  0
ARC
  5
2B79E
  8
0
 10
3121.8730849112789656
 20
149.1019710315443092
 30
0.0
 40
0.1450300644220798
 50
58.5609757716381623
 51
66.4500115973223586
  0
ARC
  5
2B79F
  8
0
 10
3121.6719965829947796
 20
148.6406007320263996
 30
0.0
 40
0.6483183208408383
 50
66.4500115973223586
 51
71.0028484029930382
  0
ARC
  5
2B7A0
  8
0
 10
3121.4440632281589387
 20
148.1456612247081068
 30
0.0
 40
1.1917404739148381
 50
68.3862577799849163
 51
73.7979068468694237
  0
ARC
  5
2B7A1
  8
0
 10
3121.4880095369330775
 20
148.4432755453723018
 30
0.0
 40
0.8946169178095008
 50
71.1813162238292705
 51
73.8579657930383462
  0
LINE
  5
2B7A2
  8
0
 10
3121.7858468560420988
 20
149.2873395107754959
 30
0.0
 11
3121.771993773793838
 21
149.2438851947462979
 31
0.0
  0
ARC
  5
2B7A3
  8
0
 10
3121.7850093206161546
 20
149.2397358844565929
 30
0.0
 40
0.0136609382897282
 50
162.3179024566277917
 51
222.1688176288446925
  0
LINE
  5
2B7A4
  8
0
 10
3121.8830379074061057
 20
149.2536082397529071
 30
0.0
 11
3121.8691029547521794
 21
149.2113723817693085
 31
0.0
  0
ARC
  5
2B7A5
  8
0
 10
3121.8562672359748831
 20
149.2156072935711109
 30
0.0
 40
0.0135162921869588
 50
281.1378517504767842
 51
341.7406339504969992
  0
ARC
  5
2B7A6
  8
0
 10
3129.4055737381700055
 20
169.4953119973652065
 30
0.0
 40
21.6507990606162686
 50
249.6004737652476138
 51
249.719338916118204
  0
ARC
  5
2B7A7
  8
0
 10
3135.3073020135439037
 20
194.136479230080198
 30
0.0
 40
46.9006125566578618
 50
253.1749005712719907
 51
253.2297954756743081
  0
LINE
  5
2B7A8
  8
0
 10
3121.8588829297300435
 20
149.2023441496507132
 30
0.0
 11
3121.7748842421578956
 21
149.2305650600019931
 31
0.0
  0
ARC
  5
2B7A9
  8
0
 10
3121.5883574464751291
 20
148.5355437160999941
 30
0.0
 40
0.7173628855821529
 50
69.2257343874761233
 51
73.6290239336769332
  0
ARC
  5
2B7AA
  8
0
 10
3122.0587683174708218
 20
149.93562884658229
 30
0.0
 40
0.7606665084014484
 50
249.3529198936799105
 51
253.5054242616934914
  0
ARC
  5
2B7AB
  8
0
 10
3121.7822897801070212
 20
149.2377546839360036
 30
0.0
 40
0.0153511987499472
 50
250.8392239692572048
 51
291.1491105582758223
  0
ARC
  5
2B7AC
  8
0
 10
3123.2877955965359433
 20
153.8802737276270136
 30
0.0
 40
4.8958735501516841
 50
249.9671020303462967
 51
252.0290837429010935
  0
ARC
  5
2B7AD
  8
0
 10
3121.615665786342106
 20
149.2952676683835023
 30
0.0
 40
0.0154774609954966
 50
175.7019589994204125
 51
251.1569618039814884
  0
LINE
  5
2B7AE
  8
0
 10
3121.6002318526639101
 20
149.2964276210026924
 30
0.0
 11
3121.6060464216729997
 21
149.3150725778552044
 31
0.0
  0
LINE
  5
2B7AF
  8
0
 10
3121.4925960626242158
 20
149.3825562811053089
 30
0.0
 11
3121.4789331787219453
 21
149.3389404856984015
 31
0.0
  0
ARC
  5
2B7B0
  8
0
 10
3121.4932564668060877
 20
149.3370717467346083
 30
0.0
 40
0.0144446795354206
 50
172.5666883510625951
 51
253.2108247940871024
  0
LINE
  5
2B7B1
  8
0
 10
3121.4890841077308323
 20
149.3232427848562054
 30
0.0
 11
3121.6080799905739696
 21
149.2817766528015113
 31
0.0
  0
LINE
  5
2B7B2
  8
0
 10
3121.5343593921002139
 20
149.3442497415070989
 30
0.0
 11
3121.5272405039240766
 21
149.3219527734686949
 31
0.0
  0
ARC
  5
2B7B3
  8
0
 10
3121.5441828849147896
 20
149.316543476765986
 30
0.0
 40
0.0177849589384062
 50
162.2929619372989976
 51
191.4255726808337954
  0
ARC
  5
2B7B4
  8
0
 10
3121.5324448322721764
 20
149.3141712176775968
 30
0.0
 40
0.0058095886725225
 50
191.4255726808464999
 51
239.7411573417635964
  0
LINE
  5
2B7B5
  8
0
 10
3121.6634919156467731
 20
149.3262830931508915
 30
0.0
 11
3121.6488816273440534
 21
149.280456188227987
 31
0.0
  0
ARC
  5
2B7B6
  8
0
 10
3121.6629234746001202
 20
149.2759794417171975
 30
0.0
 40
0.0147382065967087
 50
162.3169569500684872
 51
224.8078252747014858
  0
ARC
  5
2B7B7
  8
0
 10
3121.2667068420109899
 20
148.0122273472217955
 30
0.0
 40
1.311566642090499
 50
69.7859653884630404
 51
72.1939733590167521
  0
ARC
  5
2B7B8
  8
0
 10
3122.1205288361070416
 20
150.4904969600449078
 30
0.0
 40
1.3102400383217421
 50
249.7847461677974081
 51
252.1951925796846865
  0
ARC
  5
2B7B9
  8
0
 10
3121.5812322839638
 20
149.3295030991671979
 30
0.0
 40
0.0956238928823525
 50
56.0369858592876824
 51
84.4938970101127467
  0
ARC
  5
2B7BA
  8
0
 10
3121.669473219829797
 20
149.574156037168791
 30
0.0
 40
0.1690938637382989
 50
242.1223912184057099
 51
258.0764330665384136
  0
ARC
  5
2B7BB
  8
0
 10
3121.0260627032339471
 20
149.3168437035228067
 30
0.0
 40
0.2129917712194244
 50
62.0502500870732874
 51
74.7846084542377554
  0
ARC
  5
2B7BC
  8
0
 10
3121.1821703575537867
 20
149.711477283736599
 30
0.0
 40
0.2140176304972405
 50
242.0808916794032939
 51
254.7539630437132985
  0
ARC
  5
2B7BD
  8
0
 10
3120.6950436619490574
 20
149.1950749739741866
 30
0.0
 40
0.4312193575904755
 50
64.3565848797864533
 51
70.6369357173146142
  0
ARC
  5
2B7BE
  8
0
 10
3121.0250296410599731
 20
149.991537278317594
 30
0.0
 40
0.4321909263001938
 50
244.3602499558654131
 51
250.6265282340368969
  0
LINE
  5
2B7BF
  8
0
 10
3121.8031430757700946
 20
149.3544711289414977
 30
0.0
 11
3121.7875816346290776
 21
149.3050268517532118
 31
0.0
  0
ARC
  5
2B7C0
  8
0
 10
3121.7994330517999515
 20
149.3012968926713882
 30
0.0
 40
0.0124245194558676
 50
162.5298119004530975
 51
234.9490800993339974
  0
ARC
  5
2B7C1
  8
0
 10
3121.9434115518702129
 20
149.5848640470294129
 30
0.0
 40
0.3303296343388249
 50
242.7764078449457941
 51
258.574181578789819
  0
ARC
  5
2B7C2
  8
0
 10
3121.8789311307727985
 20
149.2763073359975863
 30
0.0
 40
0.0152565331274862
 50
266.4015093244194077
 51
334.5977799025599779
  0
LINE
  5
2B7C3
  8
0
 10
3121.8927126420139757
 20
149.2697627389142951
 30
0.0
 11
3121.9088879139371784
 21
149.317729612701811
 31
0.0
  0
ARC
  5
2B7C4
  8
0
 10
3121.6961301102310244
 20
148.8759382476285111
 30
0.0
 40
0.4903524174418737
 50
64.2854726298645005
 51
77.394504379835368
  0
ARC
  5
2B7C5
  8
0
 10
3121.8881330352101031
 20
149.2746321279315111
 30
0.0
 40
0.0478346964506468
 50
40.2166599640935729
 51
64.2854726298645005
  0
ARC
  5
2B7C6
  8
0
 10
3121.9184935721568763
 20
149.3714825935489046
 30
0.0
 40
0.066252166124153
 50
258.3649609078109961
 51
275.3405472468083985
  0
ARC
  5
2B7C7
  8
0
 10
3121.857485040247866
 20
149.4480155134054939
 30
0.0
 40
0.1187783990412766
 50
232.2984431863027908
 51
240.9944513945347069
  0
ARC
  5
2B7C8
  8
0
 10
3121.7946992337119809
 20
149.3245448386354042
 30
0.0
 40
0.0310947154527139
 50
74.2433354218940735
 51
108.4736775140730032
  0
LINE
  5
2B7C9
  8
0
 10
3121.6473038736130547
 20
149.3660458673950018
 30
0.0
 11
3121.7981176071571099
 21
149.3385034135602041
 31
0.0
  0
LINE
  5
2B7CA
  8
0
 10
3121.6495458744138887
 20
149.3506847966272915
 30
0.0
 11
3121.7767186245878293
 21
149.2900325562229114
 31
0.0
  0
LINE
  5
2B7CB
  8
0
 10
3121.6767296255270594
 20
149.3945307567705072
 30
0.0
 11
3121.7848473587368971
 21
149.3540400918523119
 31
0.0
  0
LINE
  5
2B7CC
  8
0
 10
3121.819428519856956
 20
149.350535967255297
 30
0.0
 11
3121.6963683609878899
 21
149.4308364790367136
 31
0.0
  0
LINE
  5
2B7CD
  8
0
 10
3121.7191929147420524
 20
149.4426380349665067
 30
0.0
 11
3122.0265230891291139
 21
149.3352580253848885
 31
0.0
  0
LINE
  5
2B7CE
  8
0
 10
3121.5548496066389816
 20
149.483901789863495
 30
0.0
 11
3121.4129988050331121
 21
149.5030812176919994
 31
0.0
  0
LINE
  5
2B7CF
  8
0
 10
3121.4212200609281354
 20
149.4797167420657047
 30
0.0
 11
3121.5551932856387793
 21
149.4006300520929074
 31
0.0
  0
LINE
  5
2B7D0
  8
0
 10
3121.5465318359811135
 20
149.4433270555612125
 30
0.0
 11
3121.4455844963590607
 21
149.4814108790482123
 31
0.0
  0
LINE
  5
2B7D1
  8
0
 10
3121.4109638535819613
 20
149.4498805845983895
 30
0.0
 11
3121.5291582287641177
 21
149.4032747354042954
 31
0.0
  0
LINE
  5
2B7D2
  8
0
 10
3121.5448439654860522
 20
149.3897037052853136
 30
0.0
 11
3121.393613658526192
 21
149.4315759878143126
 31
0.0
  0
LINE
  5
2B7D3
  8
0
 10
3121.4201130662318064
 20
149.4175223193180102
 30
0.0
 11
3121.5394864515069457
 21
149.3729101658437912
 31
0.0
  0
LINE
  5
2B7D4
  8
0
 10
3121.3176551115170696
 20
149.5210676102603031
 30
0.0
 11
3121.1605318456158784
 21
149.5568955402393101
 31
0.0
  0
LINE
  5
2B7D5
  8
0
 10
3121.1890275075011232
 20
149.5389033977907047
 30
0.0
 11
3121.3084791021988167
 21
149.49096288769789
 31
0.0
  0
LINE
  5
2B7D6
  8
0
 10
3121.3113802145339832
 20
149.4644733626948891
 30
0.0
 11
3121.1709025253480831
 21
149.5393223072790931
 31
0.0
  0
LINE
  5
2B7D7
  8
0
 10
3121.2820694024158001
 20
149.4733051409043014
 30
0.0
 11
3121.1652524389278369
 21
149.5223890975111942
 31
0.0
  0
LINE
  5
2B7D8
  8
0
 10
3120.9840829243780718
 20
149.6745430587930912
 30
0.0
 11
3121.2987482249391178
 21
149.5400303342744053
 31
0.0
  0
LINE
  5
2B7D9
  8
0
 10
3121.3355277430009664
 20
149.532913397992786
 30
0.0
 11
3121.132021813054962
 21
149.6680309905079866
 31
0.0
  0
LINE
  5
2B7DA
  8
0
 10
3121.100564089747877
 20
149.6782348812986072
 30
0.0
 11
3120.9432431022592027
 21
149.7010721546047876
 31
0.0
  0
LINE
  5
2B7DB
  8
0
 10
3120.8105385374028629
 20
149.7481992101388073
 30
0.0
 11
3120.6309237649070383
 21
149.8305713532930952
 31
0.0
  0
LINE
  5
2B7DC
  8
0
 10
3120.6088401591077854
 20
149.8039546109006039
 30
0.0
 11
3120.5120087879031416
 21
149.8691583961507945
 31
0.0
  0
LINE
  5
2B7DD
  8
0
 10
3120.5794118073581558
 20
149.806229082978092
 30
0.0
 11
3120.4572977583320608
 21
149.8524488328021107
 31
0.0
  0
LINE
  5
2B7DE
  8
0
 10
3120.3547525730018606
 20
149.9201539458136097
 30
0.0
 11
3120.5632786137148287
 21
149.818770402584704
 31
0.0
  0
LINE
  5
2B7DF
  8
0
 10
3120.7355052679731671
 20
149.7409471857259859
 30
0.0
 11
3120.8170861243820582
 21
149.703767602593814
 31
0.0
  0
LINE
  5
2B7E0
  8
0
 10
3120.8254740313627735
 20
149.731241977372207
 30
0.0
 11
3120.6987607311261854
 21
149.7660617091036102
 31
0.0
  0
LINE
  5
2B7E1
  8
0
 10
3120.7172544915852086
 20
149.7397501350222058
 30
0.0
 11
3120.8195762813261354
 21
149.6790680258521036
 31
0.0
  0
LINE
  5
2B7E2
  8
0
 10
3120.9639197337660335
 20
149.6684078224554924
 30
0.0
 11
3121.0861052667369222
 21
149.5886807412462076
 31
0.0
  0
LINE
  5
2B7E3
  8
0
 10
3121.0523174842392109
 20
149.5970657433697966
 30
0.0
 11
3120.9543844850759342
 21
149.6410764071115977
 31
0.0
  0
LINE
  5
2B7E4
  8
0
 10
3121.067621348252942
 20
149.5828892634874023
 30
0.0
 11
3120.9291111241168437
 21
149.6253448393721044
 31
0.0
  0
ARC
  5
2B7E5
  8
0
 10
3124.0805968215859139
 20
148.7260343410609096
 30
0.0
 40
0.0201085664598477
 50
269.8959446376964024
 51
302.0756974496363227
  0
LINE
  5
2B7E6
  8
0
 10
3124.0805603022640753
 20
148.7059258077626112
 30
0.0
 11
3123.899768584875801
 21
148.7379639197818904
 31
0.0
  0
LINE
  5
2B7E7
  8
0
 10
3123.9030991374102086
 20
148.7476641006493026
 30
0.0
 11
3123.8868272489849005
 21
148.7002724859013085
 31
0.0
  0
ARC
  5
2B7E8
  8
0
 10
3123.8752443463617965
 20
148.7044616448625902
 30
0.0
 40
0.0123171703722501
 50
265.4410110731120085
 51
340.1165914578942875
  0
ARC
  5
2B7E9
  8
0
 10
3124.0581345387508918
 20
149.9655692113433076
 30
0.0
 40
1.2865920881172519
 50
256.0946282463615944
 51
261.7836235529086935
  0
ARC
  5
2B7EA
  8
0
 10
3123.752787626880945
 20
148.7295581165568876
 30
0.0
 40
0.0134380931365687
 50
168.6309588535912098
 51
253.3707646890574949
  0
LINE
  5
2B7EB
  8
0
 10
3123.7396132182598194
 20
148.7322071361132032
 30
0.0
 11
3123.7539467937699555
 21
148.7793249816037928
 31
0.0
  0
ARC
  5
2B7EC
  8
0
 10
3123.7650663776748843
 20
148.4800159280381138
 30
0.0
 40
0.2306480829189899
 50
72.9646499710896421
 51
84.7195952394346108
  0
ARC
  5
2B7ED
  8
0
 10
3123.8627544459582168
 20
148.975409597131403
 30
0.0
 40
0.2765104971877899
 50
253.9471013395734929
 51
263.7470424565726717
  0
ARC
  5
2B7EE
  8
0
 10
3123.9655825219219878
 20
149.0774195148364072
 30
0.0
 40
0.3376210259740069
 50
259.2215870025581239
 51
262.585614032959711
  0
ARC
  5
2B7EF
  8
0
 10
3123.8777668511529555
 20
148.6146452992674085
 30
0.0
 40
0.1354094762121615
 50
70.9272668348601343
 51
79.217625913145838
  0
ARC
  5
2B7F0
  8
0
 10
3123.6089991502399243
 20
147.7293321755350064
 30
0.0
 40
1.0599503347611341
 50
73.8909851055044555
 51
82.1402047129853372
  0
ARC
  5
2B7F1
  8
0
 10
3123.7464321571201253
 20
148.7472520137621927
 30
0.0
 40
0.0329415395833086
 50
76.8135639053463422
 51
107.4003915614494957
  0
ARC
  5
2B7F2
  8
0
 10
3123.7143445165061166
 20
148.6335141988585065
 30
0.0
 40
0.1468649118390329
 50
74.855528539704963
 51
81.2913991974457844
  0
LINE
  5
2B7F3
  8
0
 10
3123.6573311497600116
 20
148.819658695693505
 30
0.0
 11
3123.6394417697711106
 21
148.7675561627991101
 31
0.0
  0
ARC
  5
2B7F4
  8
0
 10
3123.6271003477158956
 20
148.7722659236297886
 30
0.0
 40
0.0132095626504115
 50
266.080303824218106
 51
339.1120345571465009
  0
ARC
  5
2B7F5
  8
0
 10
3123.6910376517471377
 20
149.39108841068321
 30
0.0
 40
0.6353185947932147
 50
253.2044222410349903
 51
264.1422230152570023
  0
ARC
  5
2B7F6
  8
0
 10
3123.522729597631951
 20
148.8334696996928983
 30
0.0
 40
0.0528529495176148
 50
244.5535215916113998
 51
253.2044222410345071
  0
ARC
  5
2B7F7
  8
0
 10
3123.5059729901290666
 20
148.7982541210508032
 30
0.0
 40
0.0138539639656176
 50
168.3846285946127921
 51
244.5535215916121103
  0
LINE
  5
2B7F8
  8
0
 10
3123.4924027377678613
 20
148.8010434880744128
 30
0.0
 11
3123.5074565670861375
 21
148.8504383952815999
 31
0.0
  0
ARC
  5
2B7F9
  8
0
 10
3123.6477377321912172
 20
148.6752925090096085
 30
0.0
 40
0.1376137585549221
 50
78.8671549851947731
 51
86.9966937138913892
  0
ARC
  5
2B7FA
  8
0
 10
3123.6461965066728226
 20
148.7793251047800993
 30
0.0
 40
0.041842309121735
 50
47.7889752718639897
 51
74.5670999858494952
  0
ARC
  5
2B7FB
  8
0
 10
3123.6047872776662189
 20
148.6193394707316031
 30
0.0
 40
0.2070957517284012
 50
75.3023797754475908
 51
83.3639252007190237
  0
ARC
  5
2B7FC
  8
0
 10
3123.444012020073842
 20
148.2451681249555122
 30
0.0
 40
0.6085863214269891
 50
72.3318763054713969
 51
84.0160970382238332
  0
ARC
  5
2B7FD
  8
0
 10
3123.5147570210560843
 20
148.706711728411193
 30
0.0
 40
0.1439119570593732
 50
92.9077834837400616
 51
100.2380502313337018
  0
ARC
  5
2B7FE
  8
0
 10
3123.5876618496708943
 20
149.0727094628487066
 30
0.0
 40
0.2450390075613203
 50
246.3023973068679027
 51
250.2615459305860952
  0
ARC
  5
2B7FF
  8
0
 10
3123.523474866727156
 20
148.5888196642949879
 30
0.0
 40
0.1898772028814662
 50
70.9621074843707333
 51
85.2549485389889838
  0
ARC
  5
2B800
  8
0
 10
3123.6019044847580517
 20
148.9615265592173898
 30
0.0
 40
0.1939051386373303
 50
251.127070396730403
 51
265.1217585307917943
  0
LINE
  5
2B801
  8
0
 10
3123.6163076114357864
 20
148.7601802256315011
 30
0.0
 11
3123.6094973451968144
 21
148.7400180781162078
 31
0.0
  0
ARC
  5
2B802
  8
0
 10
3123.5983688065089154
 20
148.7437770185393902
 30
0.0
 40
0.0117462337132183
 50
256.5639112736052994
 51
341.3363253083177824
  0
LINE
  5
2B803
  8
0
 10
3123.5956394448649007
 20
148.7323522825921032
 30
0.0
 11
3123.5112309733967777
 21
148.7520725350227906
 31
0.0
  0
ARC
  5
2B804
  8
0
 10
3123.5139946902459087
 20
148.7636137583837979
 30
0.0
 40
0.0118678099262974
 50
163.3421561287727002
 51
256.5330593956119856
  0
LINE
  5
2B805
  8
0
 10
3123.502624928808018
 20
148.7670157338826868
 30
0.0
 11
3123.5074573199281076
 21
148.7828713617118126
 31
0.0
  0
LINE
  5
2B806
  8
0
 10
3123.4158283757778918
 20
148.9083428832045115
 30
0.0
 11
3123.3979618412568016
 21
148.8563746990606944
 31
0.0
  0
ARC
  5
2B807
  8
0
 10
3123.3851563439247911
 20
148.8612436278446864
 30
0.0
 40
0.0136997506120099
 50
268.7745000546560163
 51
339.1848884542372957
  0
ARC
  5
2B808
  8
0
 10
3123.3891399995491156
 20
149.047463013071706
 30
0.0
 40
0.1999617406863832
 50
256.370547908867195
 51
268.7745000546560163
  0
ARC
  5
2B809
  8
0
 10
3123.4763796098832245
 20
149.5227318688239109
 30
0.0
 40
0.6829465916141352
 50
253.2346449872190988
 51
258.6539527606819888
  0
ARC
  5
2B80A
  8
0
 10
3123.349694094455117
 20
149.0829448187733988
 30
0.0
 40
0.2253788107607707
 50
246.8852205395623116
 51
251.8217484360187086
  0
ARC
  5
2B80B
  8
0
 10
3123.2686113894760638
 20
148.890292413892297
 30
0.0
 40
0.0163956046929684
 50
171.3461190769241114
 51
243.1889191365370948
  0
LINE
  5
2B80C
  8
0
 10
3123.2524024434819694
 20
148.8927593802445131
 30
0.0
 11
3123.2672117295528551
 21
148.9421587574626926
 31
0.0
  0
ARC
  5
2B80D
  8
0
 10
3123.4419980127818235
 20
149.4025569933228041
 30
0.0
 40
0.5044187430616476
 50
266.6605063033990177
 51
268.9402376134033261
  0
ARC
  5
2B80E
  8
0
 10
3123.4045826247520381
 20
148.8705532017469011
 30
0.0
 40
0.0394274896588671
 50
44.5738786333212929
 51
73.427632952225224
  0
ARC
  5
2B80F
  8
0
 10
3123.1825000088051638
 20
148.226385319827699
 30
0.0
 40
0.7207692037544077
 50
71.1118747126273831
 51
83.2496769815846278
  0
ARC
  5
2B810
  8
0
 10
3123.2598950616270486
 20
148.922247678809498
 30
0.0
 40
0.0212154702447798
 50
69.7980530836821202
 51
121.1546382010879057
  0
ARC
  5
2B811
  8
0
 10
3123.2164010352171317
 20
148.8493340091108905
 30
0.0
 40
0.0966850704282208
 50
60.1503380154870015
 51
70.348719075812113
  0
ARC
  5
2B812
  8
0
 10
3123.2920856718451432
 20
148.7376706577184962
 30
0.0
 40
0.1310694606662944
 50
66.5223641229777201
 51
87.28686459883032
  0
ARC
  5
2B813
  8
0
 10
3123.3517246949541004
 20
148.9940476214792113
 30
0.0
 40
0.136360147314634
 50
246.9293949506599972
 51
266.8798337711328941
  0
LINE
  5
2B814
  8
0
 10
3123.3755894457458453
 20
148.8479609323057105
 30
0.0
 11
3123.3591425529780281
 21
148.7987129531225889
 31
0.0
  0
ARC
  5
2B815
  8
0
 10
3123.3477657716989597
 20
148.8025123516937924
 30
0.0
 40
0.0119944396193429
 50
260.59619174885961
 51
341.5327030381303075
  0
ARC
  5
2B816
  8
0
 10
3123.5182064601249294
 20
149.7049118908223875
 30
0.0
 40
0.9303459128880607
 50
253.8261662211886005
 51
259.320913897743992
  0
ARC
  5
2B817
  8
0
 10
3123.2625948081431488
 20
148.8226458427436114
 30
0.0
 40
0.0118007275735523
 50
161.8036190230453997
 51
252.5508883700452998
  0
LINE
  5
2B818
  8
0
 10
3123.251384213973779
 20
148.826330913931514
 30
0.0
 11
3123.2661871146501653
 21
148.8734396945590106
 31
0.0
  0
ARC
  5
2B819
  8
0
 10
3122.6621048967072056
 20
142.7128903617077071
 30
0.0
 40
6.1486171984598537
 50
79.8138713678332294
 51
80.8054561946332655
  0
ARC
  5
2B81A
  8
0
 10
3122.7795057556268148
 20
145.6722183335241994
 30
0.0
 40
3.219263521975301
 50
77.1512683057620876
 51
79.3985725836978276
  0
ARC
  5
2B81B
  8
0
 10
3123.7213432132689377
 20
151.5969351735429029
 30
0.0
 40
2.776911420109291
 50
257.4488509981359812
 51
260.4671812343325996
  0
LINE
  5
2B81C
  8
0
 10
3123.1312341085022126
 20
148.9263365256209113
 30
0.0
 11
3123.114804571986042
 21
148.877138289376802
 31
0.0
  0
ARC
  5
2B81D
  8
0
 10
3123.1031314307688262
 20
148.8810364839974909
 30
0.0
 40
0.0123068333528953
 50
261.5075938483026903
 51
341.5334826231210172
  0
ARC
  5
2B81E
  8
0
 10
3123.1776143793940719
 20
149.3455280000123082
 30
0.0
 40
0.4827315589979681
 50
250.1969676162626968
 51
260.9057083280775942
  0
ARC
  5
2B81F
  8
0
 10
3123.0193460403761492
 20
148.9025486261000992
 30
0.0
 40
0.0123844806741292
 50
163.454025285259803
 51
244.789119627270793
  0
LINE
  5
2B820
  8
0
 10
3123.0074743821051015
 20
148.906075535721186
 30
0.0
 11
3123.0216706446958597
 21
148.9512425166331866
 31
0.0
  0
ARC
  5
2B821
  8
0
 10
3123.0133563529298044
 20
148.9181942059061043
 30
0.0
 40
0.0340781203924899
 50
75.8785897270975198
 51
107.0395042629132973
  0
ARC
  5
2B822
  8
0
 10
3122.9613983552189893
 20
148.8456832118297939
 30
0.0
 40
0.1131646180874467
 50
59.3485187766037967
 51
68.229250720036589
  0
ARC
  5
2B823
  8
0
 10
3122.8806111929998224
 20
148.0772683545835946
 30
0.0
 40
0.8852844767886466
 50
73.5547657076674142
 51
80.8315269367752904
  0
ARC
  5
2B824
  8
0
 10
3123.1165653934767761
 20
148.8766413929459986
 30
0.0
 40
0.0518148377594578
 50
52.3656011781663793
 51
73.5547657076674142
  0
ARC
  5
2B825
  8
0
 10
3123.165116799198131
 20
149.7941837240574898
 30
0.0
 40
0.8766721044293689
 50
267.6080650242200818
 51
268.8946182572947805
  0
LINE
  5
2B826
  8
0
 10
3123.118192475476917
 20
148.8863178596025136
 30
0.0
 11
3123.1049464025131783
 21
148.8454543755424027
 31
0.0
  0
ARC
  5
2B827
  8
0
 10
3123.0938174573630022
 20
148.8490618706661053
 30
0.0
 40
0.0116990359105991
 50
252.2293573726045111
 51
342.0396766148720076
  0
LINE
  5
2B828
  8
0
 10
3123.0902468249109916
 20
148.8379210437157951
 30
0.0
 11
3123.0053728417069578
 21
148.8613787547315894
 31
0.0
  0
ARC
  5
2B829
  8
0
 10
3123.0089764470681075
 20
148.8726522701774115
 30
0.0
 40
0.0118354603671601
 50
162.627582124834305
 51
252.2734004337191891
  0
LINE
  5
2B82A
  8
0
 10
3122.9976808709789111
 20
148.8761861183542123
 30
0.0
 11
3123.0098250624678258
 21
148.9150037562737054
 31
0.0
  0
LINE
  5
2B82B
  8
0
 10
3123.0102443140290234
 20
148.9148883807588106
 30
0.0
 11
3123.0098250624678258
 21
148.9150037562737054
 31
0.0
  0
LINE
  5
2B82C
  8
0
 10
3123.0098250624678258
 20
148.9150037562737054
 30
0.0
 11
3122.8696977595182034
 21
148.9529227758025911
 31
0.0
  0
LINE
  5
2B82D
  8
0
 10
3122.8941056443591151
 20
149.0274030971114883
 30
0.0
 11
3122.8763095379867991
 21
148.9756286677805122
 31
0.0
  0
ARC
  5
2B82E
  8
0
 10
3122.8643264995121172
 20
148.9800353276719136
 30
0.0
 40
0.0127676098976125
 50
266.943102711461222
 51
339.8094331005265758
  0
ARC
  5
2B82F
  8
0
 10
3122.9185487001232104
 20
149.3349645080751884
 30
0.0
 40
0.371755183519683
 50
247.7253198809603987
 51
261.5071446083384785
  0
ARC
  5
2B830
  8
0
 10
3122.7836277661090207
 20
149.0029741911602912
 30
0.0
 40
0.0134337906346608
 50
166.6531606516564921
 51
243.5108606405921989
  0
LINE
  5
2B831
  8
0
 10
3122.7705568156870868
 20
149.0060753177133108
 30
0.0
 11
3122.7857683526808614
 21
149.055986110786705
 31
0.0
  0
ARC
  5
2B832
  8
0
 10
3122.8010092309668835
 20
149.1039016572777882
 30
0.0
 40
0.0628538904146217
 50
231.4638524351724129
 51
252.4883072797260866
  0
ARC
  5
2B833
  8
0
 10
3122.7767201932088028
 20
148.9996564299501074
 30
0.0
 40
0.0570517496010976
 50
80.8746077128830052
 51
105.1075070074815017
  0
ARC
  5
2B834
  8
0
 10
3122.6746840964729017
 20
148.4153417618136928
 30
0.0
 40
0.6502037325664145
 50
70.2774457326182613
 51
80.1630293913961793
  0
ARC
  5
2B835
  8
0
 10
3122.8635759427320409
 20
148.9454606509499115
 30
0.0
 40
0.0874449950793211
 50
53.8365557098237701
 51
69.5658674111079876
  0
ARC
  5
2B836
  8
0
 10
3122.9021864739679586
 20
149.1511122005389041
 30
0.0
 40
0.1356772429293605
 50
264.9157038588090245
 51
275.4940007544614105
  0
ARC
  5
2B837
  8
0
 10
3122.7804080213832094
 20
148.8391889087313018
 30
0.0
 40
0.147857073674835
 50
65.1611413405159112
 51
83.5346622685342055
  0
ARC
  5
2B838
  8
0
 10
3122.8645357264281301
 20
149.1394461179413042
 30
0.0
 40
0.167531119830457
 50
246.2477301489689978
 51
262.4480705025279121
  0
LINE
  5
2B839
  8
0
 10
3122.8717058535248725
 20
148.958941827286111
 30
0.0
 11
3122.856842290044824
 21
148.9143898523763028
 31
0.0
  0
ARC
  5
2B83A
  8
0
 10
3122.8455381404141917
 20
148.9181611766773017
 30
0.0
 40
0.0119166558174044
 50
259.5633894018956767
 51
341.5501155175915073
  0
ARC
  5
2B83B
  8
0
 10
3123.1050083885679669
 20
149.9973773273690085
 30
0.0
 40
1.1218691096086599
 50
251.9658638544723885
 51
256.513982291528805
  0
ARC
  5
2B83C
  8
0
 10
3122.762084985401998
 20
148.9420068097439014
 30
0.0
 40
0.0122004074718378
 50
163.6724468458428134
 51
248.9164567440830069
  0
LINE
  5
2B83D
  8
0
 10
3122.7503766177978832
 20
148.9454366888278969
 30
0.0
 11
3122.7631856621460429
 21
148.9862238930384137
 31
0.0
  0
ARC
  5
2B83E
  8
0
 10
3122.7500295746031043
 20
148.9465691645480945
 30
0.0
 40
0.0417801403334381
 50
71.6459146158605193
 51
96.8859287914143152
  0
ARC
  5
2B83F
  8
0
 10
3122.6245373196588844
 20
148.5749491488851106
 30
0.0
 40
0.4303101067680407
 50
71.3599191618508542
 51
73.740311574647464
  0
ARC
  5
2B840
  8
0
 10
3122.8416358520089489
 20
148.5998340796170112
 30
0.0
 40
0.3556439847855164
 50
82.2592059880829254
 51
85.3984329006666059
  0
ARC
  5
2B841
  8
0
 10
3122.8562592202301857
 20
148.8907911081419115
 30
0.0
 40
0.0698793173983337
 50
61.5602501905589108
 51
77.2294475591771743
  0
ARC
  5
2B842
  8
0
 10
3122.5530961625140662
 20
147.9210669894405896
 30
0.0
 40
1.0856780494298659
 50
72.9342500614169325
 51
78.8423081417028726
  0
LINE
  5
2B843
  8
0
 10
3122.6827458936959374
 20
149.143848271010512
 30
0.0
 11
3122.6645520721522189
 21
149.0907093502277974
 31
0.0
  0
ARC
  5
2B844
  8
0
 10
3122.6506903309741574
 20
149.0962449952552049
 30
0.0
 40
0.014926192895788
 50
268.7497964319578045
 51
338.2308503735304726
  0
ARC
  5
2B845
  8
0
 10
3122.6946500303770335
 20
149.4819116807335888
 30
0.0
 40
0.4030297768911541
 50
247.6033117503006054
 51
263.6915369611468805
  0
ARC
  5
2B846
  8
0
 10
3122.5598215266782063
 20
149.1591758266108059
 30
0.0
 40
0.0532933838445729
 50
226.1628653578970045
 51
249.4208617677169002
  0
ARC
  5
2B847
  8
0
 10
3122.5335383535839355
 20
149.1290809214351043
 30
0.0
 40
0.0135137845655614
 50
164.4164690698893878
 51
218.1416844535571045
  0
LINE
  5
2B848
  8
0
 10
3122.5205213381009344
 20
149.1327113045020099
 30
0.0
 11
3122.5365556506449138
 21
149.1853244724655099
 31
0.0
  0
ARC
  5
2B849
  8
0
 10
3122.6811843833188505
 20
149.1626482789064028
 30
0.0
 40
0.0358152737720798
 50
263.2719815954839078
 51
298.1445069979699269
  0
ARC
  5
2B84A
  8
0
 10
3122.671405158359903
 20
149.1146558412781076
 30
0.0
 40
0.0313178899606939
 50
31.6038730231568401
 51
68.7697445719441731
  0
ARC
  5
2B84B
  8
0
 10
3122.3025329616639283
 20
148.0820950670216121
 30
0.0
 40
1.1277773449857811
 50
70.2975966795801952
 51
78.0236523497032692
  0
ARC
  5
2B84C
  8
0
 10
3122.5281177337401459
 20
149.1708956144944977
 30
0.0
 40
0.0167149747878723
 50
59.6811384695208176
 51
129.2105293397461026
  0
ARC
  5
2B84D
  8
0
 10
3122.5923429159302032
 20
149.2849730273588023
 30
0.0
 40
0.1257789108012475
 50
233.5137384126047095
 51
241.9047977302986112
  0
LINE
  5
2B84E
  8
0
 10
3122.6318503040070027
 20
149.0513303286527957
 30
0.0
 11
3122.6158956235672122
 21
149.0028802918234874
 31
0.0
  0
ARC
  5
2B84F
  8
0
 10
3122.6045016500820566
 20
149.0066323468844018
 30
0.0
 40
0.0119958554902538
 50
259.6436154196700841
 51
341.7731970204545178
  0
ARC
  5
2B850
  8
0
 10
3122.7544246141060285
 20
149.6591425461151914
 30
0.0
 40
0.6814959796618809
 50
249.5787531774793138
 51
257.105571123837592
  0
ARC
  5
2B851
  8
0
 10
3122.5214545172070757
 20
149.0318478472374863
 30
0.0
 40
0.0123493636968546
 50
163.4554611214504973
 51
247.0407088816353962
  0
LINE
  5
2B852
  8
0
 10
3122.5096164336428046
 20
149.035364459421487
 30
0.0
 11
3122.5238627681819708
 21
149.0809029431243005
 31
0.0
  0
ARC
  5
2B853
  8
0
 10
3122.6266061129381342
 20
148.8479632354328999
 30
0.0
 40
0.1937439617780352
 50
83.5549781471800941
 51
89.3873464848324915
  0
ARC
  5
2B854
  8
0
 10
3122.6246754730318571
 20
149.0224370663623006
 30
0.0
 40
0.0297707709894075
 50
37.3120085917446218
 51
76.0542822672138215
  0
ARC
  5
2B855
  8
0
 10
3122.4224427454619217
 20
148.4986067087610024
 30
0.0
 40
0.5910625394678415
 50
69.2500624125711539
 51
80.1197613108484319
  0
ARC
  5
2B856
  8
0
 10
3122.5201119561570522
 20
148.9546342767478109
 30
0.0
 40
0.1263243630474087
 50
88.2985286189313143
 51
97.0155394889953016
  0
ARC
  5
2B857
  8
0
 10
3122.5456810484997732
 20
149.1278058485694089
 30
0.0
 40
0.0629684091887515
 50
229.3760775527202895
 51
246.4292545505280998
  0
ARC
  5
2B858
  8
0
 10
3122.4672705418502119
 20
148.7013382424877932
 30
0.0
 40
0.3208943293903395
 50
69.1053531321110484
 51
77.5317182529962707
  0
ARC
  5
2B859
  8
0
 10
3122.6531972782890989
 20
149.3217935226365967
 30
0.0
 40
0.3285338842162156
 50
249.2034951049134861
 51
257.4335763004203272
  0
LINE
  5
2B85A
  8
0
 10
3122.7615143483881184
 20
148.9809020115826002
 30
0.0
 11
3122.6191197208981976
 21
149.0126710008900091
 31
0.0
  0
LINE
  5
2B85B
  8
0
 10
3122.5146809400112033
 20
149.0515752073837916
 30
0.0
 11
3122.419839322072221
 21
149.0766668288999028
 31
0.0
  0
LINE
  5
2B85C
  8
0
 10
3122.1743669411121118
 20
149.1525632509959962
 30
0.0
 11
3122.223152197987929
 21
149.1367591225748015
 31
0.0
  0
ARC
  5
2B85D
  8
0
 10
3122.393272346304002
 20
149.0022968257123068
 30
0.0
 40
0.0832748922946843
 50
56.0827409464078173
 51
70.4003674055642961
  0
LINE
  5
2B85E
  8
0
 10
3122.4212065365909439
 20
149.0807467377564137
 30
0.0
 11
3122.406607028021881
 21
149.0371673648369892
 31
0.0
  0
ARC
  5
2B85F
  8
0
 10
3122.3947776281611368
 20
149.0421702435866109
 30
0.0
 40
0.0128438116169597
 50
251.0285344622228081
 51
337.0755713675520155
  0
ARC
  5
2B860
  8
0
 10
3123.1523755766388604
 20
151.7676723046359086
 30
0.0
 40
2.8416573437713679
 50
250.8500254140029142
 51
254.4503305205797972
  0
ARC
  5
2B861
  8
0
 10
3122.2225286198899994
 20
149.0949269930148091
 30
0.0
 40
0.0118952716207177
 50
162.7667400985615984
 51
258.674905759268313
  0
LINE
  5
2B862
  8
0
 10
3122.2111673681201864
 20
149.0984511163314039
 30
0.0
 11
3122.2241379938041064
 21
149.139910095320289
 31
0.0
  0
ARC
  5
2B863
  8
0
 10
3122.1930674580257801
 20
148.9982473217596066
 30
0.0
 40
0.1450300644220798
 50
77.6293416324470655
 51
85.5183774581301464
  0
ARC
  5
2B864
  8
0
 10
3122.0852454293349183
 20
148.5066443527103957
 30
0.0
 40
0.6483183208408383
 50
73.0765048267614645
 51
77.6293416324470655
  0
ARC
  5
2B865
  8
0
 10
3121.9794694630518279
 20
147.9721070059252099
 30
0.0
 40
1.1917404739148381
 50
70.2814463829110139
 51
75.693095449778923
  0
ARC
  5
2B866
  8
0
 10
3122.1184800846831422
 20
148.2389058233750063
 30
0.0
 40
0.8946169178095008
 50
70.2213874367328401
 51
72.8980370059362883
  0
LINE
  5
2B867
  8
0
 10
3122.3724645316360693
 20
149.0971848846673993
 30
0.0
 11
3122.3581900847570978
 21
149.0538671557839052
 31
0.0
  0
ARC
  5
2B868
  8
0
 10
3122.3452154488618362
 20
149.0581426742753024
 30
0.0
 40
0.0136609382897282
 50
281.910535600925698
 51
341.7614507731352091
  0
LINE
  5
2B869
  8
0
 10
3122.2739673448759277
 20
149.1268867921907031
 30
0.0
 11
3122.2604740248712005
 21
149.0845077770968885
 31
0.0
  0
ARC
  5
2B86A
  8
0
 10
3122.2733532499119065
 20
149.0804070799825922
 30
0.0
 40
0.0135162921869588
 50
162.3387192792673943
 51
222.9415014793038949
  0
ARC
  5
2B86B
  8
0
 10
3128.0570733569529693
 20
169.9324341579572888
 30
0.0
 40
21.6507990606162686
 50
254.3600143136571035
 51
254.4788794645174903
  0
ARC
  5
2B86C
  8
0
 10
3137.7337662256682052
 20
193.3499304876575877
 30
0.0
 40
46.9006125566578618
 50
250.8495577540822978
 51
250.9044526585028905
  0
LINE
  5
2B86D
  8
0
 10
3122.2634539699010929
 20
149.0712007182835919
 30
0.0
 11
3122.3480348494667851
 21
149.0447758416219131
 31
0.0
  0
ARC
  5
2B86E
  8
0
 10
3122.0913457428400761
 20
148.37249791060961
 30
0.0
 40
0.7173628855821529
 50
70.4503292960859682
 51
74.8536188423070143
  0
ARC
  5
2B86F
  8
0
 10
3122.5317726242769822
 20
149.7823024794265905
 30
0.0
 40
0.7606665084014484
 50
250.5739289680697084
 51
254.7264333360921
  0
ARC
  5
2B870
  8
0
 10
3122.3462555156720555
 20
149.0549427809781093
 30
0.0
 40
0.0153511987499472
 50
212.9302426714949945
 51
253.2401292605044887
  0
ARC
  5
2B871
  8
0
 10
3123.850651125461809
 20
153.6978217028946858
 30
0.0
 40
4.8958735501516841
 50
252.0502694868690128
 51
254.1122511994205979
  0
ARC
  5
2B872
  8
0
 10
3122.5149334824131984
 20
149.0037662022124039
 30
0.0
 40
0.0154774609954966
 50
252.9223914257750891
 51
328.3773942303391209
  0
LINE
  5
2B873
  8
0
 10
3122.5281128520400671
 20
148.9956510303032076
 30
0.0
 11
3122.5343423670328775
 21
149.0141614806422012
 31
0.0
  0
LINE
  5
2B874
  8
0
 10
3122.6658081779310123
 20
149.0022545608991038
 30
0.0
 11
3122.6512849684982029
 21
148.9589176436890057
 31
0.0
  0
ARC
  5
2B875
  8
0
 10
3122.6385892137218434
 20
148.965807242918487
 30
0.0
 40
0.0144446795354206
 50
250.8685284356650129
 51
331.5126648787042996
  0
LINE
  5
2B876
  8
0
 10
3122.6338551593239572
 20
148.9521603569791068
 30
0.0
 11
3122.5131619934309128
 21
148.9883904542419089
 31
0.0
  0
LINE
  5
2B877
  8
0
 10
3122.6095138926771142
 20
148.9957338161067923
 30
0.0
 11
3122.6021981505518852
 21
148.9735006591176045
 31
0.0
  0
ARC
  5
2B878
  8
0
 10
3122.5853042564722273
 20
148.9790595355580081
 30
0.0
 40
0.0177849589384062
 50
312.6537805489272159
 51
341.7863912924715919
  0
ARC
  5
2B879
  8
0
 10
3122.5934183674730775
 20
148.9702521127983061
 30
0.0
 40
0.0058095886725225
 50
264.3381958880021898
 51
312.6537805489206221
  0
LINE
  5
2B87A
  8
0
 10
3122.4943980744269538
 20
149.0569413113952919
 30
0.0
 11
3122.4793449229300677
 21
149.0112579624693012
 31
0.0
  0
ARC
  5
2B87B
  8
0
 10
3122.4653470627458773
 20
149.0158704069363012
 30
0.0
 40
0.0147382065967087
 50
279.2715279550790797
 51
341.7623962797021022
  0
ARC
  5
2B87C
  8
0
 10
3122.0448171542739146
 20
147.7599995647069022
 30
0.0
 40
1.311566642090499
 50
71.8853798707585412
 51
74.2933878413011257
  0
ARC
  5
2B87D
  8
0
 10
3122.8072783550610438
 20
150.2678841690569982
 30
0.0
 40
1.3102400383217421
 50
251.8841606500714079
 51
254.294607061973494
  0
ARC
  5
2B87E
  8
0
 10
3122.5629034778130517
 20
149.0112901870884912
 30
0.0
 40
0.0956238928823525
 50
59.5854562196558817
 51
88.0423673704613634
  0
ARC
  5
2B87F
  8
0
 10
3122.6349724206352221
 20
149.2611853457368056
 30
0.0
 40
0.1690938637382989
 50
246.0029201632245872
 51
261.9569620113567794
  0
ARC
  5
2B880
  8
0
 10
3123.0050698037648544
 20
148.6753400957672113
 30
0.0
 40
0.2129917712194244
 50
69.2947447755371115
 51
82.029103142713808
  0
ARC
  5
2B881
  8
0
 10
3123.1101664991151665
 20
149.0865090962961119
 30
0.0
 40
0.2140176304972405
 50
249.3253901860726103
 51
261.9984615503722125
  0
ARC
  5
2B882
  8
0
 10
3123.2017016918921399
 20
148.3825310628446061
 30
0.0
 40
0.4312193575904755
 50
73.4424175124546821
 51
79.7227683499710338
  0
ARC
  5
2B883
  8
0
 10
3123.4017249889348022
 20
149.2211213258995031
 30
0.0
 40
0.4321909263001938
 50
253.452824995711012
 51
259.7191032738945182
  0
LINE
  5
2B884
  8
0
 10
3122.3978412475071309
 20
149.1616971754814074
 30
0.0
 11
3122.3814361855038442
 21
149.1125263616000041
 31
0.0
  0
ARC
  5
2B885
  8
0
 10
3122.3696503154078528
 20
149.1164585301858096
 30
0.0
 40
0.0124245194558676
 50
269.1302731304413101
 51
341.5495413293111824
  0
ARC
  5
2B886
  8
0
 10
3122.419410869065814
 20
149.4305668344584888
 30
0.0
 40
0.3303296343388249
 50
245.5051716509827884
 51
261.3029453848242269
  0
ARC
  5
2B887
  8
0
 10
3122.290609884576952
 20
149.1428599088860949
 30
0.0
 40
0.0152565331274862
 50
169.4815733272135958
 51
237.6778439053574061
  0
LINE
  5
2B888
  8
0
 10
3122.2756097184378632
 20
149.1456450155068012
 30
0.0
 11
3122.2906509419690337
 21
149.1939794959264134
 31
0.0
  0
ARC
  5
2B889
  8
0
 10
3122.2037654682121683
 20
148.7113860772589078
 30
0.0
 40
0.4903524174418737
 50
66.684848849950626
 51
79.7938805998889649
  0
ARC
  5
2B88A
  8
0
 10
3122.2821751190390387
 20
149.1469017027517054
 30
0.0
 40
0.0478346964506468
 50
79.7938805998889649
 51
103.8626932656687956
  0
ARC
  5
2B88B
  8
0
 10
3122.3144069396321356
 20
149.2431455837798069
 30
0.0
 40
0.066252166124153
 50
228.7388059829615941
 51
245.7143923219466899
  0
ARC
  5
2B88C
  8
0
 10
3122.4087126222561892
 20
149.2693327373519026
 30
0.0
 40
0.1187783990412766
 50
263.0849018352359963
 51
271.7809100434799916
  0
ARC
  5
2B88D
  8
0
 10
3122.387122642761824
 20
149.1325082592202023
 30
0.0
 40
0.0310947154527139
 50
35.605675715693053
 51
69.8360178078682736
  0
LINE
  5
2B88E
  8
0
 10
3122.5308350380969387
 20
149.0796454651787997
 30
0.0
 11
3122.3925433368940503
 21
149.145817773338706
 31
0.0
  0
LINE
  5
2B88F
  8
0
 10
3122.5200076073388118
 20
149.0685209064949959
 30
0.0
 11
3122.3814367633340225
 21
149.0940105876424866
 31
0.0
  0
LINE
  5
2B890
  8
0
 10
3122.5237162384260046
 20
149.1199764271017898
 30
0.0
 11
3122.4124047992290798
 21
149.1506146660204877
 31
0.0
  0
LINE
  5
2B891
  8
0
 10
3122.3823441830982119
 20
149.1680644497276944
 30
0.0
 11
3122.529111463920799
 21
149.1608992439849999
 31
0.0
  0
LINE
  5
2B892
  8
0
 10
3122.5175509996320216
 20
149.1838468504377033
 30
0.0
 11
3122.2060957754201809
 21
149.2780976448777892
 31
0.0
  0
LINE
  5
2B893
  8
0
 10
3122.6748491564640062
 20
149.1208491501309936
 30
0.0
 11
3122.8009761157968569
 21
149.0531624417060925
 31
0.0
  0
LINE
  5
2B894
  8
0
 10
3122.7806111919021532
 20
149.03906429840481
 30
0.0
 11
3122.6257182856720647
 21
149.0536147990752909
 31
0.0
  0
LINE
  5
2B895
  8
0
 10
3122.657781394183985
 20
149.0831107630008034
 30
0.0
 11
3122.761874023737164
 21
149.0547300043619998
 31
0.0
  0
LINE
  5
2B896
  8
0
 10
3122.7714131731690941
 20
149.0088851245772048
 30
0.0
 11
3122.6483538043048611
 21
149.0404827073708987
 31
0.0
  0
LINE
  5
2B897
  8
0
 10
3122.6276893818399003
 20
149.0386947366731931
 30
0.0
 11
3122.774725234592097
 21
148.9838827690672929
 31
0.0
  0
LINE
  5
2B898
  8
0
 10
3122.7450204271931398
 20
148.9880479370528974
 30
0.0
 11
3122.6221758901929206
 21
149.0219517580597994
 31
0.0
  0
LINE
  5
2B899
  8
0
 10
3122.8887402993768774
 20
149.0117936335105924
 30
0.0
 11
3123.0370024433768776
 21
148.9486295779855141
 31
0.0
  0
LINE
  5
2B89A
  8
0
 10
3123.0033704471338751
 20
148.9507763813851113
 30
0.0
 11
3122.8785099460319543
 21
148.9820306810692045
 31
0.0
  0
LINE
  5
2B89B
  8
0
 10
3122.8606200808640097
 20
148.9622806402618096
 30
0.0
 11
3123.0182943658260228
 21
148.9404823484493079
 31
0.0
  0
LINE
  5
2B89C
  8
0
 10
3122.8895381525071571
 20
148.9522372769932872
 30
0.0
 11
3123.0129358686190244
 21
148.9234546187927037
 31
0.0
  0
LINE
  5
2B89D
  8
0
 10
3123.2489157135228197
 20
148.9403878327657083
 30
0.0
 11
3122.9151764204470965
 21
149.016058227848788
 31
0.0
  0
LINE
  5
2B89E
  8
0
 10
3122.8812160009338186
 20
149.0318719445972135
 30
0.0
 11
3123.1252899235059886
 21
149.0219046154508078
 31
0.0
  0
LINE
  5
2B89F
  8
0
 10
3123.1567515982110308
 20
149.0117129145272088
 30
0.0
 11
3123.2975527096709811
 21
148.937912635609905
 31
0.0
  0
LINE
  5
2B8A0
  8
0
 10
3123.4326686427029927
 20
148.8982245323805103
 30
0.0
 11
3123.6264509144662043
 21
148.8595584281464994
 31
0.0
  0
LINE
  5
2B8A1
  8
0
 10
3123.6287197968417786
 20
148.8250477226561941
 30
0.0
 11
3123.7453895017420109
 21
148.8210442218156118
 31
0.0
  0
LINE
  5
2B8A2
  8
0
 10
3123.653886118749142
 20
148.8096250979893966
 30
0.0
 11
3123.7798932475188849
 21
148.7754153078315937
 31
0.0
  0
LINE
  5
2B8A3
  8
0
 10
3123.9026576116471006
 20
148.7700853676589929
 30
0.0
 11
3123.6743088110652025
 21
148.8103166709626066
 31
0.0
  0
LINE
  5
2B8A4
  8
0
 10
3123.4891783535072136
 20
148.8483322888534985
 30
0.0
 11
3123.4012997740592255
 21
148.8660837059393884
 31
0.0
  0
LINE
  5
2B8A5
  8
0
 10
3123.410625225611966
 20
148.8932541716386879
 30
0.0
 11
3123.5336689845780711
 21
148.8471140854404098
 31
0.0
  0
LINE
  5
2B8A6
  8
0
 10
3123.50325611815515
 20
148.8366558034364004
 30
0.0
 11
3123.3847928116128969
 21
148.8475421266207945
 31
0.0
  0
LINE
  5
2B8A7
  8
0
 10
3123.2616451523022079
 20
148.9235903100640996
 30
0.0
 11
3123.1159225812211844
 21
148.9307067855303046
 31
0.0
  0
LINE
  5
2B8A8
  8
0
 10
3123.1482041315248352
 20
148.9176751311177895
 30
0.0
 11
3123.2533327219989587
 21
148.8958625129147038
 31
0.0
  0
LINE
  5
2B8A9
  8
0
 10
3123.1274937654311543
 20
148.9151728178102019
 30
0.0
 11
3123.2645707072119876
 21
148.8682956363039125
 31
0.0
  0
LINE
  5
2B8AA
  8
0
 10
3122.1820745692721175
 20
149.2645158973226955
 30
0.0
 11
3122.3065043774931837
 21
149.1908547517423926
 31
0.0
  0
LINE
  5
2B8AB
  8
0
 10
3122.2707141202899948
 20
149.1933431033787087
 30
0.0
 11
3122.1639563497678864
 21
149.2276204997266973
 31
0.0
  0
LINE
  5
2B8AC
  8
0
 10
3122.2855919889098004
 20
149.1777227155465084
 30
0.0
 11
3122.1213007952587759
 21
149.2005141185919115
 31
0.0
  0
LINE
  5
2B8AD
  8
0
 10
3122.0501754219330905
 20
149.2235447339944869
 30
0.0
 11
3121.9034298436149584
 21
149.3015440071953037
 31
0.0
  0
LINE
  5
2B8AE
  8
0
 10
3121.9246600071810462
 20
149.3055180227912899
 30
0.0
 11
3122.0309477887080902
 21
149.2710809077437091
 31
0.0
  0
LINE
  5
2B8AF
  8
0
 10
3122.0381394769719918
 20
149.3109720287496884
 30
0.0
 11
3121.8939964352412062
 21
149.3245967042722953
 31
0.0
  0
ARC
  5
2B8B0
  8
0
 10
3121.5608449744640893
 20
149.1248010314747887
 30
0.0
 40
0.0395457167250095
 50
90.2828102043428231
 51
202.0835989435452973
  0
ARC
  5
2B8B1
  8
0
 10
3122.5863759933217807
 20
149.5438876356313926
 30
0.0
 40
1.147402740642234
 50
202.2225792917793115
 51
213.8421386417159908
  0
ARC
  5
2B8B2
  8
0
 10
3115.3819091988380023
 20
145.03976644288079
 30
0.0
 40
7.349828325943859
 50
28.8746818423089913
 51
31.7274785077265697
  0
LINE
  5
2B8B3
  8
0
 10
3121.8179921445571381
 20
148.5889653294852906
 30
0.0
 11
3122.9412923957161183
 21
148.2239841539980887
 31
0.0
  0
ARC
  5
2B8B4
  8
0
 10
3124.6415193926018219
 20
145.4950418991926995
 30
0.0
 40
3.2152601249362309
 50
117.7417496496247935
 51
121.9243577755570982
  0
ARC
  5
2B8B5
  8
0
 10
3123.723015369991117
 20
147.2395537830788044
 30
0.0
 40
1.2437202807383301
 50
103.8757589404620063
 51
117.7012772705337937
  0
ARC
  5
2B8B6
  8
0
 10
3123.6553126771627831
 20
147.5136248713145051
 30
0.0
 40
0.9614108476283222
 50
90.1319775657004669
 51
103.8757589404620063
  0
ARC
  5
2B8B7
  8
0
 10
3122.5257893555640294
 20
148.8794746569369067
 30
0.0
 40
0.5642238159451236
 50
227.8522139220440863
 51
247.52691943818661
  0
LINE
  5
2B8B8
  8
0
 10
3122.3101151849091366
 20
148.3580984332826915
 30
0.0
 11
3122.3248498317980193
 21
148.4035540640363138
 31
0.0
  0
LINE
  5
2B8B9
  8
0
 10
3122.2937800596751003
 20
148.4098464526435066
 30
0.0
 11
3122.2895916583897815
 21
148.3969254405550089
 31
0.0
  0
LINE
  5
2B8BA
  8
0
 10
3122.2880034632389652
 20
148.3920259365823995
 30
0.0
 11
3122.2850995134072036
 21
148.3830673940923077
 31
0.0
  0
LINE
  5
2B8BB
  8
0
 10
3122.2840659311718809
 20
148.3798788436996006
 30
0.0
 11
3122.2823561935051657
 21
148.3746043870372091
 31
0.0
  0
LINE
  5
2B8BC
  8
0
 10
3122.2818465475938865
 20
148.373032154455899
 30
0.0
 11
3122.281281849140214
 21
148.3712900874801051
 31
0.0
  0
LINE
  5
2B8BD
  8
0
 10
3122.281281849140214
 20
148.3712900874801051
 30
0.0
 11
3122.2805180124100843
 21
148.3716557932204125
 31
0.0
  0
LINE
  5
2B8BE
  8
0
 10
3122.2805180124100843
 20
148.3716557932204125
 30
0.0
 11
3122.2651988214520316
 21
148.3796823418963982
 31
0.0
  0
LINE
  5
2B8BF
  8
0
 10
3122.2651988214520316
 20
148.3796823418963982
 30
0.0
 11
3122.2654897171260018
 21
148.3805792599547999
 31
0.0
  0
LINE
  5
2B8C0
  8
0
 10
3122.2654897171260018
 20
148.3805792599547999
 30
0.0
 11
3122.2810970984528467
 21
148.3734422451585999
 31
0.0
  0
LINE
  5
2B8C1
  8
0
 10
3122.2810970984528467
 20
148.3734422451585999
 30
0.0
 11
3122.2818465476148049
 21
148.3730321544445019
 31
0.0
  0
LINE
  5
2B8C2
  8
0
 10
3122.2823561935051657
 20
148.3746043870372091
 30
0.0
 11
3122.2815782463108008
 21
148.3749265627475893
 31
0.0
  0
LINE
  5
2B8C3
  8
0
 10
3122.2815782463108008
 20
148.3749265627475893
 30
0.0
 11
3122.2665568955840172
 21
148.3838719339159979
 31
0.0
  0
LINE
  5
2B8C4
  8
0
 10
3122.2665568955840172
 20
148.3838719339159979
 30
0.0
 11
3122.2674372977257917
 21
148.3865879311842946
 31
0.0
  0
LINE
  5
2B8C5
  8
0
 10
3122.2674372977257917
 20
148.3865879311842946
 30
0.0
 11
3122.283331553656808
 21
148.380335429877988
 31
0.0
  0
LINE
  5
2B8C6
  8
0
 10
3122.283331553656808
 20
148.380335429877988
 30
0.0
 11
3122.2840659311718809
 21
148.3798788436996006
 31
0.0
  0
LINE
  5
2B8C7
  8
0
 10
3122.2850995134172081
 20
148.3830673940888119
 30
0.0
 11
3122.2843073458029721
 21
148.3833457003894125
 31
0.0
  0
LINE
  5
2B8C8
  8
0
 10
3122.2843073458029721
 20
148.3833457003894125
 30
0.0
 11
3122.2696021977421879
 21
148.3932665414417045
 31
0.0
  0
LINE
  5
2B8C9
  8
0
 10
3122.2696021977421879
 20
148.3932665414417045
 30
0.0
 11
3122.2710977762881157
 21
148.3978803276123131
 31
0.0
  0
LINE
  5
2B8CA
  8
0
 10
3122.2710977762881157
 20
148.3978803276123131
 30
0.0
 11
3122.2873147886230072
 21
148.3926235138949892
 31
0.0
  0
LINE
  5
2B8CB
  8
0
 10
3122.2873147886230072
 20
148.3926235138949892
 30
0.0
 11
3122.2880034632389652
 21
148.3920259365823995
 31
0.0
  0
LINE
  5
2B8CC
  8
0
 10
3122.2895916583679536
 20
148.3969254405610911
 30
0.0
 11
3122.2887847377401158
 21
148.3971582337190966
 31
0.0
  0
LINE
  5
2B8CD
  8
0
 10
3122.2887847377401158
 20
148.3971582337190966
 30
0.0
 11
3122.2744253076139103
 21
148.4081455983476019
 31
0.0
  0
LINE
  5
2B8CE
  8
0
 10
3122.2744253076139103
 20
148.4081455983476019
 30
0.0
 11
3122.2765829552708965
 21
148.4148018351876033
 31
0.0
  0
LINE
  5
2B8CF
  8
0
 10
3122.2765829552708965
 20
148.4148018351876033
 30
0.0
 11
3122.2930799913920055
 21
148.4104088809258997
 31
0.0
  0
LINE
  5
2B8D0
  8
0
 10
3122.2930799913920055
 20
148.4104088809258997
 30
0.0
 11
3122.2937800596341731
 21
148.4098464526796022
 31
0.0
  0
LINE
  5
2B8D1
  8
0
 10
3122.2618014012000458
 20
148.4239914822150013
 30
0.0
 11
3122.2667706865108812
 21
148.4195268113867883
 31
0.0
  0
LINE
  5
2B8D2
  8
0
 10
3122.2667706865108812
 20
148.4195268113867883
 30
0.0
 11
3122.2831544750538342
 21
148.4147844942787913
 31
0.0
  0
LINE
  5
2B8D3
  8
0
 10
3122.2831544750538342
 20
148.4147844942787913
 30
0.0
 11
3122.2838248262860361
 21
148.4168524948692038
 31
0.0
  0
LINE
  5
2B8D4
  8
0
 10
3122.2676078139279525
 20
148.4221093087184897
 30
0.0
 11
3122.2667706863999229
 21
148.4195268114823136
 31
0.0
  0
LINE
  5
2B8D5
  8
0
 10
3122.2288714519859241
 20
148.434665865959289
 30
0.0
 11
3122.2392827984890573
 21
148.4250088711644082
 31
0.0
  0
LINE
  5
2B8D6
  8
0
 10
3122.2392827984890573
 20
148.4250088711644082
 30
0.0
 11
3122.2552461447521637
 21
148.4189600635303066
 31
0.0
  0
LINE
  5
2B8D7
  8
0
 10
3122.2552461447521637
 20
148.4189600635303066
 30
0.0
 11
3122.2573453270429127
 21
148.4254359376932086
 31
0.0
  0
LINE
  5
2B8D8
  8
0
 10
3122.2411271372779993
 20
148.430693133204386
 30
0.0
 11
3122.239282798378099
 21
148.4250088712599052
 31
0.0
  0
LINE
  5
2B8D9
  8
0
 10
3122.2489045627180531
 20
148.4196886383120955
 30
0.0
 11
3122.2649764960719949
 21
148.4139918224443875
 31
0.0
  0
LINE
  5
2B8DA
  8
0
 10
3122.2649764960719949
 20
148.4139918224443875
 30
0.0
 11
3122.2792156832160799
 21
148.4026335152159959
 31
0.0
  0
LINE
  5
2B8DB
  8
0
 10
3122.2792156832160799
 20
148.4026335152159959
 30
0.0
 11
3122.2773641973831218
 21
148.3970443551824872
 31
0.0
  0
LINE
  5
2B8DC
  8
0
 10
3122.2773641973831218
 20
148.3970443551824872
 30
0.0
 11
3122.2611831425551827
 21
148.4022895132117981
 31
0.0
  0
LINE
  5
2B8DD
  8
0
 10
3122.2611831425551827
 20
148.4022895132117981
 30
0.0
 11
3122.2470642549419608
 21
148.4140189389200941
 31
0.0
  0
LINE
  5
2B8DE
  8
0
 10
3122.2470642549419608
 20
148.4140189389200941
 30
0.0
 11
3122.2489045627180531
 21
148.4196886383120955
 31
0.0
  0
LINE
  5
2B8DF
  8
0
 10
3122.2377528561669351
 20
148.4202890742776901
 30
0.0
 11
3122.251889730460789
 21
148.408615137154186
 31
0.0
  0
LINE
  5
2B8E0
  8
0
 10
3122.251889730460789
 20
148.408615137154186
 30
0.0
 11
3122.2503827611581073
 21
148.4039662107244908
 31
0.0
  0
LINE
  5
2B8E1
  8
0
 10
3122.2503827611581073
 20
148.4039662107244908
 30
0.0
 11
3122.2347158155857869
 21
148.4109199536852088
 31
0.0
  0
LINE
  5
2B8E2
  8
0
 10
3122.2347158155857869
 20
148.4109199536852088
 30
0.0
 11
3122.2205673021071561
 21
148.422557984718793
 31
0.0
  0
LINE
  5
2B8E3
  8
0
 10
3122.2205673021071561
 20
148.422557984718793
 30
0.0
 11
3122.2220975516947874
 21
148.427278729461392
 31
0.0
  0
LINE
  5
2B8E4
  8
0
 10
3122.2220975516947874
 20
148.427278729461392
 30
0.0
 11
3122.2377528561160034
 21
148.4202890744442982
 31
0.0
  0
LINE
  5
2B8E5
  8
0
 10
3122.1961634694448549
 20
148.437554203714086
 30
0.0
 11
3122.1949342252792121
 21
148.4337620458803997
 31
0.0
  0
LINE
  5
2B8E6
  8
0
 10
3122.1949342252792121
 20
148.4337620458803997
 30
0.0
 11
3122.208961851551976
 21
148.4217510838709018
 31
0.0
  0
LINE
  5
2B8E7
  8
0
 10
3122.208961851551976
 20
148.4217510838709018
 30
0.0
 11
3122.224215322928103
 21
148.4135217932488899
 31
0.0
  0
LINE
  5
2B8E8
  8
0
 10
3122.224215322928103
 20
148.4135217932488899
 30
0.0
 11
3122.2254220480108415
 21
148.4172444809634044
 31
0.0
  0
LINE
  5
2B8E9
  8
0
 10
3122.2254220480108415
 20
148.4172444809634044
 30
0.0
 11
3122.211397554908217
 21
148.4292651087625075
 31
0.0
  0
LINE
  5
2B8EA
  8
0
 10
3122.211397554908217
 20
148.4292651087625075
 30
0.0
 11
3122.1961634694448549
 21
148.437554203714086
 31
0.0
  0
LINE
  5
2B8EB
  8
0
 10
3122.2021178477198191
 20
148.4433381610978131
 30
0.0
 11
3122.2126725028720102
 21
148.4331982605563951
 31
0.0
  0
LINE
  5
2B8EC
  8
0
 10
3122.2126725028720102
 20
148.4331982605563951
 30
0.0
 11
3122.2282123446361766
 21
148.425852408862994
 31
0.0
  0
LINE
  5
2B8ED
  8
0
 10
3122.2282123446361766
 20
148.425852408862994
 30
0.0
 11
3122.2300688873051513
 21
148.4315797516512134
 31
0.0
  0
LINE
  5
2B8EE
  8
0
 10
3122.2300688873051513
 20
148.4315797516512134
 30
0.0
 11
3122.2258661906098496
 21
148.4356400342755933
 31
0.0
  0
LINE
  5
2B8EF
  8
0
 10
3122.2443009100747986
 20
148.4054941557901088
 30
0.0
 11
3122.2431055758761431
 21
148.4018066084043141
 31
0.0
  0
LINE
  5
2B8F0
  8
0
 10
3122.2431055758761431
 20
148.4018066084043141
 30
0.0
 11
3122.2577028065970808
 21
148.3915528480083879
 31
0.0
  0
LINE
  5
2B8F1
  8
0
 10
3122.2577028065970808
 20
148.3915528480083879
 30
0.0
 11
3122.2734883175489813
 21
148.384964873545897
 31
0.0
  0
LINE
  5
2B8F2
  8
0
 10
3122.2734883175489813
 20
148.384964873545897
 30
0.0
 11
3122.274669706628174
 21
148.3886094008531984
 31
0.0
  0
LINE
  5
2B8F3
  8
0
 10
3122.274669706628174
 20
148.3886094008531984
 30
0.0
 11
3122.2600794484069411
 21
148.3988846700916042
 31
0.0
  0
LINE
  5
2B8F4
  8
0
 10
3122.2600794484069411
 20
148.3988846700916042
 30
0.0
 11
3122.2443009100820746
 21
148.40549415584249
 31
0.0
  0
LINE
  5
2B8F5
  8
0
 10
3122.2183532872350042
 20
148.4157278576452086
 30
0.0
 11
3122.2337211163089705
 21
148.4078513541741984
 31
0.0
  0
LINE
  5
2B8F6
  8
0
 10
3122.2337211163089705
 20
148.4078513541741984
 30
0.0
 11
3122.2482017170427753
 21
148.3972377970252126
 31
0.0
  0
LINE
  5
2B8F7
  8
0
 10
3122.2482017170427753
 20
148.3972377970252126
 30
0.0
 11
3122.2473148631788717
 21
148.3945018963061955
 31
0.0
  0
LINE
  5
2B8F8
  8
0
 10
3122.2473148631788717
 20
148.3945018963061955
 30
0.0
 11
3122.2319343677818324
 21
148.4023393237937967
 31
0.0
  0
LINE
  5
2B8F9
  8
0
 10
3122.2319343677818324
 20
148.4023393237937967
 30
0.0
 11
3122.2174532648032255
 21
148.4129513326604979
 31
0.0
  0
LINE
  5
2B8FA
  8
0
 10
3122.2174532648032255
 20
148.4129513326604979
 30
0.0
 11
3122.2183532872500109
 21
148.4157278576913086
 31
0.0
  0
LINE
  5
2B8FB
  8
0
 10
3122.2414809098117985
 20
148.3967896948265945
 30
0.0
 11
3122.2408903862587977
 21
148.3949728574581002
 31
0.0
  0
LINE
  5
2B8FC
  8
0
 10
3122.2408903862587977
 20
148.3949728574581002
 30
0.0
 11
3122.2557993816881208
 21
148.3856808755400039
 31
0.0
  0
LINE
  5
2B8FD
  8
0
 10
3122.2557993816881208
 20
148.3856808755400039
 30
0.0
 11
3122.2712984821509963
 21
148.3782093387821135
 31
0.0
  0
LINE
  5
2B8FE
  8
0
 10
3122.2712984821509963
 20
148.3782093387821135
 30
0.0
 11
3122.2718809582488575
 21
148.3800062490066978
 31
0.0
  0
LINE
  5
2B8FF
  8
0
 10
3122.2718809582488575
 20
148.3800062490066978
 30
0.0
 11
3122.2569709637891719
 21
148.3892951487983964
 31
0.0
  0
LINE
  5
2B900
  8
0
 10
3122.2569709637891719
 20
148.3892951487983964
 30
0.0
 11
3122.2414795446611606
 21
148.396790381995288
 31
0.0
  0
LINE
  5
2B901
  8
0
 10
3122.2459469623258883
 20
148.3902819895093899
 30
0.0
 11
3122.2462398141688027
 21
148.391185423089297
 31
0.0
  0
LINE
  5
2B902
  8
0
 10
3122.2462398141688027
 20
148.391185423089297
 30
0.0
 11
3122.2314441606818036
 21
148.4008270577402016
 31
0.0
  0
LINE
  5
2B903
  8
0
 10
3122.2314441606818036
 20
148.4008270577402016
 30
0.0
 11
3122.2163624328150036
 21
148.4095861698768886
 31
0.0
  0
LINE
  5
2B904
  8
0
 10
3122.2163624328150036
 20
148.4095861698768886
 30
0.0
 11
3122.2160653153409839
 21
148.4086695769584026
 31
0.0
  0
LINE
  5
2B905
  8
0
 10
3122.2160653153409839
 20
148.4086695769584026
 30
0.0
 11
3122.2308542366240545
 21
148.3990071722660957
 31
0.0
  0
LINE
  5
2B906
  8
0
 10
3122.2308542366240545
 20
148.3990071722660957
 30
0.0
 11
3122.2459469622949655
 21
148.3902819895266134
 31
0.0
  0
LINE
  5
2B907
  8
0
 10
3122.1926574543817878
 20
148.4267383195877983
 30
0.0
 11
3122.2070122997579347
 21
148.4157368156444079
 31
0.0
  0
LINE
  5
2B908
  8
0
 10
3122.2070122997579347
 20
148.4157368156444079
 30
0.0
 11
3122.2219794357238243
 21
148.4066241912964017
 31
0.0
  0
LINE
  5
2B909
  8
0
 10
3122.2219794357238243
 20
148.4066241912964017
 30
0.0
 11
3122.2225740475469138
 21
148.4084585392886027
 31
0.0
  0
LINE
  5
2B90A
  8
0
 10
3122.2225740475469138
 20
148.4084585392886027
 30
0.0
 11
3122.2082121525518232
 21
148.4194382986300127
 31
0.0
  0
LINE
  5
2B90B
  8
0
 10
3122.2082121525518232
 20
148.4194382986300127
 30
0.0
 11
3122.193262833955032
 21
148.4286058858378112
 31
0.0
  0
LINE
  5
2B90C
  8
0
 10
3122.193262833955032
 20
148.4286058858378112
 30
0.0
 11
3122.1926574543817878
 21
148.4267383195877983
 31
0.0
  0
LINE
  5
2B90D
  8
0
 10
3122.198902428495785
 20
148.4257136012869012
 30
0.0
 11
3122.1998128552659182
 21
148.4285222230413126
 31
0.0
  0
LINE
  5
2B90E
  8
0
 10
3122.1998128552659182
 20
148.4285222230413126
 30
0.0
 11
3122.1859125503501673
 21
148.4409259658935127
 31
0.0
  0
LINE
  5
2B90F
  8
0
 10
3122.1859125503501673
 20
148.4409259658935127
 30
0.0
 11
3122.1711086763370986
 21
148.4505422416384874
 31
0.0
  0
LINE
  5
2B910
  8
0
 10
3122.1711086763370986
 20
148.4505422416384874
 30
0.0
 11
3122.1701780892381066
 21
148.4476714261859058
 31
0.0
  0
LINE
  5
2B911
  8
0
 10
3122.1701780892381066
 20
148.4476714261859058
 30
0.0
 11
3122.1840718474318237
 21
148.4352474877169072
 31
0.0
  0
LINE
  5
2B912
  8
0
 10
3122.1840718474318237
 20
148.4352474877169072
 30
0.0
 11
3122.198902428495785
 21
148.4257136012869012
 31
0.0
  0
LINE
  5
2B913
  8
0
 10
3122.2020529385358714
 20
148.4354327698279121
 30
0.0
 11
3122.2036016108809235
 21
148.4402103480686037
 31
0.0
  0
LINE
  5
2B914
  8
0
 10
3122.2036016108809235
 20
148.4402103480686037
 30
0.0
 11
3122.1996900460731013
 21
148.4441251433754871
 31
0.0
  0
LINE
  5
2B915
  8
0
 10
3122.1807551677611627
 20
148.4502629650872052
 30
0.0
 11
3122.1869377922657804
 21
148.4440887864309957
 31
0.0
  0
LINE
  5
2B916
  8
0
 10
3122.1869377922657804
 20
148.4440887864309957
 30
0.0
 11
3122.2020529385567897
 21
148.4354327698927136
 31
0.0
  0
LINE
  5
2B917
  8
0
 10
3122.1778957452288523
 20
148.4511898591190118
 30
0.0
 11
3122.1767701448070511
 21
148.4477174371980936
 31
0.0
  0
LINE
  5
2B918
  8
0
 10
3122.1767701448070511
 20
148.4477174371980936
 30
0.0
 11
3122.166022099384918
 21
148.455038752154195
 31
0.0
  0
LINE
  5
2B919
  8
0
 10
3122.1503177084141498
 20
148.4601293975914018
 30
0.0
 11
3122.1512370800460303
 21
148.4592300306860864
 31
0.0
  0
LINE
  5
2B91A
  8
0
 10
3122.1512370800460303
 20
148.4592300306860864
 30
0.0
 11
3122.150925086098141
 21
148.4582675446592077
 31
0.0
  0
LINE
  5
2B91B
  8
0
 10
3122.150925086098141
 20
148.4582675446592077
 30
0.0
 11
3122.1478424852780336
 21
148.4609317517470117
 31
0.0
  0
LINE
  5
2B91C
  8
0
 10
3122.1511312450529658
 20
148.4598656862135044
 30
0.0
 11
3122.1600703243680073
 21
148.4514848117968882
 31
0.0
  0
LINE
  5
2B91D
  8
0
 10
3122.1600703243680073
 20
148.4514848117968882
 30
0.0
 11
3122.174461699350104
 21
148.4405959964772137
 31
0.0
  0
LINE
  5
2B91E
  8
0
 10
3122.174461699350104
 20
148.4405959964772137
 30
0.0
 11
3122.1750754174081521
 21
148.4424892864396952
 31
0.0
  0
LINE
  5
2B91F
  8
0
 10
3122.1750754174081521
 20
148.4424892864396952
 30
0.0
 11
3122.1613134290792004
 21
148.4553197282461952
 31
0.0
  0
LINE
  5
2B920
  8
0
 10
3122.1613134290792004
 20
148.4553197282461952
 30
0.0
 11
3122.1584929405139519
 21
148.4574793611739096
 31
0.0
  0
LINE
  5
2B921
  8
0
 10
3122.1687436508859719
 20
148.4432462543067004
 30
0.0
 11
3122.1690506551258295
 21
148.4441933473862889
 31
0.0
  0
LINE
  5
2B922
  8
0
 10
3122.1690506551258295
 20
148.4441933473862889
 30
0.0
 11
3122.1835670369100626
 21
148.4336901719746038
 31
0.0
  0
LINE
  5
2B923
  8
0
 10
3122.1835670369100626
 20
148.4336901719746038
 30
0.0
 11
3122.1977991322978596
 21
148.4223099865997142
 31
0.0
  0
LINE
  5
2B924
  8
0
 10
3122.1977991322978596
 20
148.4223099865997142
 30
0.0
 11
3122.1974986470308977
 21
148.4213830045692077
 31
0.0
  0
LINE
  5
2B925
  8
0
 10
3122.1974986470308977
 20
148.4213830045692077
 30
0.0
 11
3122.1829596516818128
 21
148.4318164183040096
 31
0.0
  0
LINE
  5
2B926
  8
0
 10
3122.1829596516818128
 20
148.4318164183040096
 30
0.0
 11
3122.1687436508859719
 21
148.4432462543067004
 31
0.0
  0
LINE
  5
2B927
  8
0
 10
3122.2649764960719949
 20
148.4139918224443875
 30
0.0
 11
3122.2611831425551827
 21
148.4022895132117981
 31
0.0
  0
LINE
  5
2B928
  8
0
 10
3122.2600794484069411
 20
148.3988846700916042
 30
0.0
 11
3122.2577028065970808
 21
148.3915528480083879
 31
0.0
  0
LINE
  5
2B929
  8
0
 10
3122.2569709637891719
 20
148.3892951487983964
 30
0.0
 11
3122.2557993816881208
 21
148.3856808755400039
 31
0.0
  0
LINE
  5
2B92A
  8
0
 10
3122.2319343677818324
 20
148.4023393237937967
 30
0.0
 11
3122.2337211163089705
 21
148.4078513541741984
 31
0.0
  0
LINE
  5
2B92B
  8
0
 10
3122.2347158155857869
 20
148.4109199536852088
 30
0.0
 11
3122.2377528557881305
 21
148.4202890745908974
 31
0.0
  0
LINE
  5
2B92C
  8
0
 10
3122.208961851551976
 20
148.4217510838709018
 30
0.0
 11
3122.211397554908217
 21
148.4292651087625075
 31
0.0
  0
LINE
  5
2B92D
  8
0
 10
3122.2126725028720102
 20
148.4331982605563951
 30
0.0
 11
3122.2146432734471091
 21
148.4392779908282876
 31
0.0
  0
LINE
  5
2B92E
  8
0
 10
3122.2082121525518232
 20
148.4194382986300127
 30
0.0
 11
3122.2070122997579347
 21
148.4157368156444079
 31
0.0
  0
LINE
  5
2B92F
  8
0
 10
3122.1881610031468881
 20
148.4478623319025132
 30
0.0
 11
3122.1869377922657804
 21
148.4440887864309957
 31
0.0
  0
LINE
  5
2B930
  8
0
 10
3122.1859125503501673
 20
148.4409259658935127
 30
0.0
 11
3122.1840718474318237
 21
148.4352474877169072
 31
0.0
  0
LINE
  5
2B931
  8
0
 10
3122.1830319096970925
 20
148.434077357643389
 30
0.0
 11
3122.1824057320159227
 21
148.4322617763922096
 31
0.0
  0
LINE
  5
2B932
  8
0
 10
3122.1600703243680073
 20
148.4514848117968882
 30
0.0
 11
3122.1613134290792004
 21
148.4553197282461952
 31
0.0
  0
LINE
  5
2B933
  8
0
 10
3122.2805180124100843
 20
148.3716557932204125
 30
0.0
 11
3122.2810970984401138
 21
148.3734422451647106
 31
0.0
  0
LINE
  5
2B934
  8
0
 10
3122.2815782463239884
 20
148.3749265627425018
 30
0.0
 11
3122.2833315537041017
 21
148.3803354298489126
 31
0.0
  0
LINE
  5
2B935
  8
0
 10
3122.2843073457679566
 20
148.3833457004134004
 30
0.0
 11
3122.2873147886398328
 21
148.3926235138806078
 31
0.0
  0
LINE
  5
2B936
  8
0
 10
3122.2887847375068304
 20
148.3971582338978124
 30
0.0
 11
3122.2930799913528972
 21
148.4104088809361883
 31
0.0
  0
ARC
  5
2B937
  8
0
 10
3122.5387510088498857
 20
148.8740070874835908
 30
0.0
 40
0.5629921242578707
 50
256.515831106295991
 51
276.2471866424330074
  0
LINE
  5
2B938
  8
0
 10
3122.4074743720029801
 20
148.326534187154806
 30
0.0
 11
3122.422221803426055
 21
148.371990523371494
 31
0.0
  0
LINE
  5
2B939
  8
0
 10
3122.4510618159029036
 20
148.3588120898519094
 30
0.0
 11
3122.4468734146062161
 21
148.3458910777669928
 31
0.0
  0
LINE
  5
2B93A
  8
0
 10
3122.4452852194508523
 20
148.3409915737958897
 30
0.0
 11
3122.4423812696109053
 21
148.3320330313082138
 31
0.0
  0
LINE
  5
2B93B
  8
0
 10
3122.4413476873719446
 20
148.3288444809165014
 30
0.0
 11
3122.4396379497011367
 21
148.3235700242555879
 31
0.0
  0
LINE
  5
2B93C
  8
0
 10
3122.4391283037898575
 20
148.3219977916747894
 30
0.0
 11
3122.4385636053330018
 21
148.320255724699507
 31
0.0
  0
LINE
  5
2B93D
  8
0
 10
3122.4385636053330018
 20
148.320255724699507
 30
0.0
 11
3122.4393967299229189
 21
148.3201037686025927
 31
0.0
  0
LINE
  5
2B93E
  8
0
 10
3122.4393967299229189
 20
148.3201037686025927
 30
0.0
 11
3122.4565115636391965
 21
148.3176166895605945
 31
0.0
  0
LINE
  5
2B93F
  8
0
 10
3122.4565115636391965
 20
148.3176166895605945
 30
0.0
 11
3122.4568021772461179
 21
148.3185136990522039
 31
0.0
  0
LINE
  5
2B940
  8
0
 10
3122.4568021772461179
 20
148.3185136990522039
 30
0.0
 11
3122.4399758159438534
 21
148.3218902205479992
 31
0.0
  0
LINE
  5
2B941
  8
0
 10
3122.4399758159438534
 20
148.3218902205479992
 30
0.0
 11
3122.4391283037662106
 21
148.3219977916778021
 31
0.0
  0
LINE
  5
2B942
  8
0
 10
3122.4396379497011367
 20
148.3235700242555879
 30
0.0
 11
3122.4404569638609246
 21
148.3233745381182018
 31
0.0
  0
LINE
  5
2B943
  8
0
 10
3122.4404569638609246
 20
148.3233745381182018
 30
0.0
 11
3122.4578696378198401
 21
148.3218062815639087
 31
0.0
  0
LINE
  5
2B944
  8
0
 10
3122.4578696378198401
 20
148.3218062815639087
 30
0.0
 11
3122.4587500399247801
 21
148.3245222788445119
 31
0.0
  0
LINE
  5
2B945
  8
0
 10
3122.4587500399247801
 20
148.3245222788445119
 30
0.0
 11
3122.4422102712987908
 21
148.3287834052183882
 31
0.0
  0
LINE
  5
2B946
  8
0
 10
3122.4422102712987908
 20
148.3287834052183882
 30
0.0
 11
3122.4413476873719446
 21
148.3288444809165014
 31
0.0
  0
LINE
  5
2B947
  8
0
 10
3122.4423812696018103
 20
148.3320330313111981
 30
0.0
 11
3122.4431860632748794
 21
148.3317936757852067
 31
0.0
  0
LINE
  5
2B948
  8
0
 10
3122.4431860632748794
 20
148.3317936757852067
 30
0.0
 11
3122.4609149400189381
 21
148.3312008890762002
 31
0.0
  0
LINE
  5
2B949
  8
0
 10
3122.4609149400189381
 20
148.3312008890762002
 30
0.0
 11
3122.4624105184930158
 21
148.3358146752705977
 31
0.0
  0
LINE
  5
2B94A
  8
0
 10
3122.4624105184930158
 20
148.3358146752705977
 30
0.0
 11
3122.4461935062408884
 21
148.3410714892434044
 31
0.0
  0
LINE
  5
2B94B
  8
0
 10
3122.4461935062408884
 20
148.3410714892434044
 30
0.0
 11
3122.4452852194508523
 21
148.3409915737958897
 31
0.0
  0
LINE
  5
2B94C
  8
0
 10
3122.446873414626225
 20
148.3458910777594895
 30
0.0
 11
3122.4476634548059337
 21
148.3456062092463981
 31
0.0
  0
LINE
  5
2B94D
  8
0
 10
3122.4476634548059337
 20
148.3456062092463981
 30
0.0
 11
3122.4657380499202191
 21
148.3460799459730879
 31
0.0
  0
LINE
  5
2B94E
  8
0
 10
3122.4657380499202191
 20
148.3460799459730879
 30
0.0
 11
3122.4678956975099027
 21
148.3527361828344908
 31
0.0
  0
LINE
  5
2B94F
  8
0
 10
3122.4678956975099027
 20
148.3527361828344908
 30
0.0
 11
3122.45195870894986
 21
148.3588568562934995
 31
0.0
  0
LINE
  5
2B950
  8
0
 10
3122.45195870894986
 20
148.3588568562934995
 30
0.0
 11
3122.4510618159570186
 21
148.3588120898571958
 31
0.0
  0
LINE
  5
2B951
  8
0
 10
3122.4853757651599153
 20
148.3515188968239897
 30
0.0
 11
3122.4786139444031505
 21
148.3508061046389912
 31
0.0
  0
LINE
  5
2B952
  8
0
 10
3122.4786139444031505
 20
148.3508061046389912
 30
0.0
 11
3122.4625637084791379
 21
148.3565774151828123
 31
0.0
  0
LINE
  5
2B953
  8
0
 10
3122.4625637084791379
 20
148.3565774151828123
 30
0.0
 11
3122.4632489637610888
 21
148.3586913940434897
 31
0.0
  0
LINE
  5
2B954
  8
0
 10
3122.4794659761168987
 20
148.3534345801942038
 30
0.0
 11
3122.4786139445491244
 21
148.3508061046514115
 31
0.0
  0
LINE
  5
2B955
  8
0
 10
3122.5183014488980007
 20
148.3408458957520111
 30
0.0
 11
3122.5040905969308369
 21
148.3391194822316095
 31
0.0
  0
LINE
  5
2B956
  8
0
 10
3122.5040905969308369
 20
148.3391194822316095
 30
0.0
 11
3122.4876143766509813
 21
148.3435860987362958
 31
0.0
  0
LINE
  5
2B957
  8
0
 10
3122.4876143766509813
 20
148.3435860987362958
 30
0.0
 11
3122.489728463002848
 21
148.3501079512195133
 31
0.0
  0
LINE
  5
2B958
  8
0
 10
3122.5059466398788572
 20
148.3448507598864978
 30
0.0
 11
3122.5040905970768108
 21
148.3391194822440013
 31
0.0
  0
LINE
  5
2B959
  8
0
 10
3122.4931774105948534
 20
148.3404557413697091
 30
0.0
 11
3122.4768197541761765
 21
148.345271115628293
 31
0.0
  0
LINE
  5
2B95A
  8
0
 10
3122.4768197541761765
 20
148.345271115628293
 30
0.0
 11
3122.4586249167177812
 21
148.3444264360948068
 31
0.0
  0
LINE
  5
2B95B
  8
0
 10
3122.4586249167177812
 20
148.3444264360948068
 30
0.0
 11
3122.4568453457959549
 21
148.3388139645354897
 31
0.0
  0
LINE
  5
2B95C
  8
0
 10
3122.4568453457959549
 20
148.3388139645354897
 30
0.0
 11
3122.4730264005947902
 21
148.3335688064167073
 31
0.0
  0
LINE
  5
2B95D
  8
0
 10
3122.4730264005947902
 20
148.3335688064167073
 30
0.0
 11
3122.4913415377827732
 21
148.3347846043654101
 31
0.0
  0
LINE
  5
2B95E
  8
0
 10
3122.4913415377827732
 20
148.3347846043654101
 30
0.0
 11
3122.4931774105948534
 21
148.3404557413697091
 31
0.0
  0
LINE
  5
2B95F
  8
0
 10
3122.5025606545891605
 20
148.3343996853510873
 30
0.0
 11
3122.4842635044087729
 21
148.3332393758813907
 31
0.0
  0
LINE
  5
2B960
  8
0
 10
3122.4842635044087729
 20
148.3332393758813907
 30
0.0
 11
3122.4827565349828546
 21
148.328590449491486
 31
0.0
  0
LINE
  5
2B961
  8
0
 10
3122.4827565349828546
 20
148.328590449491486
 30
0.0
 11
3122.4995236141849091
 21
148.3250305647017058
 31
0.0
  0
LINE
  5
2B962
  8
0
 10
3122.4995236141849091
 20
148.3250305647017058
 30
0.0
 11
3122.5178091253119419
 21
148.326154968038793
 31
0.0
  0
LINE
  5
2B963
  8
0
 10
3122.5178091253119419
 20
148.326154968038793
 30
0.0
 11
3122.5193393748932067
 21
148.3308757127836088
 31
0.0
  0
LINE
  5
2B964
  8
0
 10
3122.5193393748932067
 20
148.3308757127836088
 30
0.0
 11
3122.5025606547292227
 21
148.3343996854561055
 31
0.0
  0
LINE
  5
2B965
  8
0
 10
3122.5463698332227978
 20
148.3239825048410125
 30
0.0
 11
3122.5451405890507885
 21
148.3201903470095999
 31
0.0
  0
LINE
  5
2B966
  8
0
 10
3122.5451405890507885
 20
148.3201903470095999
 30
0.0
 11
3122.5267341907851915
 21
148.3186930126744869
 31
0.0
  0
LINE
  5
2B967
  8
0
 10
3122.5267341907851915
 20
148.3186930126744869
 30
0.0
 11
3122.5095536373319192
 21
148.3209773498211064
 31
0.0
  0
LINE
  5
2B968
  8
0
 10
3122.5095536373319192
 20
148.3209773498211064
 30
0.0
 11
3122.5107603625051524
 21
148.3247000375066023
 31
0.0
  0
LINE
  5
2B969
  8
0
 10
3122.5107603625051524
 20
148.3247000375066023
 30
0.0
 11
3122.529169894009101
 21
148.3262070376090094
 31
0.0
  0
LINE
  5
2B96A
  8
0
 10
3122.529169894009101
 20
148.3262070376090094
 30
0.0
 11
3122.5463698332227978
 21
148.3239825048410125
 31
0.0
  0
LINE
  5
2B96B
  8
0
 10
3122.5450506668030357
 20
148.3321750224710058
 30
0.0
 11
3122.5304448419719847
 21
148.3301401894030107
 31
0.0
  0
LINE
  5
2B96C
  8
0
 10
3122.5304448419719847
 20
148.3301401894030107
 30
0.0
 11
3122.5135506591182093
 21
148.3333079654100004
 31
0.0
  0
LINE
  5
2B96D
  8
0
 10
3122.5135506591182093
 20
148.3333079654100004
 30
0.0
 11
3122.5154072017398903
 21
148.339035308213397
 31
0.0
  0
LINE
  5
2B96E
  8
0
 10
3122.5154072017398903
 20
148.339035308213397
 30
0.0
 11
3122.5213016512097965
 21
148.339873367352908
 31
0.0
  0
LINE
  5
2B96F
  8
0
 10
3122.4885781928819597
 20
148.3262598212459977
 30
0.0
 11
3122.487382858599176
 21
148.3225722738874879
 31
0.0
  0
LINE
  5
2B970
  8
0
 10
3122.487382858599176
 20
148.3225722738874879
 30
0.0
 11
3122.469546064718088
 21
148.322832141187007
 31
0.0
  0
LINE
  5
2B971
  8
0
 10
3122.469546064718088
 20
148.322832141187007
 30
0.0
 11
3122.4528975509701922
 21
148.3267577944509128
 31
0.0
  0
LINE
  5
2B972
  8
0
 10
3122.4528975509701922
 20
148.3267577944509128
 30
0.0
 11
3122.4540789400930407
 21
148.3304023217440886
 31
0.0
  0
LINE
  5
2B973
  8
0
 10
3122.4540789400930407
 20
148.3304023217440886
 30
0.0
 11
3122.471922705902216
 21
148.3301639634728986
 31
0.0
  0
LINE
  5
2B974
  8
0
 10
3122.471922705902216
 20
148.3301639634728986
 30
0.0
 11
3122.4885781929069708
 21
148.3262598212926946
 31
0.0
  0
LINE
  5
2B975
  8
0
 10
3122.5155951104211454
 20
148.3193248409712055
 30
0.0
 11
3122.4985289142391593
 21
148.3219619654074108
 31
0.0
  0
LINE
  5
2B976
  8
0
 10
3122.4985289142391593
 20
148.3219619654074108
 30
0.0
 11
3122.4805754909721145
 21
148.3218620357590112
 31
0.0
  0
LINE
  5
2B977
  8
0
 10
3122.4805754909721145
 20
148.3218620357590112
 30
0.0
 11
3122.4796886370231732
 21
148.3191261350673074
 31
0.0
  0
LINE
  5
2B978
  8
0
 10
3122.4796886370231732
 20
148.3191261350673074
 30
0.0
 11
3122.4967421662950073
 21
148.3164499348382037
 31
0.0
  0
LINE
  5
2B979
  8
0
 10
3122.4967421662950073
 20
148.3164499348382037
 30
0.0
 11
3122.5146950879739052
 21
148.3165483159914118
 31
0.0
  0
LINE
  5
2B97A
  8
0
 10
3122.5146950879739052
 20
148.3165483159914118
 30
0.0
 11
3122.515595110436152
 21
148.3193248410173908
 31
0.0
  0
LINE
  5
2B97B
  8
0
 10
3122.4857553186798214
 20
148.3175562918821981
 30
0.0
 11
3122.4851676690559543
 21
148.3157385229173997
 31
0.0
  0
LINE
  5
2B97C
  8
0
 10
3122.4851676690559543
 20
148.3157385229173997
 30
0.0
 11
3122.4676426396949864
 21
148.3169601687554859
 31
0.0
  0
LINE
  5
2B97D
  8
0
 10
3122.4676426396949864
 20
148.3169601687554859
 30
0.0
 11
3122.4507077154489707
 21
148.320002259726806
 31
0.0
  0
LINE
  5
2B97E
  8
0
 10
3122.4507077154489707
 20
148.320002259726806
 30
0.0
 11
3122.4512901916041301
 21
148.3217991699330014
 31
0.0
  0
LINE
  5
2B97F
  8
0
 10
3122.4512901916041301
 20
148.3217991699330014
 30
0.0
 11
3122.4688142218378744
 21
148.320574442000094
 31
0.0
  0
LINE
  5
2B980
  8
0
 10
3122.4688142218378744
 20
148.320574442000094
 30
0.0
 11
3122.4857568273591824
 21
148.3175560474865051
 31
0.0
  0
LINE
  5
2B981
  8
0
 10
3122.4783207362229405
 20
148.3149062282533919
 30
0.0
 11
3122.478613588089047
 21
148.3158096618257105
 31
0.0
  0
LINE
  5
2B982
  8
0
 10
3122.478613588089047
 20
148.3158096618257105
 30
0.0
 11
3122.4962519584628353
 21
148.3149376690215888
 31
0.0
  0
LINE
  5
2B983
  8
0
 10
3122.4962519584628353
 20
148.3149376690215888
 30
0.0
 11
3122.5136042561471186
 21
148.3131831531553928
 31
0.0
  0
LINE
  5
2B984
  8
0
 10
3122.5136042561471186
 20
148.3131831531553928
 30
0.0
 11
3122.5133071386039774
 21
148.3122665602591894
 31
0.0
  0
LINE
  5
2B985
  8
0
 10
3122.5133071386039774
 20
148.3122665602591894
 30
0.0
 11
3122.4956620351349557
 21
148.3131177833109859
 31
0.0
  0
LINE
  5
2B986
  8
0
 10
3122.4956620351349557
 20
148.3131177833109859
 30
0.0
 11
3122.478320736257956
 21
148.3149062282491002
 31
0.0
  0
LINE
  5
2B987
  8
0
 10
3122.5428638181551833
 20
148.3131666207162027
 30
0.0
 11
3122.5247846408810801
 21
148.3126787438357042
 31
0.0
  0
LINE
  5
2B988
  8
0
 10
3122.5247846408810801
 20
148.3126787438357042
 30
0.0
 11
3122.5073177502199542
 21
148.314079747838889
 31
0.0
  0
LINE
  5
2B989
  8
0
 10
3122.5073177502199542
 20
148.314079747838889
 30
0.0
 11
3122.5079123618961603
 21
148.31591409587881
 31
0.0
  0
LINE
  5
2B98A
  8
0
 10
3122.5079123618961603
 20
148.31591409587881
 30
0.0
 11
3122.5259844913871348
 21
148.3163802275626892
 31
0.0
  0
LINE
  5
2B98B
  8
0
 10
3122.5259844913871348
 20
148.3163802275626892
 30
0.0
 11
3122.5434691977438888
 21
148.3150341869614977
 31
0.0
  0
LINE
  5
2B98C
  8
0
 10
3122.5434691977438888
 20
148.3150341869614977
 30
0.0
 11
3122.5428638181551833
 21
148.3131666207162027
 31
0.0
  0
LINE
  5
2B98D
  8
0
 10
3122.5372052834231908
 20
148.316000475682614
 30
0.0
 11
3122.5381157101492136
 21
148.3188090974514921
 31
0.0
  0
LINE
  5
2B98E
  8
0
 10
3122.5381157101492136
 20
148.3188090974514921
 30
0.0
 11
3122.5566494301920102
 21
148.3206992124927979
 31
0.0
  0
LINE
  5
2B98F
  8
0
 10
3122.5566494301920102
 20
148.3206992124927979
 30
0.0
 11
3122.5742795806331742
 21
148.3198018605908999
 31
0.0
  0
LINE
  5
2B990
  8
0
 10
3122.5742795806331742
 20
148.3198018605908999
 30
0.0
 11
3122.5733489935350917
 21
148.3169310451378919
 31
0.0
  0
LINE
  5
2B991
  8
0
 10
3122.5733489935350917
 20
148.3169310451378919
 30
0.0
 11
3122.5548087271790791
 21
148.3150207343473141
 31
0.0
  0
LINE
  5
2B992
  8
0
 10
3122.5548087271790791
 20
148.3150207343473141
 30
0.0
 11
3122.5372052834231908
 21
148.316000475682614
 31
0.0
  0
LINE
  5
2B993
  8
0
 10
3122.5403557934300807
 20
148.3257196442345105
 30
0.0
 11
3122.5419044658851817
 21
148.3304972224393055
 31
0.0
  0
LINE
  5
2B994
  8
0
 10
3122.5419044658851817
 20
148.3304972224393055
 30
0.0
 11
3122.5474737356830701
 21
148.3313895743401929
 31
0.0
  0
LINE
  5
2B995
  8
0
 10
3122.5664088580838325
 20
148.3252516735057895
 30
0.0
 11
3122.5576746718888899
 21
148.323862033100994
 31
0.0
  0
LINE
  5
2B996
  8
0
 10
3122.5576746718888899
 20
148.323862033100994
 30
0.0
 11
3122.540355793450999
 21
148.325719644299312
 31
0.0
  0
LINE
  5
2B997
  8
0
 10
3122.5691780448169084
 20
148.3243540297937102
 30
0.0
 11
3122.5680375403080689
 21
148.3208356294007899
 31
0.0
  0
LINE
  5
2B998
  8
0
 10
3122.5680375403080689
 20
148.3208356294007899
 30
0.0
 11
3122.5812089101041238
 21
148.3204541734039879
 31
0.0
  0
LINE
  5
2B999
  8
0
 10
3122.5968486662300165
 20
148.3153844796287046
 30
0.0
 11
3122.5954690161252074
 21
148.3151795406944018
 31
0.0
  0
LINE
  5
2B99A
  8
0
 10
3122.5954690161252074
 20
148.3151795406944018
 30
0.0
 11
3122.595157022155945
 21
148.3142170546746001
 31
0.0
  0
LINE
  5
2B99B
  8
0
 10
3122.595157022155945
 20
148.3142170546746001
 30
0.0
 11
3122.5993402804479047
 21
148.3145768122334971
 31
0.0
  0
LINE
  5
2B99C
  8
0
 10
3122.596040282067861
 20
148.3156465208089969
 30
0.0
 11
3122.5837717445429007
 21
148.3140893762810038
 31
0.0
  0
LINE
  5
2B99D
  8
0
 10
3122.5837717445429007
 20
148.3140893762810038
 30
0.0
 11
3122.5657290948702212
 21
148.313714188673714
 31
0.0
  0
LINE
  5
2B99E
  8
0
 10
3122.5657290948702212
 20
148.313714188673714
 30
0.0
 11
3122.5663428128827945
 21
148.3156074786508896
 31
0.0
  0
LINE
  5
2B99F
  8
0
 10
3122.5663428128827945
 20
148.3156074786508896
 30
0.0
 11
3122.5850148489757885
 21
148.3179242928208907
 31
0.0
  0
LINE
  5
2B9A0
  8
0
 10
3122.5850148489757885
 20
148.3179242928208907
 30
0.0
 11
3122.5887108274791899
 21
148.3180223948318996
 31
0.0
  0
LINE
  5
2B9A1
  8
0
 10
3122.571914555136118
 20
148.3125058732736079
 30
0.0
 11
3122.5722215594291811
 21
148.3134529663363992
 31
0.0
  0
LINE
  5
2B9A2
  8
0
 10
3122.5722215594291811
 20
148.3134529663363992
 30
0.0
 11
3122.5543039165991104
 21
148.3134634186232859
 31
0.0
  0
LINE
  5
2B9A3
  8
0
 10
3122.5543039165991104
 20
148.3134634186232859
 30
0.0
 11
3122.5361019871352255
 21
148.3125968610249004
 31
0.0
  0
LINE
  5
2B9A4
  8
0
 10
3122.5361019871352255
 20
148.3125968610249004
 30
0.0
 11
3122.5358015020128732
 21
148.3116698789471002
 31
0.0
  0
LINE
  5
2B9A5
  8
0
 10
3122.5358015020128732
 20
148.3116698789471002
 30
0.0
 11
3122.5536965313131077
 21
148.3115896649715921
 31
0.0
  0
LINE
  5
2B9A6
  8
0
 10
3122.5536965313131077
 20
148.3115896649715921
 30
0.0
 11
3122.571914555136118
 21
148.3125058732736079
 31
0.0
  0
LINE
  5
2B9A7
  8
0
 10
3122.4768197541761765
 20
148.345271115628293
 30
0.0
 11
3122.4730264005947902
 21
148.3335688064167073
 31
0.0
  0
LINE
  5
2B9A8
  8
0
 10
3122.471922705902216
 20
148.3301639634728986
 30
0.0
 11
3122.469546064718088
 21
148.322832141187007
 31
0.0
  0
LINE
  5
2B9A9
  8
0
 10
3122.4688142218378744
 20
148.320574442000094
 30
0.0
 11
3122.4676426396949864
 21
148.3169601687554859
 31
0.0
  0
LINE
  5
2B9AA
  8
0
 10
3122.4967421662950073
 20
148.3164499348382037
 30
0.0
 11
3122.4985289142391593
 21
148.3219619654074108
 31
0.0
  0
LINE
  5
2B9AB
  8
0
 10
3122.4995236141849091
 20
148.3250305647017058
 30
0.0
 11
3122.5025606550798329
 21
148.3343996853822091
 31
0.0
  0
LINE
  5
2B9AC
  8
0
 10
3122.5267341907851915
 20
148.3186930126744869
 30
0.0
 11
3122.529169894009101
 21
148.3262070376090094
 31
0.0
  0
LINE
  5
2B9AD
  8
0
 10
3122.5304448419719847
 20
148.3301401894030107
 30
0.0
 11
3122.5324305165991063
 21
148.336265898084406
 31
0.0
  0
LINE
  5
2B9AE
  8
0
 10
3122.5259844913871348
 20
148.3163802275626892
 30
0.0
 11
3122.5247846408810801
 21
148.3126787438357042
 31
0.0
  0
LINE
  5
2B9AF
  8
0
 10
3122.5589127868997821
 20
148.3276815570102087
 30
0.0
 11
3122.5576746718888899
 21
148.323862033100994
 31
0.0
  0
LINE
  5
2B9B0
  8
0
 10
3122.5566494301920102
 20
148.3206992124927979
 30
0.0
 11
3122.5548087271790791
 21
148.3150207343473141
 31
0.0
  0
LINE
  5
2B9B1
  8
0
 10
3122.5549644268030534
 20
148.3134630333136101
 30
0.0
 11
3122.5544063878901397
 21
148.3116253645895029
 31
0.0
  0
LINE
  5
2B9B2
  8
0
 10
3122.5837717445429007
 20
148.3140893762810038
 30
0.0
 11
3122.5850148489757885
 21
148.3179242928208907
 31
0.0
  0
LINE
  5
2B9B3
  8
0
 10
3122.4393967299229189
 20
148.3201037686025927
 30
0.0
 11
3122.43997581595886
 21
148.3218902205451002
 31
0.0
  0
LINE
  5
2B9B4
  8
0
 10
3122.4404569638468274
 20
148.3233745381214135
 30
0.0
 11
3122.4422102712451306
 21
148.3287834052223104
 31
0.0
  0
LINE
  5
2B9B5
  8
0
 10
3122.4431860633180804
 20
148.331793675783814
 30
0.0
 11
3122.4461935062190605
 21
148.3410714892415001
 31
0.0
  0
LINE
  5
2B9B6
  8
0
 10
3122.4476634551001553
 20
148.3456062092541003
 30
0.0
 11
3122.4519587089880588
 21
148.3588568562792034
 31
0.0
  0
LINE
  5
2B9B7
  8
0
 10
3122.6918577463761721
 20
148.2845868803341034
 30
0.0
 11
3122.0552563918217857
 21
148.4911732008650063
 31
0.0
  0
LINE
  5
2B9B8
  8
0
 10
3122.6918618499980767
 20
148.2845855501755068
 30
0.0
 11
3122.7021326227149984
 21
148.2898277322142917
 31
0.0
  0
ARC
  5
2B9B9
  8
0
 10
3122.684234694458155
 20
148.3248943422389914
 30
0.0
 40
0.0393700771464621
 50
297.039676251860385
 51
317.561072600418413
  0
LINE
  5
2B9BA
  8
0
 10
3122.0552563918217857
 20
148.4911732008650063
 30
0.0
 11
3122.0499526575022173
 21
148.5012346544590116
 31
0.0
  0
ARC
  5
2B9BB
  8
0
 10
3122.0850192684852118
 20
148.5191325837203919
 30
0.0
 40
0.0393700784560348
 50
186.5094769812480138
 51
207.0396769201601899
  0
LINE
  5
2B9BC
  8
0
 10
3122.3232041089631821
 20
148.3984770934058872
 30
0.0
 11
3122.334024323164158
 21
148.3912088390526094
 31
0.0
  0
LINE
  5
2B9BD
  8
0
 10
3122.3335725146348523
 20
148.4007265691232931
 30
0.0
 11
3122.3364279461920887
 21
148.3986042139868005
 31
0.0
  0
LINE
  5
2B9BE
  8
0
 10
3122.3364279461920887
 20
148.3986042139868005
 30
0.0
 11
3122.3339787335148685
 21
148.3910685704609023
 31
0.0
  0
LINE
  5
2B9BF
  8
0
 10
3122.3339787335148685
 20
148.3910685704609023
 30
0.0
 11
3122.3429194774171265
 21
148.3878142047778113
 31
0.0
  0
LINE
  5
2B9C0
  8
0
 10
3122.3429194774171265
 20
148.3878142047778113
 30
0.0
 11
3122.344207593434021
 21
148.3876290446870883
 31
0.0
  0
LINE
  5
2B9C1
  8
0
 10
3122.344207593434021
 20
148.3876290446870883
 30
0.0
 11
3122.3451193089158551
 21
148.3870286119347952
 31
0.0
  0
LINE
  5
2B9C2
  8
0
 10
3122.3451193089158551
 20
148.3870286119347952
 30
0.0
 11
3122.3543129773938745
 21
148.383809612986397
 31
0.0
  0
LINE
  5
2B9C3
  8
0
 10
3122.3543129773938745
 20
148.383809612986397
 30
0.0
 11
3122.3566106213811508
 21
148.3908789156024
 31
0.0
  0
LINE
  5
2B9C4
  8
0
 10
3122.3566106213811508
 20
148.3908789156024
 30
0.0
 11
3122.3662528518721047
 21
148.3901330981678939
 31
0.0
  0
LINE
  5
2B9C5
  8
0
 10
3122.3735233709439854
 20
148.3877763283443016
 30
0.0
 11
3122.3722506190720196
 21
148.3838467480730117
 31
0.0
  0
LINE
  5
2B9C6
  8
0
 10
3122.3722506190720196
 20
148.3838467480730117
 30
0.0
 11
3122.3545496382362217
 21
148.3845377615039069
 31
0.0
  0
LINE
  5
2B9C7
  8
0
 10
3122.3722506336748665
 20
148.3838467931587104
 30
0.0
 11
3122.3869754464121797
 21
148.3739988202983113
 31
0.0
  0
LINE
  5
2B9C8
  8
0
 10
3122.3867387857430913
 20
148.3732706718681129
 30
0.0
 11
3122.3890364297631095
 21
148.3803399744136868
 31
0.0
  0
LINE
  5
2B9C9
  8
0
 10
3122.3890364297631095
 20
148.3803399744136868
 30
0.0
 11
3122.3804101264690871
 21
148.3855439571146064
 31
0.0
  0
LINE
  5
2B9CA
  8
0
 10
3122.386738785784928
 20
148.3732706718554084
 30
0.0
 11
3122.3960682067991002
 21
148.370469350566708
 31
0.0
  0
LINE
  5
2B9CB
  8
0
 10
3122.3960682067991002
 20
148.370469350566708
 30
0.0
 11
3122.3971587166702193
 21
148.3704190259576876
 31
0.0
  0
LINE
  5
2B9CC
  8
0
 10
3122.3971587166702193
 20
148.3704190259576876
 30
0.0
 11
3122.3983095524590681
 21
148.3698114850020886
 31
0.0
  0
LINE
  5
2B9CD
  8
0
 10
3122.3983095524590681
 20
148.3698114850020886
 30
0.0
 11
3122.4074551716807946
 21
148.3671874740641101
 31
0.0
  0
LINE
  5
2B9CE
  8
0
 10
3122.4074551716807946
 20
148.3671874740641101
 30
0.0
 11
3122.409904384453057
 21
148.374723117576707
 31
0.0
  0
LINE
  5
2B9CF
  8
0
 10
3122.409904384453057
 20
148.374723117576707
 30
0.0
 11
3122.4138134895711119
 21
148.3747161142352979
 31
0.0
  0
LINE
  5
2B9D0
  8
0
 10
3122.3888495880960363
 20
148.3828082695671071
 30
0.0
 11
3122.3992141657699904
 21
148.3767431525411098
 31
0.0
  0
LINE
  5
2B9D1
  8
0
 10
3122.3992141657699904
 20
148.3767431525411098
 30
0.0
 11
3122.4076900715049305
 21
148.3767010463664064
 31
0.0
  0
LINE
  5
2B9D2
  8
0
 10
3122.3992141657108732
 20
148.3767431525733969
 30
0.0
 11
3122.4000077448981756
 21
148.3791913053617009
 31
0.0
  0
LINE
  5
2B9D3
  8
0
 10
3122.407500761384199
 20
148.367327742708909
 30
0.0
 11
3122.420552305270121
 21
148.3668445920368981
 31
0.0
  0
LINE
  5
2B9D4
  8
0
 10
3122.3582019060008861
 20
148.3927428466726894
 30
0.0
 11
3122.3462501699450513
 21
148.3939116580978919
 31
0.0
  0
LINE
  5
2B9D5
  8
0
 10
3122.3462501699450513
 20
148.3939116580978919
 30
0.0
 11
3122.3393614225929014
 21
148.3988500698733901
 31
0.0
  0
LINE
  5
2B9D6
  8
0
 10
3122.3462501700118992
 20
148.3939116580897917
 30
0.0
 11
3122.3470437491992016
 21
148.3963598108780957
 31
0.0
  0
LINE
  5
2B9D7
  8
0
 10
3123.653113511832089
 20
148.4750331671704089
 30
0.0
 11
3123.9201803326700428
 21
148.4750104748706008
 31
0.0
  0
ARC
  5
2B9D8
  8
0
 10
3124.7399205837459704
 20
148.0332901163311874
 30
0.0
 40
0.0306333151836841
 50
185.2039696401743925
 51
224.8710938429794908
  0
LINE
  5
2B9D9
  8
0
 10
3129.2398774575281095
 20
149.2903305185589033
 30
0.0
 11
3129.2595624968289485
 21
149.3100155577575094
 31
0.0
  0
ARC
  5
2B9DA
  8
0
 10
3129.5745231267278541
 20
149.1249761877589037
 30
0.0
 40
0.0393700787000002
 50
0.0
 51
90.0
  0
LINE
  5
2B9DB
  8
0
 10
3129.6138932054291217
 20
149.1249761877589037
 30
0.0
 11
3129.6138932054291217
 21
144.046236030358898
 31
0.0
  0
LINE
  5
2B9DC
  8
0
 10
3127.7241294260288669
 20
144.046236030358898
 30
0.0
 11
3127.7241294260288669
 21
145.0093442455197987
 31
0.0
  0
LINE
  5
2B9DD
  8
0
 10
3129.3579902739288627
 20
144.0934580775588927
 30
0.0
 11
3129.3579902739288627
 21
146.0181917510589074
 31
0.0
  0
ARC
  5
2B9DE
  8
0
 10
3129.3383044045699535
 20
146.0181917510589074
 30
0.0
 40
0.0196858693584119
 50
0.0
 51
89.4736189048562238
  0
ARC
  5
2B9DF
  8
0
 10
3128.6856748475061067
 20
149.2845439808091896
 30
0.0
 40
3.5222971524062281
 50
269.7289912090215012
 51
273.7089767924429111
  0
ARC
  5
2B9E0
  8
0
 10
3128.8226305136568044
 20
147.1718271391646056
 30
0.0
 40
1.4051459278925651
 50
273.7089767924429111
 51
281.3130299020058942
  0
ARC
  5
2B9E1
  8
0
 10
3129.0199261452012252
 20
146.1856262189778022
 30
0.0
 40
0.3994035050010625
 50
281.3130299020058942
 51
302.7697049100634104
  0
ARC
  5
2B9E2
  8
0
 10
3129.181159660251069
 20
145.9351500195240021
 30
0.0
 40
0.1015200162538181
 50
302.7697049100642062
 51
353.1535346713212107
  0
LINE
  5
2B9E3
  8
0
 10
3129.2819557534289743
 20
145.9230478998588865
 30
0.0
 11
3129.2883115762288071
 21
146.0168394764588982
 31
0.0
  0
ARC
  5
2B9E4
  8
0
 10
3129.2681747668120806
 20
146.0182040552095089
 30
0.0
 40
0.0201829920640003
 50
356.1232560804867262
 51
77.0890410055728239
  0
ARC
  5
2B9E5
  8
0
 10
3128.641973623623926
 20
148.9098003806205099
 30
0.0
 40
3.1476303044539389
 50
265.4886166728866215
 51
270.4922257898380735
  0
LINE
  5
2B9E6
  8
0
 10
3127.9800349378288047
 20
144.0934580775588927
 30
0.0
 11
3127.9800349378288047
 21
144.7878876308128042
 31
0.0
  0
ARC
  5
2B9E7
  8
0
 10
3128.0587750950580812
 20
144.3808816997295992
 30
0.0
 40
0.0196850392292909
 50
89.9999995031291746
 51
180.000000205807595
  0
LINE
  5
2B9E8
  8
0
 10
3128.0390900558281828
 20
144.380881699658886
 30
0.0
 11
3128.0390900568891084
 21
144.0856061090588867
 31
0.0
  0
ARC
  5
2B9E9
  8
0
 10
3127.9996850690508836
 20
144.0856061089174034
 30
0.0
 40
0.0394049878384131
 50
272.4119291385434281
 51
0.0000002058043808
  0
ARC
  5
2B9EA
  8
0
 10
3129.3383276303329694
 20
144.085622104077288
 30
0.0
 40
0.0393950579516902
 50
180.023262995895692
 51
268.7763265897759197
  0
LINE
  5
2B9EB
  8
0
 10
3129.2989325756288963
 20
144.0856061090588867
 30
0.0
 11
3129.2989325756288963
 21
144.380881699658886
 31
0.0
  0
ARC
  5
2B9EC
  8
0
 10
3129.279247536333969
 20
144.3808816996645135
 30
0.0
 40
0.0196850392944832
 50
359.9999999839337761
 51
90.000000307111506
  0
LINE
  5
2B9ED
  8
0
 10
3128.2565113157288579
 20
144.4005667389589007
 30
0.0
 11
3128.2565113157288579
 21
144.4672990224588887
 31
0.0
  0
LINE
  5
2B9EE
  8
0
 10
3128.2162554102292233
 20
144.4672990224588887
 30
0.0
 11
3129.1217672212278558
 21
144.4672990224588887
 31
0.0
  0
LINE
  5
2B9EF
  8
0
 10
3129.1217672212278558
 20
144.4672990224588887
 30
0.0
 11
3129.1217672212278558
 21
144.8216297311589074
 31
0.0
  0
ARC
  5
2B9F0
  8
0
 10
3128.6690113157392261
 20
144.8216297311589074
 30
0.0
 40
0.4527559054896991
 50
0.0
 51
65.530199480511385
  0
LINE
  5
2B9F1
  8
0
 10
3128.8565489522279677
 20
145.2337189749588902
 30
0.0
 11
3128.2162554102292233
 21
144.5934254328589077
 31
0.0
  0
LINE
  5
2B9F2
  8
0
 10
3128.2162554102292233
 20
144.5934254328589077
 30
0.0
 11
3128.2162554102292233
 21
144.4672990224588887
 31
0.0
  0
LINE
  5
2B9F3
  8
0
 10
3128.6886963551291956
 20
149.2903305185589033
 30
0.0
 11
3128.6690113157292217
 21
149.3100155577575094
 31
0.0
  0
LINE
  5
2B9F4
  8
0
 10
3128.6690113157292217
 20
149.3100155577575094
 30
0.0
 11
3128.6690113157292217
 21
149.979306896458894
 31
0.0
  0
ARC
  5
2B9F5
  8
0
 10
3128.6886963551291956
 20
149.979306896458894
 30
0.0
 40
0.0196850393999988
 50
89.9999999999739515
 51
180.0
  0
LINE
  5
2B9F6
  8
0
 10
3128.6886963551291956
 20
149.9989919358588963
 30
0.0
 11
3129.2398774575281095
 21
149.9989919358586974
 31
0.0
  0
ARC
  5
2B9F7
  8
0
 10
3129.239877457529019
 20
149.979306896459093
 30
0.0
 40
0.0196850393996542
 50
359.9999999995766871
 51
90.0000000009900987
  0
LINE
  5
2B9F8
  8
0
 10
3129.2595624969289929
 20
149.979306896458894
 30
0.0
 11
3129.2595624969239907
 21
149.3100155579539887
 31
0.0
  0
ARC
  5
2B9F9
  8
0
 10
3128.8166491110278002
 20
149.1741887862588953
 30
0.0
 40
0.0098425197000021
 50
180.0000000000146088
 51
270.0
  0
LINE
  5
2B9FA
  8
0
 10
3128.8068065913289502
 20
149.1741887862588953
 30
0.0
 11
3128.8068065913289502
 21
149.2903305185589033
 31
0.0
  0
ARC
  5
2B9FB
  8
0
 10
3129.111924769804773
 20
149.1741886210836867
 30
0.0
 40
0.0098423546249592
 50
269.9996025390817067
 51
0.000961542873106
  0
LINE
  5
2B9FC
  8
0
 10
3129.1217671244289704
 20
149.1741887862588953
 30
0.0
 11
3129.1217651753281643
 21
149.2903305185589033
 31
0.0
  0
ARC
  5
2B9FD
  8
0
 10
3123.9883601588890087
 20
148.8550518406242986
 30
0.0
 40
0.7895167375199722
 50
44.7752511273378175
 51
69.1700858548093436
  0
LINE
  5
2B9FE
  8
0
 10
3124.5488183818288235
 20
149.4111303055589133
 30
0.0
 11
3127.6996102595580851
 21
146.2580393329193953
 31
0.0
  0
ARC
  5
2B9FF
  8
0
 10
3128.1826242288498179
 20
146.7355605831685921
 30
0.0
 40
0.6792120644286236
 50
224.6724850191322957
 51
229.2819810247904968
  0
ARC
  5
2BA00
  8
0
 10
3128.0161532431548039
 20
146.5421432797035948
 30
0.0
 40
0.4240202887811723
 50
229.2819810247904968
 51
252.0772824376763026
  0
ARC
  5
2BA01
  8
0
 10
3128.0315980570371721
 20
146.5898965991860052
 30
0.0
 40
0.4742091500700172
 50
252.0772824376763026
 51
270.6881340462078924
  0
ARC
  5
2BA02
  8
0
 10
3128.0376567006310324
 20
146.0854628796408861
 30
0.0
 40
0.0302609526876201
 50
45.7165970887379132
 51
90.6881340461817871
  0
LINE
  5
2BA03
  8
0
 10
3128.0587851380291795
 20
146.1071265448588861
 30
0.0
 11
3128.463308228727783
 21
145.7030862987589046
 31
0.0
  0
ARC
  5
2BA04
  8
0
 10
3128.4424419838860558
 20
145.682194277236789
 30
0.0
 40
0.0295275589427763
 50
314.9999854077490795
 51
45.0353677218463133
  0
LINE
  5
2BA05
  8
0
 10
3128.4633211157288315
 20
145.6613151347588939
 30
0.0
 11
3127.7886592631289204
 21
144.98665328205891
 31
0.0
  0
ARC
  5
2BA06
  8
0
 10
3127.7677533509831846
 20
145.0075830627031053
 30
0.0
 40
0.0295823068726845
 50
225.1369382319562931
 51
314.9672831459268991
  0
LINE
  5
2BA07
  8
0
 10
3127.7468855550278022
 20
144.9866152785589009
 30
0.0
 11
3124.7182108799402158
 21
148.0116778799873885
 31
0.0
  0
LINE
  5
2BA08
  8
0
 10
3123.6341915663570035
 20
148.761121096865196
 30
0.0
 11
3124.1489896082289306
 21
148.246938828658898
 31
0.0
  0
ARC
  5
2BA09
  8
0
 10
3124.1641658148278111
 20
148.2621571645838969
 30
0.0
 40
0.0214922077755874
 50
225.0794165931746136
 51
314.4311486480369808
  0
LINE
  5
2BA0A
  8
0
 10
3124.1792114705081076
 20
148.2468097465524863
 30
0.0
 11
3124.3977974514218658
 21
148.4618634917478914
 31
0.0
  0
ARC
  5
2BA0B
  8
0
 10
3124.389421115028199
 20
148.4702773086144987
 30
0.0
 40
0.0118724608084137
 50
314.8720994799044774
 51
45.0782259189214329
  0
ARC
  5
2BA0C
  8
0
 10
3122.7438914197000486
 20
146.801967885469395
 30
0.0
 40
2.3551650212915241
 50
45.3922607898659294
 51
49.5424179338636677
  0
ARC
  5
2BA0D
  8
0
 10
3123.8640113882897822
 20
148.0583030314905102
 30
0.0
 40
0.6734284508210456
 50
52.6977259367309685
 51
68.8970407588746667
  0
ARC
  5
2BA0E
  8
0
 10
3124.115019525362186
 20
148.7047482882429961
 30
0.0
 40
0.020087738551787
 50
173.5706267717382048
 51
244.829464268166987
  0
LINE
  5
2BA0F
  8
0
 10
3124.4001454993122024
 20
148.4753707266586105
 30
0.0
 11
3124.4416339815729771
 21
148.4753707249803938
 31
0.0
  0
LINE
  5
2BA10
  8
0
 10
3124.3480090987991389
 20
149.557887578668101
 30
0.0
 11
3120.3764953837330722
 21
150.8458735424813995
 31
0.0
  0
LINE
  5
2BA11
  8
0
 10
3128.2162554102292233
 20
144.6491032535282102
 30
0.0
 11
3128.8008710911290109
 21
145.2337188131589016
 31
0.0
  0
LINE
  5
2BA12
  8
0
 10
3128.8008710911290109
 20
145.2337188131589016
 30
0.0
 11
3128.8008712529281183
 21
145.28939667425891
 31
0.0
  0
LINE
  5
2BA13
  8
0
 10
3128.8008712529281183
 20
145.28939667425891
 30
0.0
 11
3128.7451935536291785
 21
145.3450743735589015
 31
0.0
  0
LINE
  5
2BA14
  8
0
 10
3128.7451935536291785
 20
145.3450743735589015
 30
0.0
 11
3128.1049000116281604
 21
144.7047808315589066
 31
0.0
  0
LINE
  5
2BA15
  8
0
 10
3128.1049000116281604
 20
144.7047808315589066
 30
0.0
 11
3128.1605777109289193
 21
144.6491032535282102
 31
0.0
  0
LINE
  5
2BA16
  8
0
 10
3128.1605777109289193
 20
144.6491032535282102
 30
0.0
 11
3128.2162554103279035
 21
144.6491032535282102
 31
0.0
  0
LINE
  5
2BA17
  8
0
 10
3128.1049000116281604
 20
144.7047808315589066
 30
0.0
 11
3128.0719662988290111
 21
144.6959562685123899
 31
0.0
  0
LINE
  5
2BA18
  8
0
 10
3128.0719662988290111
 20
144.6959562685123899
 30
0.0
 11
3127.9012035022788041
 21
144.8667190663088888
 31
0.0
  0
LINE
  5
2BA19
  8
0
 10
3127.9012035022788041
 20
144.8667190663088888
 30
0.0
 11
3127.9100280640282108
 21
144.8996527790588971
 31
0.0
  0
LINE
  5
2BA1A
  8
0
 10
3127.9100280640282108
 20
144.8996527790588971
 30
0.0
 11
3127.8543503647279067
 21
144.9553304783588885
 31
0.0
  0
LINE
  5
2BA1B
  8
0
 10
3127.8543503647279067
 20
144.9553304783588885
 30
0.0
 11
3128.4946439067780375
 21
145.5956240204089056
 31
0.0
  0
LINE
  5
2BA1C
  8
0
 10
3128.4946439067780375
 20
145.5956240204089056
 30
0.0
 11
3128.5503216060328668
 21
145.5399463211633133
 31
0.0
  0
LINE
  5
2BA1D
  8
0
 10
3128.5503216060328668
 20
145.5399463211633133
 30
0.0
 11
3128.583255318828833
 21
145.5487708828588893
 31
0.0
  0
LINE
  5
2BA1E
  8
0
 10
3128.583255318828833
 20
145.5487708828588893
 30
0.0
 11
3128.75401811537904
 21
145.378008086308995
 31
0.0
  0
LINE
  5
2BA1F
  8
0
 10
3128.75401811537904
 20
145.378008086308995
 30
0.0
 11
3128.7451935536291785
 21
145.3450743735589015
 31
0.0
  0
LINE
  5
2BA20
  8
0
 10
3128.4333984375280124
 20
145.534378551158909
 30
0.0
 11
3128.398810909679014
 21
145.5689660790089022
 31
0.0
  0
ARC
  5
2BA21
  8
0
 10
3128.4127303345258042
 20
145.5828855038566019
 30
0.0
 40
0.0196850394000004
 50
134.9999999903907906
 51
224.9999999999953957
  0
LINE
  5
2BA22
  8
0
 10
3127.9008711227279491
 20
145.0018512363589025
 30
0.0
 11
3127.9079157203332215
 21
145.0242560613534977
 31
0.0
  0
LINE
  5
2BA23
  8
0
 10
3127.9079157203332215
 20
145.0242560613534977
 30
0.0
 11
3127.8810083061289333
 21
145.0511634754589068
 31
0.0
  0
ARC
  5
2BA24
  8
0
 10
3127.8670888812807789
 20
145.0372440505599911
 30
0.0
 40
0.0196850394362237
 50
45.0000001054482794
 51
134.9999996982604955
  0
ARC
  5
2BA25
  8
0
 10
3127.9219013321408056
 20
145.0198609666460925
 30
0.0
 40
0.0146599520852464
 50
142.7596091621634002
 51
162.5542406765445094
  0
ARC
  5
2BA26
  8
0
 10
3128.2731497093300277
 20
144.7528584535345999
 30
0.0
 40
0.4558693858982818
 50
139.3342026055919973
 51
142.7596091621634002
  0
ARC
  5
2BA27
  8
0
 10
3144.0918558031771681
 20
130.3615944404332083
 30
0.0
 40
21.8411967695032985
 50
136.5214524511833076
 51
137.7392481656538905
  0
ARC
  5
2BA28
  8
0
 10
3129.3258570968359891
 20
144.3046941413909963
 30
0.0
 40
1.5330998354254599
 50
127.273481578128596
 51
134.9264980112398007
  0
ARC
  5
2BA29
  8
0
 10
3127.5654789538189107
 20
145.9973315024849114
 30
0.0
 40
0.9568046852192368
 50
325.4055939604465948
 51
330.3957750218982028
  0
LINE
  5
2BA2A
  8
0
 10
3128.8008712529281183
 20
145.28939667425891
 30
0.0
 11
3128.1605777109289193
 21
144.6491032535282102
 31
0.0
  0
LINE
  5
2BA2B
  8
0
 10
3127.9012035022788041
 20
144.8667190663088888
 30
0.0
 11
3127.9062274397288093
 21
144.871743003758894
 31
0.0
  0
LINE
  5
2BA2C
  8
0
 10
3127.9062274397288093
 20
144.871743003758894
 30
0.0
 11
3128.0769902363290385
 21
144.7009802072589082
 31
0.0
  0
LINE
  5
2BA2D
  8
0
 10
3128.0769902363290385
 20
144.7009802072589082
 30
0.0
 11
3128.0719662988290111
 21
144.6959562685123899
 31
0.0
  0
ARC
  5
2BA2E
  8
0
 10
3127.9913003427291187
 20
144.9041635691621082
 30
0.0
 40
0.2205135742273662
 50
292.8669411995115865
 51
337.1330587990640879
  0
LINE
  5
2BA2F
  8
0
 10
3128.1944837046289649
 20
144.8184736755588915
 30
0.0
 11
3128.2954987387288384
 21
144.9194887096589071
 31
0.0
  0
ARC
  5
2BA30
  8
0
 10
3127.8464271569391713
 20
145.6035472284391119
 30
0.0
 40
0.8182917222398407
 50
303.2841476232455875
 51
326.7158523523838198
  0
LINE
  5
2BA31
  8
0
 10
3128.5304856755287801
 20
145.1544756463588897
 30
0.0
 11
3128.6315007095281544
 21
145.2554906804589052
 31
0.0
  0
ARC
  5
2BA32
  8
0
 10
3128.5470298411441945
 20
145.4573217920111858
 30
0.0
 40
0.2188662408530445
 50
292.6647717381051166
 51
337.3352282619546259
  0
LINE
  5
2BA33
  8
0
 10
3128.7489941779281253
 20
145.3729841488589045
 30
0.0
 11
3128.75401811537904
 21
145.378008086308995
 31
0.0
  0
LINE
  5
2BA34
  8
0
 10
3128.7489941779281253
 20
145.3729841488589045
 30
0.0
 11
3128.57823138142885
 21
145.5437469454589063
 31
0.0
  0
LINE
  5
2BA35
  8
0
 10
3128.57823138142885
 20
145.5437469454589063
 30
0.0
 11
3128.583255318828833
 21
145.5487708828588893
 31
0.0
  0
ARC
  5
2BA36
  8
0
 10
3128.6566054429658834
 20
145.3478794155209926
 30
0.0
 40
0.2109658332667196
 50
111.8082303876126957
 51
158.1917696123933013
  0
LINE
  5
2BA37
  8
0
 10
3128.4607379130288791
 20
145.426253477058907
 30
0.0
 11
3128.3597228789290057
 21
145.3252384429588915
 31
0.0
  0
ARC
  5
2BA38
  8
0
 10
3128.8087944553949455
 20
144.6411799297924858
 30
0.0
 40
0.8182917146259969
 50
123.2841475274067022
 51
146.7158524726004032
  0
LINE
  5
2BA39
  8
0
 10
3128.1247359422291083
 20
145.0902515062589089
 30
0.0
 11
3128.0237209081278706
 21
144.9892364721588933
 31
0.0
  0
ARC
  5
2BA3A
  8
0
 10
3128.1020949704129634
 20
144.793368941474597
 30
0.0
 40
0.2109658342370416
 50
111.8082305005122947
 51
158.1917694994882879
  0
LINE
  5
2BA3B
  8
0
 10
3127.9100280640282108
 20
144.8996527790588971
 30
0.0
 11
3128.5503216060260456
 21
145.5399463211614091
 31
0.0
  0
LINE
  5
2BA3C
  8
0
 10
3127.7241294260288669
 20
146.2344502717089938
 30
0.0
 11
3127.7241294271739207
 21
147.325835769058898
 31
0.0
  0
ARC
  5
2BA3D
  8
0
 10
3125.9283693044430947
 20
147.3378755675348941
 30
0.0
 40
1.7958005592205359
 50
359.6158838540420106
 51
12.0161103936957598
  0
ARC
  5
2BA3E
  8
0
 10
3126.601152819975141
 20
147.4810778499278001
 30
0.0
 40
1.1079455218369589
 50
12.01611039369417
 51
40.0766130473143676
  0
ARC
  5
2BA3F
  8
0
 10
3126.8270258715001546
 20
147.6110987729819044
 30
0.0
 40
0.8526400322801215
 50
43.1644937086371385
 51
79.6884948326076739
  0
ARC
  5
2BA40
  8
0
 10
3126.7211858286727875
 20
147.1490170292439075
 30
0.0
 40
1.3263770298664559
 50
78.7632524694216301
 51
90.3453688302346052
  0
LINE
  5
2BA41
  8
0
 10
3126.7131907108278028
 20
148.475369962458899
 30
0.0
 11
3125.4838953163080078
 21
148.4753710566951099
 31
0.0
  0
LINE
  5
2BA42
  8
0
 10
3128.3136913840289708
 20
144.6908614066589109
 30
0.0
 11
3128.2858525344281588
 21
144.7187002562588987
 31
0.0
  0
LINE
  5
2BA43
  8
0
 10
3128.7591129785278099
 20
145.1362830010588993
 30
0.0
 11
3128.731274128827863
 21
145.1641218507589031
 31
0.0
  0
LINE
  5
2BA44
  8
0
 10
3128.0237209081278706
 20
144.9892364721588933
 30
0.0
 11
3128.1944837046789871
 21
144.8184736756089137
 31
0.0
  0
LINE
  5
2BA45
  8
0
 10
3128.2954987387288384
 20
144.9194887096589071
 30
0.0
 11
3128.1247359421781766
 21
145.0902515062088867
 31
0.0
  0
LINE
  5
2BA46
  8
0
 10
3128.3597228789290057
 20
145.3252384429588915
 30
0.0
 11
3128.5304856755287801
 21
145.1544756463588897
 31
0.0
  0
LINE
  5
2BA47
  8
0
 10
3128.6313674842967885
 20
145.2553574552271982
 30
0.0
 11
3128.4607379130288791
 21
145.426253477058907
 31
0.0
  0
ARC
  5
2BA48
  8
0
 10
3147.1963082450861293
 20
127.4392803487436936
 30
0.0
 40
26.0860265240234988
 50
136.1082740947684044
 51
137.4311241870829861
  0
LINE
  5
2BA4B
  8
0
 10
3129.0815113158291751
 20
144.4005667389589007
 30
0.0
 11
3129.0815113158291751
 21
144.4672990224588887
 31
0.0
  0
ARC
  5
2BA4C
  8
0
 10
3120.3678411059509017
 20
150.7951746045195875
 30
0.0
 40
0.0514322742485518
 50
80.3130126511630635
 51
88.2883238061630351
  0
ENDSEC
  0
EOF
