  0
SECTION
  2
HEADER
  9
$ACADVER
  1
AC1009
  9
$INSBASE
 10
3733.0783182456011673
 20
134.0188679156105138
 30
0.0
  9
$EXTMIN
 10
3726.8019529463599611
 20
134.0100299636968089
 30
-0.0015258207003583
  9
$EXTMAX
 10
3739.3543296786610881
 20
138.0978856711350886
 30
0.0000000349246037
  9
$LIMMIN
 10
0.0
 20
0.0
  9
$LIMMAX
 10
11.6929133858000007
 20
8.2677165353999982
  9
$ORTHOMODE
 70
     1
  9
$REGENMODE
 70
     1
  9
$FILLMODE
 70
     1
  9
$QTEXTMODE
 70
     0
  9
$MIRRTEXT
 70
     0
  9
$DRAGMODE
 70
     2
  9
$LTSCALE
 40
0.6431102362
  9
$OSMODE
 70
  2039
  9
$ATTMODE
 70
     1
  9
$TEXTSIZE
 40
0.2
  9
$TRACEWID
 40
0.05
  9
$TEXTSTYLE
  7
STANDARD
  9
$CLAYER
  8
0
  9
$CELTYPE
  6
BYLAYER
  9
$CECOLOR
 62
   256
  9
$DIMSCALE
 40
1.0
  9
$DIMASZ
 40
0.1875
  9
$DIMEXO
 40
0.0625
  9
$DIMDLI
 40
0.4443307087
  9
$DIMRND
 40
0.0
  9
$DIMDLE
 40
0.0
  9
$DIMEXE
 40
0.125
  9
$DIMTP
 40
0.01
  9
$DIMTM
 40
0.01
  9
$DIMTXT
 40
2.0
  9
$DIMCEN
 40
0.1052362205
  9
$DIMTSZ
 40
0.0
  9
$DIMTOL
 70
     1
  9
$DIMLIM
 70
     0
  9
$DIMTIH
 70
     1
  9
$DIMTOH
 70
     1
  9
$DIMSE1
 70
     0
  9
$DIMSE2
 70
     0
  9
$DIMTAD
 70
     0
  9
$DIMZIN
 70
     0
  9
$DIMBLK
  1

  9
$DIMASO
 70
     1
  9
$DIMSHO
 70
     1
  9
$DIMPOST
  1
\X
  9
$DIMAPOST
  1

  9
$DIMALT
 70
     1
  9
$DIMALTD
 70
     2
  9
$DIMALTF
 40
25.3999999999999986
  9
$DIMLFAC
 40
1.0
  9
$DIMTOFL
 70
     0
  9
$DIMTVP
 40
0.0
  9
$DIMTIX
 70
     0
  9
$DIMSOXD
 70
     0
  9
$DIMSAH
 70
     0
  9
$DIMBLK1
  1

  9
$DIMBLK2
  1

  9
$DIMSTYLE
  2
STANDARD
  9
$DIMCLRD
 70
     0
  9
$DIMCLRE
 70
     0
  9
$DIMCLRT
 70
     0
  9
$DIMTFAC
 40
1.0
  9
$DIMGAP
 40
0.09
  9
$LUNITS
 70
     2
  9
$LUPREC
 70
     4
  9
$SKETCHINC
 40
0.1
  9
$FILLETRAD
 40
0.0
  9
$AUNITS
 70
     0
  9
$AUPREC
 70
     0
  9
$MENU
  1
.
  9
$ELEVATION
 40
0.0
  9
$PELEVATION
 40
0.0
  9
$THICKNESS
 40
0.0
  9
$LIMCHECK
 70
     0
  9
$BLIPMODE
 70
     0
  9
$CHAMFERA
 40
0.0
  9
$CHAMFERB
 40
0.0
  9
$SKPOLY
 70
     0
  9
$TDCREATE
 40
2458060.468368056230247
  9
$TDUPDATE
 40
2459214.7994212959893048
  9
$TDINDWG
 40
0.3233172454
  9
$TDUSRTIMER
 40
0.3233172454
  9
$USRTIMER
 70
     1
  9
$ANGBASE
 50
0.0
  9
$ANGDIR
 70
     0
  9
$PDMODE
 70
     0
  9
$PDSIZE
 40
0.3125
  9
$PLINEWID
 40
0.0
  9
$COORDS
 70
     1
  9
$SPLFRAME
 70
     0
  9
$SPLINETYPE
 70
     6
  9
$SPLINESEGS
 70
     8
  9
$ATTDIA
 70
     1
  9
$ATTREQ
 70
     1
  9
$HANDLING
 70
     1
  9
$HANDSEED
  5
11D6D
  9
$SURFTAB1
 70
     6
  9
$SURFTAB2
 70
     6
  9
$SURFTYPE
 70
     6
  9
$SURFU
 70
     6
  9
$SURFV
 70
     6
  9
$UCSNAME
  2

  9
$UCSORG
 10
0.0
 20
0.0
 30
0.0
  9
$UCSXDIR
 10
1.0
 20
0.0
 30
0.0
  9
$UCSYDIR
 10
0.0
 20
1.0
 30
0.0
  9
$PUCSNAME
  2

  9
$PUCSORG
 10
0.0
 20
0.0
 30
0.0
  9
$PUCSXDIR
 10
1.0
 20
0.0
 30
0.0
  9
$PUCSYDIR
 10
0.0
 20
1.0
 30
0.0
  9
$USERI1
 70
     0
  9
$USERI2
 70
     0
  9
$USERI3
 70
     0
  9
$USERI4
 70
     0
  9
$USERI5
 70
     0
  9
$USERR1
 40
0.0
  9
$USERR2
 40
0.0
  9
$USERR3
 40
0.0
  9
$USERR4
 40
0.0
  9
$USERR5
 40
0.0
  9
$WORLDVIEW
 70
     1
  9
$SHADEDGE
 70
     3
  9
$SHADEDIF
 70
    70
  9
$TILEMODE
 70
     1
  9
$MAXACTVP
 70
    64
  9
$PLIMCHECK
 70
     0
  9
$PEXTMIN
 10
1.0000000000000000E+20
 20
1.0000000000000000E+20
 30
1.0000000000000000E+20
  9
$PEXTMAX
 10
-1.0000000000000000E+20
 20
-1.0000000000000000E+20
 30
-1.0000000000000000E+20
  9
$PLIMMIN
 10
0.0
 20
0.0
  9
$PLIMMAX
 10
12.0
 20
9.0
  9
$UNITMODE
 70
     0
  9
$VISRETAIN
 70
     1
  9
$PLINEGEN
 70
     0
  9
$PSLTSCALE
 70
     1
  0
ENDSEC
  0
SECTION
  2
TABLES
  0
TABLE
  2
VPORT
 70
     1
  0
VPORT
  2
*ACTIVE
 70
     0
 10
0.0
 20
0.0
 11
1.0
 21
1.0
 12
-70.4659260703019754
 22
10.0586956206660307
 13
0.0
 23
0.0
 14
1.0
 24
1.0
 15
0.0
 25
0.0
 16
0.0
 26
0.0
 36
17.1152628219792007
 17
3803.5440673828129547
 27
125.9952621967499056
 37
0.0
 40
4.7541201821236898
 41
2.6486111111111108
 42
50.0
 43
0.0
 44
0.0
 50
0.0
 51
0.0
 71
     0
 72
   100
 73
     1
 74
     1
 75
     0
 76
     0
 77
     0
 78
     0
  0
ENDTAB
  0
TABLE
  2
LTYPE
 70
     2
  0
LTYPE
  2
CONTINUOUS
 70
     0
  3
Solid line
 72
    65
 73
     0
 40
0.0
  0
LTYPE
  2
PHANTOM2
 70
     0
  3
___ _ _ ___ _ _ ___ _ _ ___ _ _
 72
    65
 73
     6
 40
1.25
 49
0.625
 49
-0.125
 49
0.125
 49
-0.125
 49
0.125
 49
-0.125
  0
ENDTAB
  0
TABLE
  2
LAYER
 70
     2
  0
LAYER
  2
0
 70
     0
 62
   255
  6
CONTINUOUS
  0
LAYER
  2
DEFPOINTS
 70
     0
 62
     7
  6
CONTINUOUS
  0
ENDTAB
  0
TABLE
  2
STYLE
 70
     1
  0
STYLE
  2
STANDARD
 70
     0
 40
0.0
 41
0.8
 50
0.0
 71
     0
 42
0.2
  3
txt
  4

  0
ENDTAB
  0
TABLE
  2
VIEW
 70
     0
  0
ENDTAB
  0
TABLE
  2
UCS
 70
     0
  0
ENDTAB
  0
TABLE
  2
APPID
 70
     9
  0
APPID
  2
ACAD
 70
     0
  0
APPID
  2
ACAD_MLEADERVER
 70
     0
  0
APPID
  2
ACAD_EXEMPT_FROM_CAD_STANDARDS
 70
     0
  0
APPID
  2
ACAD_NAV_VCDISPLAY
 70
     0
  0
APPID
  2
ACAECLAYERSTANDARD
 70
     0
  0
APPID
  2
ACCMTRANSPARENCY
 70
     0
  0
APPID
  2
ACAD_DSTYLE_DIMJAG
 70
     0
  0
APPID
  2
ACAD_DSTYLE_DIMTALN
 70
     0
  0
APPID
  2
ACDBATTR
 70
     0
  0
ENDTAB
  0
TABLE
  2
DIMSTYLE
 70
     1
  0
DIMSTYLE
  2
STANDARD
 70
     0
  3

  4

  5

  6

  7

 40
1.0
 41
0.1875
 42
0.0625
 43
0.38
 44
0.125
 45
0.0
 46
0.0
 47
0.01
 48
0.01
140
0.15625
141
0.09
142
0.0
143
25.3999999999999986
144
1.0
145
0.0
146
1.0
147
0.09
 71
     1
 72
     0
 73
     1
 74
     1
 75
     0
 76
     0
 77
     0
 78
     4
170
     0
171
     2
172
     0
173
     0
174
     0
175
     0
176
     0
177
     0
178
     0
  0
ENDTAB
  0
ENDSEC
  0
SECTION
  2
BLOCKS
  0
BLOCK
  8
0
  2
$MODEL_SPACE
 70
     0
 10
0.0
 20
0.0
 30
0.0
  3
$MODEL_SPACE
  1

  0
ENDBLK
  5
21
  8
0
  0
BLOCK
 67
     1
  8
0
  2
$PAPER_SPACE
 70
     0
 10
0.0
 20
0.0
 30
0.0
  3
$PAPER_SPACE
  1

  0
ENDBLK
  5
1D
 67
     1
  8
0
  0
BLOCK
  8
0
  2
_FILLED
 70
     0
 10
0.0
 20
0.0
 30
0.0
  3
_FILLED
  1

  0
SOLID
  5
D1BB
  8
0
  6
BYBLOCK
 62
     0
 10
0.0
 20
0.0
 30
0.0
 11
-1.0
 21
0.1666666667
 31
0.0
 12
-1.0
 22
-0.1666666667
 32
0.0
 13
-1.0
 23
-0.1666666667
 33
0.0
  0
ENDBLK
  5
D1BC
  8
0
  6
BYBLOCK
 62
     0
  0
ENDSEC
  0
SECTION
  2
ENTITIES
  0
ATTDEF
  5
10F70
  8
DEFPOINTS
 10
3733.0785966603261841
 20
134.0229148995890114
 30
0.0
 40
0.001
  1
K-31237T-4
  3

  2
MODELNUMBER
 70
     0
1001
ACDBATTR
1070
     0
1070
     1
  0
ATTDEF
  5
10F71
  8
DEFPOINTS
 10
3733.0785966603261841
 20
134.0212482329224031
 30
0.0
 40
0.001
  1
ALEO S
  3

  2
TRADENAME
 70
     0
1001
ACDBATTR
1070
     0
1070
     1
  0
ATTDEF
  5
10F72
  8
DEFPOINTS
 10
3733.0785966603261841
 20
134.0195815662557095
 30
0.0
 40
0.001
  1
BATHROOM SINK FAUCET
  3

  2
PRODUCT
 70
     0
1001
ACDBATTR
1070
     0
1070
     1
  0
LINE
  5
11779
  8
0
 10
3734.0232001353510896
 20
134.0188679156105138
 30
0.0
 11
3732.1334363557512006
 21
134.0188679156105138
 31
0.0
  0
LINE
  5
1177B
  8
0
 10
3732.1334363557512006
 20
134.0188679156105138
 30
0.0
 11
3732.1334363557512006
 21
134.1960332699104868
 31
0.0
  0
ARC
  5
1177C
  8
0
 10
3732.1531213967841722
 20
134.1960332697398997
 30
0.0
 40
0.019685041034045
 50
89.9779072878633031
 51
179.9999995032790139
  0
LINE
  5
1177D
  8
0
 10
3732.1531289871509216
 20
134.2157183093104891
 30
0.0
 11
3734.0035150959511157
 21
134.2157183093104891
 31
0.0
  0
ARC
  5
1177E
  8
0
 10
3734.0035150959511157
 20
134.1960332699104868
 30
0.0
 40
0.0196850394000008
 50
0.0000000000016284
 51
90.0
  0
LINE
  5
1177F
  8
0
 10
3734.0232001353510896
 20
134.1960332699104868
 30
0.0
 11
3734.0232001353510896
 21
134.0188679156105138
 31
0.0
  0
ARC
  5
11780
  8
0
 10
3732.279105661380072
 20
138.0661120101131871
 30
0.0
 40
0.0275590693275641
 50
89.9417746787004972
 51
180.0000000056164993
  0
LINE
  5
11781
  8
0
 10
3732.2791336675509228
 20
138.0936710652104864
 30
0.0
 11
3733.8770439955301299
 21
138.093669719585705
 31
0.0
  0
ARC
  5
11782
  8
0
 10
3781.5196273587771429
 20
133.6398195042858958
 30
0.0
 40
49.4196951326205678
 50
175.2506451113698063
 51
175.5108008765652983
  0
ARC
  5
11783
  8
0
 10
3734.3672796710761759
 20
137.6742277467934912
 30
0.0
 40
2.0984467187224931
 50
172.4144737115258863
 51
178.4327352768382013
  0
ARC
  5
11784
  8
0
 10
3732.6314904253008535
 20
137.9088051749425006
 30
0.0
 40
0.3468984451874714
 50
165.7409927142003028
 51
172.9744018288477889
  0
ARC
  5
11785
  8
0
 10
3732.3465918199931366
 20
137.980935275586603
 30
0.0
 40
0.0530115453002077
 50
143.0758767503355955
 51
165.4554311030285874
  0
ARC
  5
11786
  8
0
 10
3732.3086891510170062
 20
138.0094183666273011
 30
0.0
 40
0.0055995342617941
 50
99.0698640417715239
 51
143.0758767503317017
  0
LINE
  5
11787
  8
0
 10
3732.3078064477508633
 20
138.0149478891104877
 30
0.0
 11
3733.9050898991508802
 21
138.0149478890525927
 31
0.0
  0
ARC
  5
11788
  8
0
 10
3733.0795007041310782
 20
138.2261106196804974
 30
0.0
 40
0.723794312694966
 50
196.9637967141553077
 51
206.297026385215986
  0
ARC
  5
11789
  8
0
 10
3731.8135053969390356
 20
137.6004985186600038
 30
0.0
 40
0.6883440016268111
 50
16.7955894073926189
 51
26.2970263852159505
  0
ARC
  5
1178A
  8
0
 10
3731.4358833402029632
 20
137.4865194160639135
 30
0.0
 40
1.082792545243809
 50
10.7502593684351293
 51
16.7955894073926189
  0
ARC
  5
1178B
  8
0
 10
3742.4079161417698742
 20
139.4121790530244027
 30
0.0
 40
10.0570569484255508
 50
189.8686984432075917
 51
191.2542825646098947
  0
ARC
  5
1178C
  8
0
 10
3732.619585112212917
 20
137.4631969287343054
 30
0.0
 40
0.0765873539469535
 50
190.3727216393849062
 51
218.6955064309283898
  0
ARC
  5
1178D
  8
0
 10
3732.708760492260808
 20
137.5346283979127122
 30
0.0
 40
0.1908445340091555
 50
218.6955064309283898
 51
245.9070319652419983
  0
ARC
  5
1178E
  8
0
 10
3732.8704511990199535
 20
137.8465482670835911
 30
0.0
 40
0.5419757197989029
 50
243.7632916493126913
 51
256.008239272329206
  0
ARC
  5
1178F
  8
0
 10
3733.0447637653192032
 20
138.5408542800489897
 30
0.0
 40
1.257828369162288
 50
255.9503957629019055
 51
267.2550687034116095
  0
ARC
  5
11790
  8
0
 10
3733.0846950532668416
 20
139.2136075056407094
 30
0.0
 40
1.9317372128321451
 50
267.0276489009037846
 51
269.8108620431482905
  0
ARC
  5
11791
  8
0
 10
3733.0699185716071042
 20
138.1967153916571078
 30
0.0
 40
0.9085208882624645
 50
257.9790267800919992
 51
270.5297321524653853
  0
ARC
  5
11792
  8
0
 10
3733.0776154690861404
 20
136.0706522700477024
 30
0.0
 40
1.5224464447671231
 50
89.9735516938626887
 51
94.4093017241662977
  0
ARC
  5
11793
  8
0
 10
3733.0565769418108175
 20
136.3434932585358013
 30
0.0
 40
1.248795527302744
 50
94.4093017241662977
 51
102.4472121657644976
  0
ARC
  5
11794
  8
0
 10
3732.9092568846781433
 20
137.0109205257328995
 30
0.0
 40
0.5653027649184577
 50
102.4472121657644976
 51
115.9881757846463017
  0
ARC
  5
11795
  8
0
 10
3732.7323905543030378
 20
137.373740260349706
 30
0.0
 40
0.1616694428945611
 50
115.9881757846463017
 51
140.4726492570447931
  0
ARC
  5
11796
  8
0
 10
3732.6469716950718976
 20
137.4442226448607869
 30
0.0
 40
0.0509258289086751
 50
140.4726492570447931
 51
178.1156228521037974
  0
ARC
  5
11797
  8
0
 10
3732.6451999912069368
 20
137.444280934713106
 30
0.0
 40
0.0491531664219937
 50
178.1156228521037974
 51
204.5706269361214993
  0
ARC
  5
11798
  8
0
 10
3732.7020881253970401
 20
137.4791702167123901
 30
0.0
 40
0.1156797085172482
 50
208.5734622697154066
 51
241.0553368355506905
  0
ARC
  5
11799
  8
0
 10
3732.8854460456809647
 20
137.8042695050974942
 30
0.0
 40
0.4889187398137959
 50
240.6899799194277989
 51
258.0625175056243847
  0
ARC
  5
1179A
  8
0
 10
3733.0204116221698314
 20
138.3340897952737123
 30
0.0
 40
1.0354414740426181
 50
256.8197977218026153
 51
262.2455209942407919
  0
ARC
  5
1179B
  8
0
 10
3732.7845770982671638
 20
137.4739016959379967
 30
0.0
 40
0.0878891666333593
 50
118.5912137331930012
 51
147.2007496254296939
  0
ARC
  5
1179C
  8
0
 10
3732.7439531147088019
 20
137.500081314576903
 30
0.0
 40
0.0395602883907586
 50
147.2007496254296939
 51
189.9007527783340947
  0
ARC
  5
1179D
  8
0
 10
3732.7439545111869847
 20
137.5000815583200051
 30
0.0
 40
0.0395617059794971
 50
189.9007527783340947
 51
218.5691585677460864
  0
ARC
  5
1179E
  8
0
 10
3732.7761202882229554
 20
137.5211569439109098
 30
0.0
 40
0.0779324454112698
 50
215.9390808502074037
 51
227.9737803300974122
  0
LINE
  5
1179F
  8
0
 10
3732.7239875369509718
 20
137.4815079359105141
 30
0.0
 11
3732.7239875369509718
 21
137.4258753818104992
 31
0.0
  0
ARC
  5
117A0
  8
0
 10
3732.7940319340059432
 20
137.4258753818104992
 30
0.0
 40
0.0700443970552609
 50
180.0
 51
196.9898709272794122
  0
ARC
  5
117A1
  8
0
 10
3732.8052099663650552
 20
137.4297740071422993
 30
0.0
 40
0.0818750735195265
 50
197.3133353483567021
 51
216.845050905275599
  0
ARC
  5
117A2
  8
0
 10
3732.8721143452648903
 20
137.4875183157913057
 30
0.0
 40
0.1701515868542788
 50
218.896552804261205
 51
232.3603693664209118
  0
ARC
  5
117A3
  8
0
 10
3732.8908567882490388
 20
137.5255290650501081
 30
0.0
 40
0.211862394938086
 50
234.6249007844008929
 51
250.9331586883494936
  0
ARC
  5
117A4
  8
0
 10
3732.988169045298946
 20
137.7878005295879973
 30
0.0
 40
0.4915745790104011
 50
250.1991821782812053
 51
257.372027360624088
  0
ARC
  5
117A5
  8
0
 10
3732.7646334825981285
 20
137.4804513159511998
 30
0.0
 40
0.0406596771171118
 50
142.3183658262582014
 51
178.5108912675100896
  0
ARC
  5
117A6
  8
0
 10
3732.8464095729109431
 20
137.4033920116908973
 30
0.0
 40
0.1528793285802833
 50
108.9421539785760018
 51
138.1927369270910049
  0
ARC
  5
117A7
  8
0
 10
3733.0118227161219693
 20
136.967742072639993
 30
0.0
 40
0.6188154860349666
 50
96.2944306826481835
 51
110.3346220531979043
  0
ARC
  5
117A8
  8
0
 10
3733.0726735353518961
 20
136.5553395183227963
 30
0.0
 40
1.035516044397309
 50
92.5497372450102489
 51
97.1393117939276607
  0
ARC
  5
117A9
  8
0
 10
3733.0781510781789621
 20
136.456615030846109
 30
0.0
 40
1.1343869843531289
 50
89.9915566839988657
 51
92.6042961926474391
  0
ARC
  5
117AA
  8
0
 10
3733.0783112615249593
 20
136.4732201932351074
 30
0.0
 40
1.0157523430997519
 50
89.999606047609916
 51
91.9410374479455044
  0
ARC
  5
117AB
  8
0
 10
3733.0755728084732255
 20
136.554023257653995
 30
0.0
 40
0.9349028882802345
 50
91.9410374488579691
 51
98.7523493663394021
  0
ARC
  5
117AC
  8
0
 10
3733.0197831555201446
 20
136.9163956265265938
 30
0.0
 40
0.5682610751998423
 50
98.7523493663394021
 51
107.2762819767467022
  0
ARC
  5
117AD
  8
0
 10
3732.9336070296540129
 20
137.1934792480629994
 30
0.0
 40
0.2780858557322866
 50
107.2762819767461053
 51
117.1606486961887015
  0
ARC
  5
117AE
  8
0
 10
3732.867636580108865
 20
137.3220610041236114
 30
0.0
 40
0.1335681467658441
 50
117.1606486961887015
 51
131.052406964744705
  0
ARC
  5
117AF
  8
0
 10
3732.8172512458481833
 20
137.3799157391985943
 30
0.0
 40
0.0568488383802702
 50
131.0524069647437102
 51
148.785345022724897
  0
ARC
  5
117B0
  8
0
 10
3732.7982146219242168
 20
137.391451384512493
 30
0.0
 40
0.0345898140708766
 50
148.785345022724897
 51
197.3554873719529894
  0
ARC
  5
117B1
  8
0
 10
3732.8066252275070838
 20
137.3963519517909901
 30
0.0
 40
0.0441326524192749
 50
200.1720053400404993
 51
219.0582449164388947
  0
ARC
  5
117B2
  8
0
 10
3732.8581865323171769
 20
137.4454866701279059
 30
0.0
 40
0.1152698314683834
 50
221.8747628845312931
 51
243.799368853217203
  0
ARC
  5
117B3
  8
0
 10
3732.9564483796762033
 20
137.6451755594667077
 30
0.0
 40
0.3378255394873993
 50
243.799368853217203
 51
255.9971077373739945
  0
ARC
  5
117B4
  8
0
 10
3733.0519867011721544
 20
138.0282764515513918
 30
0.0
 40
0.7326595101513098
 50
255.9971077373739945
 51
264.7512014478360243
  0
ARC
  5
117B5
  8
0
 10
3733.0818852053162118
 20
138.3537344218788974
 30
0.0
 40
1.059487922318705
 50
264.7512014478360243
 51
268.6561661199916102
  0
ARC
  5
117B6
  8
0
 10
3733.078286546020081
 20
138.3133081808371116
 30
0.0
 40
1.018991848462135
 50
268.8051469772066753
 51
270.0017824011312086
  0
ARC
  5
117B7
  8
0
 10
3732.8253377904361514
 20
137.4393556277273092
 30
0.0
 40
0.066611902216884
 50
209.2511631747312038
 51
237.4001616521067888
  0
ARC
  5
117B8
  8
0
 10
3732.9511713115889506
 20
137.6361172440207099
 30
0.0
 40
0.3001696224747878
 50
237.4001616521067888
 51
243.6470308500537101
  0
ARC
  5
117B9
  8
0
 10
3733.0539545523211018
 20
137.8436001980668948
 30
0.0
 40
0.5317156671290992
 50
243.6470308500537101
 51
246.1769392899578861
  0
ARC
  5
117BA
  8
0
 10
3733.079403398679915
 20
137.9012376166201079
 30
0.0
 40
0.5947213478133538
 50
246.1769392899578861
 51
253.442430126975097
  0
ARC
  5
117BB
  8
0
 10
3733.0799396169700231
 20
137.9030412025128101
 30
0.0
 40
0.5966029567332107
 50
253.442430126975097
 51
263.5336384795975277
  0
ARC
  5
117BC
  8
0
 10
3733.090879564925217
 20
138.039988069119488
 30
0.0
 40
0.7339247630343883
 50
263.8890506059229892
 51
269.0193194710723219
  0
ARC
  5
117BD
  8
0
 10
3733.0782670681728632
 20
137.9392540812019945
 30
0.0
 40
0.6174770623326179
 50
259.2036640991721015
 51
270.0047487604689991
  0
ARC
  5
117BE
  8
0
 10
3733.0771772841999336
 20
137.9335392480147959
 30
0.0
 40
0.6116592493874546
 50
247.6658636763108063
 51
259.2036640991721015
  0
ARC
  5
117BF
  8
0
 10
3733.0690106008451039
 20
137.9136605596515039
 30
0.0
 40
0.5901683916088161
 50
245.2602585264739048
 51
247.6658636763108063
  0
LINE
  5
117C0
  8
0
 10
3732.8220268213958661
 20
137.3776589335870995
 30
0.0
 11
3732.8215214057840967
 21
137.3792940089034005
 31
0.0
  0
LINE
  5
117C1
  8
0
 10
3732.8215214057509002
 20
137.3792940089105059
 30
0.0
 11
3732.8179260790129774
 21
137.3809654572746979
 31
0.0
  0
LINE
  5
117C2
  8
0
 10
3732.8179260790129774
 20
137.3809654572746979
 30
0.0
 11
3732.8080835593268603
 21
137.3898325299659859
 31
0.0
  0
LINE
  5
117C3
  8
0
 10
3732.8080835593541451
 20
137.3898325299417138
 30
0.0
 11
3732.8179260789511318
 21
137.3897951913228894
 31
0.0
  0
LINE
  5
117C4
  8
0
 10
3732.8179260789511318
 20
137.3897951913228894
 30
0.0
 11
3732.8199438279179958
 21
137.3888567881803056
 31
0.0
  0
LINE
  5
117C5
  8
0
 10
3732.8199438279179958
 20
137.3888567881803056
 30
0.0
 11
3732.8376111184511501
 21
137.3992858450104961
 31
0.0
  0
ARC
  5
117C6
  8
0
 10
3733.0782945640130492
 20
137.9711488437573053
 30
0.0
 40
0.6177401663063696
 50
258.8280527778894111
 51
270.0021964818708966
  0
ARC
  5
117C7
  8
0
 10
3733.0770306166800765
 20
137.9647489999038044
 30
0.0
 40
0.6112167037128581
 50
249.7471901402738013
 51
258.8280527879545048
  0
ARC
  5
117C8
  8
0
 10
3733.0746732838579192
 20
137.9583601345804027
 30
0.0
 40
0.604406812512946
 50
245.2911559235274126
 51
249.7471901402738013
  0
LINE
  5
117C9
  8
0
 10
3732.8220268213030977
 20
137.4092905943849985
 30
0.0
 11
3732.8215214057509002
 21
137.407035449510488
 31
0.0
  0
LINE
  5
117CA
  8
0
 10
3732.8215214057509002
 20
137.407035449510488
 30
0.0
 11
3732.8179260790511762
 21
137.4087068978670914
 31
0.0
  0
LINE
  5
117CB
  8
0
 10
3732.8179260790511762
 20
137.4087068978670914
 30
0.0
 11
3732.808083559419174
 21
137.4070378852202055
 31
0.0
  0
LINE
  5
117CC
  8
0
 10
3732.808083559419174
 20
137.4070378852202055
 30
0.0
 11
3732.8179260790111584
 21
137.3964644612015036
 31
0.0
  0
LINE
  5
117CD
  8
0
 10
3732.8179260790111584
 20
137.3964644612015036
 30
0.0
 11
3732.8199438279511924
 21
137.3955260582104927
 31
0.0
  0
LINE
  5
117CE
  8
0
 10
3732.8199438279511924
 20
137.3955260582104927
 30
0.0
 11
3732.8340320228021483
 21
137.4039240440440039
 31
0.0
  0
ARC
  5
117CF
  8
0
 10
3732.8851539890738422
 20
137.3921914235787938
 30
0.0
 40
0.0652953666911665
 50
177.0726308703561926
 51
182.9273697533172083
  0
ARC
  5
117D0
  8
0
 10
3732.8461461054907886
 20
137.0767000213089943
 30
0.0
 40
0.3226987134416804
 50
90.248514691286033
 51
91.5155801609328847
  0
LINE
  5
117D1
  8
0
 10
3732.8215214057868252
 20
137.3792940088937939
 30
0.0
 11
3732.8376111184447836
 21
137.388749759683094
 31
0.0
  0
LINE
  5
117D2
  8
0
 10
3732.8376111184447836
 20
137.388749759683094
 30
0.0
 11
3732.846702965519853
 21
137.3985948900634924
 31
0.0
  0
LINE
  5
117D3
  8
0
 10
3732.8376111185998525
 20
137.3992858450986887
 30
0.0
 11
3732.8376111184447836
 21
137.388749759683094
 31
0.0
  0
LINE
  5
117D4
  8
0
 10
3732.8457649286510787
 20
137.3951601009136994
 30
0.0
 11
3732.8457649286510787
 21
137.3758284976105131
 31
0.0
  0
LINE
  5
117D5
  8
0
 10
3732.8220268213958661
 20
137.3776589335870995
 30
0.0
 11
3732.8385185205120251
 21
137.3873130846542949
 31
0.0
  0
LINE
  5
117D6
  8
0
 10
3732.8385185205120251
 20
137.3873130846542949
 30
0.0
 11
3732.838518520451089
 21
137.3758284976105131
 31
0.0
  0
LINE
  5
117D7
  8
0
 10
3732.838518520451089
 20
137.3758284976105131
 30
0.0
 11
3732.8726963762510422
 21
137.3758284976105131
 31
0.0
  0
LINE
  5
117D8
  8
0
 10
3732.8726963762510422
 20
137.3758284976105131
 30
0.0
 11
3732.8726963762510422
 21
137.3886991955587007
 31
0.0
  0
LINE
  5
117D9
  8
0
 10
3732.8498466823330091
 20
137.3973248466892016
 30
0.0
 11
3732.8457649287101958
 21
137.3951601009457022
 31
0.0
  0
LINE
  5
117DA
  8
0
 10
3732.8457649287101958
 20
137.3951601009457022
 30
0.0
 11
3732.8385185203810579
 21
137.3873130845778974
 31
0.0
  0
LINE
  5
117DB
  8
0
 10
3732.8654499680510526
 20
137.3758284976105131
 30
0.0
 11
3732.8654499680510526
 21
137.3913211596104986
 31
0.0
  0
LINE
  5
117DC
  8
0
 10
3732.8941962197509383
 20
137.3815156040147087
 30
0.0
 11
3732.8941962197509383
 21
137.3758284976105131
 31
0.0
  0
LINE
  5
117DD
  8
0
 10
3732.8941962197509383
 20
137.3758284976105131
 30
0.0
 11
3732.9134503584691629
 21
137.3758284976105131
 31
0.0
  0
LINE
  5
117DE
  8
0
 10
3732.8368637248859159
 20
137.4027035781772099
 30
0.0
 11
3732.835922409001796
 21
137.4016673550983967
 31
0.0
  0
LINE
  5
117DF
  8
0
 10
3732.835922409001796
 20
137.4016673550983967
 30
0.0
 11
3732.8390981895568075
 21
137.4017525798732891
 31
0.0
  0
LINE
  5
117E0
  8
0
 10
3732.8179260786751001
 20
137.4087068978033983
 30
0.0
 11
3732.8179260786751001
 21
137.3964644614690087
 31
0.0
  0
LINE
  5
117E1
  8
0
 10
3732.8215214057509002
 20
137.407035449510488
 30
0.0
 11
3732.8238487218209229
 21
137.4084559301126944
 31
0.0
  0
LINE
  5
117E2
  8
0
 10
3732.901442627950928
 20
137.3758284976105131
 30
0.0
 11
3732.901442627950928
 21
137.3792964252986906
 31
0.0
  0
LINE
  5
117E3
  8
0
 10
3732.8196147883941194
 20
137.3922395148146052
 30
0.0
 11
3732.8097722685902227
 21
137.4024404575810081
 31
0.0
  0
LINE
  5
117E4
  8
0
 10
3732.8097722685902227
 20
137.4024404575810081
 30
0.0
 11
3732.7900872295717818
 21
137.4124552335885028
 31
0.0
  0
LINE
  5
117E5
  8
0
 10
3732.7900872295717818
 20
137.4124552335885028
 30
0.0
 11
3732.7802447097969889
 21
137.4122721442520003
 31
0.0
  0
LINE
  5
117E6
  8
0
 10
3732.7802447097969889
 20
137.4122721442520003
 30
0.0
 11
3732.7900872294139845
 21
137.401919148323401
 31
0.0
  0
LINE
  5
117E7
  8
0
 10
3732.7900872294139845
 20
137.401919148323401
 30
0.0
 11
3732.8097722689080911
 21
137.3919043721261062
 31
0.0
  0
LINE
  5
117E8
  8
0
 10
3732.8097722689080911
 20
137.3919043721261062
 30
0.0
 11
3732.8196147884259517
 21
137.3922395147812949
 31
0.0
  0
LINE
  5
117E9
  8
0
 10
3732.8097722689080911
 20
137.3919043721261062
 30
0.0
 11
3732.8097722689080911
 21
137.4024404574261098
 31
0.0
  0
LINE
  5
117EA
  8
0
 10
3732.7900872293507746
 20
137.412455233575713
 30
0.0
 11
3732.7900872293507746
 21
137.4019191483878899
 31
0.0
  0
LINE
  5
117EB
  8
0
 10
3732.7802447096842116
 20
137.3979670307950869
 30
0.0
 11
3732.7900872293921566
 21
137.3963603551098061
 31
0.0
  0
LINE
  5
117EC
  8
0
 10
3732.7900872293921566
 20
137.3963603551098061
 30
0.0
 11
3732.8097722689030888
 21
137.3863232854670002
 31
0.0
  0
LINE
  5
117ED
  8
0
 10
3732.8097722689030888
 20
137.3863232854670002
 30
0.0
 11
3732.8196147885519167
 21
137.3778186756962043
 31
0.0
  0
LINE
  5
117EE
  8
0
 10
3732.8196147885519167
 20
137.3778186756962043
 30
0.0
 11
3732.8097722687512032
 21
137.3792411222104874
 31
0.0
  0
LINE
  5
117EF
  8
0
 10
3732.8097722687512032
 20
137.3792411222104874
 30
0.0
 11
3732.7900872294339933
 21
137.3893496205720055
 31
0.0
  0
LINE
  5
117F0
  8
0
 10
3732.7900872294339933
 20
137.3893496205720055
 30
0.0
 11
3732.7802447096842116
 21
137.3979670307950869
 31
0.0
  0
LINE
  5
117F1
  8
0
 10
3732.7900872293921566
 20
137.3963603551098061
 30
0.0
 11
3732.7900872293921566
 21
137.3893496206075042
 31
0.0
  0
LINE
  5
117F2
  8
0
 10
3732.8097722687512032
 20
137.3863232855983938
 30
0.0
 11
3732.8097722687512032
 21
137.3792411222104874
 31
0.0
  0
LINE
  5
117F3
  8
0
 10
3732.8080835594169002
 20
137.3782819082780975
 30
0.0
 11
3732.8179260790511762
 21
137.3764647552104918
 31
0.0
  0
LINE
  5
117F4
  8
0
 10
3732.8179260790511762
 20
137.3764647552104918
 30
0.0
 11
3732.8296326398508427
 21
137.3711043378104932
 31
0.0
  0
LINE
  5
117F5
  8
0
 10
3732.8296326398508427
 20
137.3711043378104932
 30
0.0
 11
3732.8345414647960752
 21
137.3660956788565102
 31
0.0
  0
LINE
  5
117F6
  8
0
 10
3732.8345414647960752
 20
137.3660956788565102
 30
0.0
 11
3732.8376111184511501
 21
137.3647671960104901
 31
0.0
  0
LINE
  5
117F7
  8
0
 10
3732.8376111184511501
 20
137.3647671960104901
 30
0.0
 11
3732.8474536380508653
 21
137.3605059202104997
 31
0.0
  0
LINE
  5
117F8
  8
0
 10
3732.8474536380508653
 20
137.3605059202104997
 30
0.0
 11
3732.8376111184511501
 21
137.3621727242104953
 31
0.0
  0
LINE
  5
117F9
  8
0
 10
3732.8376111184511501
 20
137.3621727242104953
 30
0.0
 11
3732.8179260787587737
 21
137.3711054458738943
 31
0.0
  0
LINE
  5
117FA
  8
0
 10
3732.8179260787587737
 20
137.3711054458738943
 30
0.0
 11
3732.8080835594169002
 21
137.3782819082780975
 31
0.0
  0
LINE
  5
117FB
  8
0
 10
3732.8080835585901696
 20
137.3725851952615926
 30
0.0
 11
3732.8179260790511762
 21
137.368847837810506
 31
0.0
  0
LINE
  5
117FC
  8
0
 10
3732.8179260790511762
 20
137.368847837810506
 30
0.0
 11
3732.8376111186498747
 21
137.3598362220153035
 31
0.0
  0
LINE
  5
117FD
  8
0
 10
3732.8376111186498747
 20
137.3598362220153035
 30
0.0
 11
3732.8474536379121673
 21
137.3543996499192872
 31
0.0
  0
LINE
  5
117FE
  8
0
 10
3732.8474536379121673
 20
137.3543996499192872
 30
0.0
 11
3732.8376111184111323
 21
137.3579685632805933
 31
0.0
  0
LINE
  5
117FF
  8
0
 10
3732.8376111184111323
 20
137.3579685632805933
 30
0.0
 11
3732.8179260790511762
 21
137.3671423191105134
 31
0.0
  0
LINE
  5
11800
  8
0
 10
3732.8080835593018492
 20
137.372585194841605
 30
0.0
 11
3732.8141526146218894
 21
137.3690448213747004
 31
0.0
  0
LINE
  5
11801
  8
0
 10
3732.8179260785032056
 20
137.3764647553115879
 30
0.0
 11
3732.8179260785032056
 21
137.3711054460509899
 31
0.0
  0
LINE
  5
11802
  8
0
 10
3732.8179260762158265
 20
137.3688478388870067
 30
0.0
 11
3732.8179260762158265
 21
137.3671423205807969
 31
0.0
  0
LINE
  5
11803
  8
0
 10
3732.8376111184511501
 20
137.3647671960104901
 30
0.0
 11
3732.8376111184511501
 21
137.3621726990772913
 31
0.0
  0
LINE
  5
11804
  8
0
 10
3732.837611118418863
 20
137.359836222115689
 30
0.0
 11
3732.837611118418863
 21
137.3579685633245901
 31
0.0
  0
LINE
  5
11805
  8
0
 10
3732.8359224089831514
 20
137.3616306164902028
 30
0.0
 11
3732.8457649286510787
 21
137.3595687131991099
 31
0.0
  0
LINE
  5
11806
  8
0
 10
3732.8457649286510787
 20
137.3595687131991099
 30
0.0
 11
3732.8654499682270398
 21
137.351828058894597
 31
0.0
  0
LINE
  5
11807
  8
0
 10
3732.8654499682270398
 20
137.351828058894597
 30
0.0
 11
3732.8752924877107944
 21
137.346045635243712
 31
0.0
  0
LINE
  5
11808
  8
0
 10
3732.8752924877107944
 20
137.346045635243712
 30
0.0
 11
3732.8654499680069421
 21
137.3479887538289006
 31
0.0
  0
LINE
  5
11809
  8
0
 10
3732.8654499680069421
 20
137.3479887538289006
 30
0.0
 11
3732.8457649286510787
 21
137.3558327384104985
 31
0.0
  0
LINE
  5
1180A
  8
0
 10
3732.8457649286510787
 20
137.3558327384104985
 30
0.0
 11
3732.8359224089899726
 21
137.3616306165523042
 31
0.0
  0
LINE
  5
1180B
  8
0
 10
3732.8457649292790848
 20
137.3595687129522958
 30
0.0
 11
3732.8457649292790848
 21
137.3558327380752075
 31
0.0
  0
LINE
  5
1180C
  8
0
 10
3732.8654499680510526
 20
137.3479887538115065
 30
0.0
 11
3732.8654499680510526
 21
137.3518280590045038
 31
0.0
  0
LINE
  5
1180D
  8
0
 10
3732.8637612587272088
 20
137.3541148432315993
 30
0.0
 11
3732.8736037783510255
 21
137.3506571432660053
 31
0.0
  0
LINE
  5
1180E
  8
0
 10
3732.8736037783510255
 20
137.3506571432660053
 30
0.0
 11
3732.8932888177509994
 21
137.3440409115104899
 31
0.0
  0
LINE
  5
1180F
  8
0
 10
3732.8932888177509994
 20
137.3440409115104899
 30
0.0
 11
3732.9031313373197918
 21
137.3408671738384896
 31
0.0
  0
LINE
  5
11810
  8
0
 10
3732.9031313373197918
 20
137.3408671738384896
 30
0.0
 11
3732.8932888176927918
 21
137.3413283940193992
 31
0.0
  0
LINE
  5
11811
  8
0
 10
3732.8932888176927918
 20
137.3413283940193992
 30
0.0
 11
3732.8736037783510255
 21
137.3479831352105123
 31
0.0
  0
LINE
  5
11812
  8
0
 10
3732.8736037783510255
 20
137.3479831352105123
 30
0.0
 11
3732.8637612586171599
 21
137.3541148433048136
 31
0.0
  0
LINE
  5
11813
  8
0
 10
3732.8637612586721843
 20
137.3478684334932041
 30
0.0
 11
3732.8736037783110078
 21
137.3455269742445068
 31
0.0
  0
LINE
  5
11814
  8
0
 10
3732.8736037783110078
 20
137.3455269742445068
 30
0.0
 11
3732.8932888178451321
 21
137.3388183709066084
 31
0.0
  0
LINE
  5
11815
  8
0
 10
3732.8932888178451321
 20
137.3388183709066084
 30
0.0
 11
3732.9031313374948695
 21
137.334341373356807
 31
0.0
  0
LINE
  5
11816
  8
0
 10
3732.9031313374948695
 20
137.334341373356807
 30
0.0
 11
3732.8932888177509994
 21
137.3365949197105067
 31
0.0
  0
LINE
  5
11817
  8
0
 10
3732.8932888177509994
 20
137.3365949197105067
 30
0.0
 11
3732.8736037773869612
 21
137.3434138449121917
 31
0.0
  0
LINE
  5
11818
  8
0
 10
3732.8736037773869612
 20
137.3434138449121917
 30
0.0
 11
3732.8637612586721843
 21
137.3478684334932041
 31
0.0
  0
LINE
  5
11819
  8
0
 10
3732.8916001083330229
 20
137.3405118900832065
 30
0.0
 11
3732.9014426280209591
 21
137.3396798104137986
 31
0.0
  0
LINE
  5
1181A
  8
0
 10
3732.9014426280209591
 20
137.3396798104137986
 30
0.0
 11
3732.9211276673531756
 21
137.3340800240000021
 31
0.0
  0
LINE
  5
1181B
  8
0
 10
3732.9211276673531756
 20
137.3340800240000021
 30
0.0
 11
3732.9309701871989091
 21
137.3292430287600894
 31
0.0
  0
LINE
  5
1181C
  8
0
 10
3732.9309701871989091
 20
137.3292430287600894
 30
0.0
 11
3732.9211276673509019
 21
137.3300153251105087
 31
0.0
  0
LINE
  5
1181D
  8
0
 10
3732.9211276673509019
 20
137.3300153251105087
 30
0.0
 11
3732.901442628598943
 21
137.3356845603638021
 31
0.0
  0
LINE
  5
1181E
  8
0
 10
3732.901442628598943
 20
137.3356845603638021
 30
0.0
 11
3732.891600108286184
 21
137.3405118900888908
 31
0.0
  0
LINE
  5
1181F
  8
0
 10
3732.8941106816660067
 20
137.3361180800912109
 30
0.0
 11
3732.901442627950928
 21
137.3342493628719865
 31
0.0
  0
LINE
  5
11820
  8
0
 10
3732.901442627950928
 20
137.3342493628719865
 30
0.0
 11
3732.9211276673931934
 21
137.3285233070683091
 31
0.0
  0
LINE
  5
11821
  8
0
 10
3732.9211276673931934
 20
137.3285233070683091
 30
0.0
 11
3732.9298542120382081
 21
137.3256250101445914
 31
0.0
  0
LINE
  5
11822
  8
0
 10
3732.9194389582489748
 20
137.329622637151914
 30
0.0
 11
3732.9292814776508749
 21
137.3284749985105009
 31
0.0
  0
LINE
  5
11823
  8
0
 10
3732.9292814776508749
 20
137.3284749985105009
 30
0.0
 11
3732.9489665169871841
 21
137.3238271168004019
 31
0.0
  0
LINE
  5
11824
  8
0
 10
3732.9489665169871841
 20
137.3238271168004019
 30
0.0
 11
3732.958809036943876
 21
137.3202556218051029
 31
0.0
  0
LINE
  5
11825
  8
0
 10
3732.958809036943876
 20
137.3202556218051029
 30
0.0
 11
3732.9489665170508488
 21
137.3213673625105002
 31
0.0
  0
LINE
  5
11826
  8
0
 10
3732.9489665170508488
 20
137.3213673625105002
 30
0.0
 11
3732.9292814776508749
 21
137.3260870464104926
 31
0.0
  0
LINE
  5
11827
  8
0
 10
3732.9292814776508749
 20
137.3260870464104926
 30
0.0
 11
3732.9194389579520248
 21
137.3296226372690967
 31
0.0
  0
LINE
  5
11828
  8
0
 10
3732.9194389579379276
 20
137.3362426101816141
 30
0.0
 11
3732.9292814776508749
 21
137.3338291992301947
 31
0.0
  0
LINE
  5
11829
  8
0
 10
3732.9292814776508749
 20
137.3338291992301947
 30
0.0
 11
3732.9489665170508488
 21
137.3292423291105138
 31
0.0
  0
LINE
  5
1182A
  8
0
 10
3732.9489665170508488
 20
137.3292423291105138
 30
0.0
 11
3732.9588090365850803
 21
137.3270577442534091
 31
0.0
  0
LINE
  5
1182B
  8
0
 10
3732.9588090365850803
 20
137.3270577442534091
 30
0.0
 11
3732.9489665170508488
 21
137.3264526807105028
 31
0.0
  0
LINE
  5
1182C
  8
0
 10
3732.9489665170508488
 20
137.3264526807105028
 30
0.0
 11
3732.9292814776508749
 21
137.3310654301104989
 31
0.0
  0
LINE
  5
1182D
  8
0
 10
3732.9292814776508749
 20
137.3310654301104989
 30
0.0
 11
3732.9194389579379276
 21
137.3362426101816141
 31
0.0
  0
LINE
  5
1182E
  8
0
 10
3732.9472778076501527
 20
137.3254081326244886
 30
0.0
 11
3732.9571203272507773
 21
137.3256588474104944
 31
0.0
  0
LINE
  5
1182F
  8
0
 10
3732.9571203272507773
 20
137.3256588474104944
 30
0.0
 11
3732.97680536643702
 21
137.3220151391724926
 31
0.0
  0
LINE
  5
11830
  8
0
 10
3732.97680536643702
 20
137.3220151391724926
 30
0.0
 11
3732.9866478863082193
 21
137.3180779578659099
 31
0.0
  0
LINE
  5
11831
  8
0
 10
3732.9866478863082193
 20
137.3180779578659099
 30
0.0
 11
3732.976805366698045
 21
137.3178057388849993
 31
0.0
  0
LINE
  5
11832
  8
0
 10
3732.976805366698045
 20
137.3178057388849993
 30
0.0
 11
3732.9571203272507773
 21
137.321492457710491
 31
0.0
  0
LINE
  5
11833
  8
0
 10
3732.9571203272507773
 20
137.321492457710491
 30
0.0
 11
3732.9472778076501527
 21
137.3254081326244886
 31
0.0
  0
LINE
  5
11834
  8
0
 10
3732.9751166572509646
 20
137.3240481501105137
 30
0.0
 11
3732.9849591769047947
 21
137.3197755712581909
 31
0.0
  0
LINE
  5
11835
  8
0
 10
3732.9849591769047947
 20
137.3197755712581909
 30
0.0
 11
3733.0046442161878986
 21
137.3170601843305008
 31
0.0
  0
LINE
  5
11836
  8
0
 10
3733.0046442161878986
 20
137.3170601843305008
 30
0.0
 11
3733.0144867360509124
 21
137.3186404984105025
 31
0.0
  0
LINE
  5
11837
  8
0
 10
3733.0144867360509124
 20
137.3186404984105025
 30
0.0
 11
3733.0046442163511529
 21
137.3198964104105073
 31
0.0
  0
LINE
  5
11838
  8
0
 10
3733.0046442163511529
 20
137.3198964104105073
 30
0.0
 11
3732.984959176951179
 21
137.3225986336105109
 31
0.0
  0
LINE
  5
11839
  8
0
 10
3732.984959176951179
 20
137.3225986336105109
 30
0.0
 11
3732.9751166572509646
 21
137.3240481501105137
 31
0.0
  0
LINE
  5
1183A
  8
0
 10
3732.9751166572777947
 20
137.3171877120960005
 30
0.0
 11
3732.984959176951179
 21
137.3171002149105107
 31
0.0
  0
LINE
  5
1183B
  8
0
 10
3732.984959176951179
 20
137.3171002149105107
 30
0.0
 11
3733.0046442163511529
 21
137.3143649290105088
 31
0.0
  0
LINE
  5
1183C
  8
0
 10
3733.0046442163511529
 20
137.3143649290105088
 30
0.0
 11
3733.0144867359658747
 21
137.3116769201004104
 31
0.0
  0
LINE
  5
1183D
  8
0
 10
3733.0144867359658747
 20
137.3116769201004104
 30
0.0
 11
3733.0046442163511529
 21
137.3117628691105097
 31
0.0
  0
LINE
  5
1183E
  8
0
 10
3733.0046442163511529
 20
137.3117628691105097
 30
0.0
 11
3732.9849591769520885
 21
137.314538770213403
 31
0.0
  0
LINE
  5
1183F
  8
0
 10
3732.9849591769520885
 20
137.314538770213403
 30
0.0
 11
3732.9751166572777947
 21
137.3171877120960005
 31
0.0
  0
LINE
  5
11840
  8
0
 10
3733.0980032850820862
 20
137.3114618935092039
 30
0.0
 11
3733.0881607659121073
 21
137.3136238258119022
 31
0.0
  0
LINE
  5
11841
  8
0
 10
3733.0881607659121073
 20
137.3136238258119022
 30
0.0
 11
3733.0684757254180113
 21
137.3136238258082074
 31
0.0
  0
LINE
  5
11842
  8
0
 10
3733.0684757254180113
 20
137.3136238258082074
 30
0.0
 11
3733.0586332061498069
 21
137.3114618934797875
 31
0.0
  0
LINE
  5
11843
  8
0
 10
3733.0586332061498069
 20
137.3114618934797875
 30
0.0
 11
3733.0684757262920357
 21
137.3093175622271076
 31
0.0
  0
LINE
  5
11844
  8
0
 10
3733.0684757262920357
 20
137.3093175622271076
 30
0.0
 11
3733.0881607654259824
 21
137.3093175622269939
 31
0.0
  0
LINE
  5
11845
  8
0
 10
3733.0881607654259824
 20
137.3093175622269939
 30
0.0
 11
3733.0980032850820862
 21
137.3114618935092039
 31
0.0
  0
LINE
  5
11846
  8
0
 10
3733.0586332061798203
 20
137.3071230605141011
 30
0.0
 11
3733.0684757255739896
 21
137.307628219556193
 31
0.0
  0
LINE
  5
11847
  8
0
 10
3733.0684757255739896
 20
137.307628219556193
 30
0.0
 11
3733.0881607653009269
 21
137.3076282195534077
 31
0.0
  0
LINE
  5
11848
  8
0
 10
3733.0881607653009269
 20
137.3076282195534077
 30
0.0
 11
3733.0980032849261079
 21
137.3071230604718096
 31
0.0
  0
LINE
  5
11849
  8
0
 10
3733.0980032849261079
 20
137.3071230604718096
 30
0.0
 11
3733.0881607652509047
 21
137.3066604143104996
 31
0.0
  0
LINE
  5
1184A
  8
0
 10
3733.0586332061798203
 20
137.3071230605141011
 30
0.0
 11
3733.0631963646587792
 21
137.3067550028580115
 31
0.0
  0
LINE
  5
1184B
  8
0
 10
3733.0701644352989206
 20
137.3083455173654954
 30
0.0
 11
3733.0603219156178056
 21
137.3101459705609102
 31
0.0
  0
LINE
  5
1184C
  8
0
 10
3733.0603219156178056
 20
137.3101459705609102
 30
0.0
 11
3733.0406368762501188
 21
137.3110492010885935
 31
0.0
  0
LINE
  5
1184D
  8
0
 10
3733.0406368762501188
 20
137.3110492010885935
 30
0.0
 11
3733.0307943568332121
 21
137.3101649941193045
 31
0.0
  0
LINE
  5
1184E
  8
0
 10
3733.0307943568332121
 20
137.3101649941193045
 30
0.0
 11
3733.0406368762628517
 21
137.3083984624637139
 31
0.0
  0
LINE
  5
1184F
  8
0
 10
3733.0406368762628517
 20
137.3083984624637139
 30
0.0
 11
3733.0603219156510022
 21
137.3074820756104941
 31
0.0
  0
LINE
  5
11850
  8
0
 10
3733.0603219156510022
 20
137.3074820756104941
 30
0.0
 11
3733.070164433645914
 21
137.3083455176681014
 31
0.0
  0
LINE
  5
11851
  8
0
 10
3733.0307943565389905
 20
137.3171565143865962
 30
0.0
 11
3733.0406368762501188
 21
137.3166182797884005
 31
0.0
  0
LINE
  5
11852
  8
0
 10
3733.0406368762501188
 20
137.3166182797884005
 30
0.0
 11
3733.0603219156510022
 21
137.3157257846090999
 31
0.0
  0
LINE
  5
11853
  8
0
 10
3733.0603219156510022
 20
137.3157257846090999
 30
0.0
 11
3733.070164435353945
 21
137.315370463909602
 31
0.0
  0
LINE
  5
11854
  8
0
 10
3733.070164435353945
 20
137.315370463909602
 30
0.0
 11
3733.0603219156510022
 21
137.3128715337105064
 31
0.0
  0
LINE
  5
11855
  8
0
 10
3733.0603219156510022
 20
137.3128715337105064
 30
0.0
 11
3733.0406368763719911
 21
137.3137683145031929
 31
0.0
  0
LINE
  5
11856
  8
0
 10
3733.0406368763719911
 20
137.3137683145031929
 30
0.0
 11
3733.0307943564621382
 21
137.3171565143908026
 31
0.0
  0
LINE
  5
11857
  8
0
 10
3733.0423255854698255
 20
137.3122073049271137
 30
0.0
 11
3733.0324830653980825
 21
137.3152611224255111
 31
0.0
  0
LINE
  5
11858
  8
0
 10
3733.0324830653980825
 20
137.3152611224255111
 30
0.0
 11
3733.0127980266152008
 21
137.3170576287944016
 31
0.0
  0
LINE
  5
11859
  8
0
 10
3733.0127980266152008
 20
137.3170576287944016
 30
0.0
 11
3733.0029555068840637
 21
137.315820765990793
 31
0.0
  0
LINE
  5
1185A
  8
0
 10
3733.0029555068840637
 20
137.315820765990793
 30
0.0
 11
3733.0127980266511258
 21
137.3127906397104994
 31
0.0
  0
LINE
  5
1185B
  8
0
 10
3733.0127980266511258
 20
137.3127906397104994
 30
0.0
 11
3733.0324830659510553
 21
137.310973523617605
 31
0.0
  0
LINE
  5
1185C
  8
0
 10
3733.0324830659510553
 20
137.310973523617605
 30
0.0
 11
3733.0423255856671858
 21
137.3122073049584912
 31
0.0
  0
LINE
  5
1185D
  8
0
 10
3733.0423255860691825
 20
137.3078863109435019
 30
0.0
 11
3733.0324830656400081
 21
137.3092994103809872
 31
0.0
  0
LINE
  5
1185E
  8
0
 10
3733.0324830656400081
 20
137.3092994103809872
 30
0.0
 11
3733.012798027487861
 21
137.311133346089207
 31
0.0
  0
LINE
  5
1185F
  8
0
 10
3733.012798027487861
 20
137.311133346089207
 30
0.0
 11
3733.0029555071778304
 21
137.3115869628971097
 31
0.0
  0
LINE
  5
11860
  8
0
 10
3733.0029555071778304
 20
137.3115869628971097
 30
0.0
 11
3733.0057276489651485
 21
137.3110718859198016
 31
0.0
  0
LINE
  5
11861
  8
0
 10
3733.0423255860691825
 20
137.3078863109435019
 30
0.0
 11
3733.0379830512001718
 21
137.3079359597506937
 31
0.0
  0
LINE
  5
11862
  8
0
 10
3732.7847094652320266
 20
137.4267679449093862
 30
0.0
 11
3732.7900872292198073
 21
137.4202349805015047
 31
0.0
  0
LINE
  5
11863
  8
0
 10
3732.7900872292198073
 20
137.4202349805015047
 30
0.0
 11
3732.8097722687512032
 21
137.4101979108411058
 31
0.0
  0
LINE
  5
11864
  8
0
 10
3732.8097722687512032
 20
137.4101979108411058
 30
0.0
 11
3732.8196147883741105
 21
137.412229386341096
 31
0.0
  0
LINE
  5
11865
  8
0
 10
3732.8196147883741105
 20
137.412229386341096
 30
0.0
 11
3732.8097722686329689
 21
137.4241879181876129
 31
0.0
  0
LINE
  5
11866
  8
0
 10
3732.8097722686329689
 20
137.4241879181876129
 30
0.0
 11
3732.7929127938259626
 21
137.4327714625005115
 31
0.0
  0
LINE
  5
11867
  8
0
 10
3732.7900872293507746
 20
137.4308109375834874
 30
0.0
 11
3732.7900872293507746
 21
137.4202349804317009
 31
0.0
  0
LINE
  5
11868
  8
0
 10
3732.8080835593359552
 20
137.4298979741382993
 30
0.0
 11
3732.8179260790220724
 21
137.4332575968232959
 31
0.0
  0
LINE
  5
11869
  8
0
 10
3732.8179260790220724
 20
137.4332575968232959
 30
0.0
 11
3732.8376111183938519
 21
137.4243248753523972
 31
0.0
  0
LINE
  5
1186A
  8
0
 10
3732.8376111183938519
 20
137.4243248753523972
 30
0.0
 11
3732.8474536381559119
 21
137.4121219861559098
 31
0.0
  0
LINE
  5
1186B
  8
0
 10
3732.8474536381559119
 20
137.4121219861559098
 30
0.0
 11
3732.834541464870199
 21
137.4171929772105045
 31
0.0
  0
LINE
  5
1186C
  8
0
 10
3732.834541464870199
 20
137.4171929772105045
 30
0.0
 11
3732.8296326398508427
 21
137.4121843183104943
 31
0.0
  0
LINE
  5
1186D
  8
0
 10
3732.8296326398508427
 20
137.4121843183104943
 30
0.0
 11
3732.8179260790761873
 21
137.4175447357700932
 31
0.0
  0
LINE
  5
1186E
  8
0
 10
3732.8179260790761873
 20
137.4175447357700932
 30
0.0
 11
3732.8080835592791118
 21
137.4298979742173969
 31
0.0
  0
LINE
  5
1186F
  8
0
 10
3733.070164435361221
 20
137.3669865298068942
 30
0.0
 11
3733.0603219156860177
 21
137.3750236849224109
 31
0.0
  0
LINE
  5
11870
  8
0
 10
3733.0603219156860177
 20
137.3750236849224109
 30
0.0
 11
3733.0406368762328384
 21
137.3759204657328894
 31
0.0
  0
LINE
  5
11871
  8
0
 10
3733.0406368762328384
 20
137.3759204657328894
 30
0.0
 11
3733.030794356550814
 21
137.3687725803104911
 31
0.0
  0
LINE
  5
11872
  8
0
 10
3733.030794356550814
 20
137.3687725803104911
 30
0.0
 11
3733.070164435353945
 21
137.3669865298130048
 31
0.0
  0
LINE
  5
11873
  8
0
 10
3733.0144867360509124
 20
137.3702565643104947
 30
0.0
 11
3733.004644216277029
 21
137.3792123355202932
 31
0.0
  0
LINE
  5
11874
  8
0
 10
3733.004644216277029
 20
137.3792123355202932
 30
0.0
 11
3732.9849591769111612
 21
137.3819277225209134
 31
0.0
  0
LINE
  5
11875
  8
0
 10
3732.9849591769111612
 20
137.3819277225209134
 30
0.0
 11
3732.975116657223225
 21
137.3756642160307138
 31
0.0
  0
LINE
  5
11876
  8
0
 10
3732.975116657223225
 20
137.3756642160307138
 30
0.0
 11
3733.0144867360509124
 21
137.3702565643104947
 31
0.0
  0
LINE
  5
11877
  8
0
 10
3732.9194389579502058
 20
137.3878586761117049
 30
0.0
 11
3732.9292814776699743
 21
137.3932175813455103
 31
0.0
  0
LINE
  5
11878
  8
0
 10
3732.9292814776699743
 20
137.3932175813455103
 30
0.0
 11
3732.9489665170340231
 21
137.3886048319280064
 31
0.0
  0
LINE
  5
11879
  8
0
 10
3732.9489665170340231
 20
137.3886048319280064
 30
0.0
 11
3732.958809036718776
 21
137.3786738101468075
 31
0.0
  0
LINE
  5
1187A
  8
0
 10
3732.958809036718776
 20
137.3786738101468075
 30
0.0
 11
3732.9194389579511153
 21
137.3878586761105112
 31
0.0
  0
LINE
  5
1187B
  8
0
 10
3732.8637612586508112
 20
137.4057309092104902
 30
0.0
 11
3732.873603778350116
 21
137.4101352864506111
 31
0.0
  0
LINE
  5
1187C
  8
0
 10
3732.873603778350116
 20
137.4101352864506111
 30
0.0
 11
3732.8932888177168934
 21
137.4034805452290868
 31
0.0
  0
LINE
  5
1187D
  8
0
 10
3732.8932888177168934
 20
137.4034805452290868
 30
0.0
 11
3732.9031313374030105
 21
137.392483239647504
 31
0.0
  0
LINE
  5
1187E
  8
0
 10
3732.9031313374030105
 20
137.392483239647504
 30
0.0
 11
3732.8637612586371688
 21
137.4057309091984109
 31
0.0
  0
LINE
  5
1187F
  8
0
 10
3732.8359224089808777
 20
137.430452037759693
 30
0.0
 11
3732.8457649286510787
 21
137.4351902449105012
 31
0.0
  0
LINE
  5
11880
  8
0
 10
3732.8457649286510787
 20
137.4351902449105012
 30
0.0
 11
3732.8654499680260415
 21
137.4273462603892995
 31
0.0
  0
LINE
  5
11881
  8
0
 10
3732.8654499680260415
 20
137.4273462603892995
 30
0.0
 11
3732.8752924877421719
 21
137.4148670563924099
 31
0.0
  0
LINE
  5
11882
  8
0
 10
3732.8752924877421719
 20
137.4148670563924099
 30
0.0
 11
3732.8654499680351364
 21
137.4101133948697111
 31
0.0
  0
LINE
  5
11883
  8
0
 10
3732.8654499680351364
 20
137.4101133948697111
 30
0.0
 11
3732.8457649286651758
 21
137.4178540490619014
 31
0.0
  0
LINE
  5
11884
  8
0
 10
3732.8457649286651758
 20
137.4178540490619014
 30
0.0
 11
3732.8359224089358577
 21
137.430452037771488
 31
0.0
  0
LINE
  5
11885
  8
0
 10
3732.8637612587308467
 20
137.4338952099566029
 30
0.0
 11
3732.8736037783510255
 21
137.4399767062639057
 31
0.0
  0
LINE
  5
11886
  8
0
 10
3732.8736037783510255
 20
137.4399767062639057
 30
0.0
 11
3732.8932888177741916
 21
137.4331577814647005
 31
0.0
  0
LINE
  5
11887
  8
0
 10
3732.8932888177741916
 20
137.4331577814647005
 30
0.0
 11
3732.9031313373948251
 21
137.420368149941396
 31
0.0
  0
LINE
  5
11888
  8
0
 10
3732.9031313373948251
 20
137.420368149941396
 30
0.0
 11
3732.8932888177509994
 21
137.4143090622077068
 31
0.0
  0
LINE
  5
11889
  8
0
 10
3732.8932888177509994
 20
137.4143090622077068
 30
0.0
 11
3732.8736037782628046
 21
137.4210176653288897
 31
0.0
  0
LINE
  5
1188A
  8
0
 10
3732.8736037782628046
 20
137.4210176653288897
 30
0.0
 11
3732.8637612587308467
 21
137.4338952099566029
 31
0.0
  0
LINE
  5
1188B
  8
0
 10
3732.8916001082920957
 20
137.4093333112637083
 30
0.0
 11
3732.901442627950928
 21
137.4150420670104893
 31
0.0
  0
LINE
  5
1188C
  8
0
 10
3732.901442627950928
 20
137.4150420670104893
 30
0.0
 11
3732.9211276673509019
 21
137.4093728316105114
 31
0.0
  0
LINE
  5
1188D
  8
0
 10
3732.9211276673509019
 20
137.4093728316105114
 30
0.0
 11
3732.9309701870638492
 21
137.3980644499798132
 31
0.0
  0
LINE
  5
1188E
  8
0
 10
3732.9309701870638492
 20
137.3980644499798132
 30
0.0
 11
3732.9211276673809152
 21
137.3923653598189105
 31
0.0
  0
LINE
  5
1188F
  8
0
 10
3732.9211276673809152
 20
137.3923653598189105
 30
0.0
 11
3732.901442627950928
 21
137.3979651462705078
 31
0.0
  0
LINE
  5
11890
  8
0
 10
3732.901442627950928
 20
137.3979651462705078
 30
0.0
 11
3732.8916001082920957
 21
137.4093333112637083
 31
0.0
  0
LINE
  5
11891
  8
0
 10
3732.8916001083061929
 20
137.4401395579751863
 30
0.0
 11
3732.901442627950928
 21
137.4475524656104994
 31
0.0
  0
LINE
  5
11892
  8
0
 10
3732.901442627950928
 20
137.4475524656104994
 30
0.0
 11
3732.9211276673509019
 21
137.4417138320104925
 31
0.0
  0
LINE
  5
11893
  8
0
 10
3732.9211276673509019
 20
137.4417138320104925
 30
0.0
 11
3732.9309701870720346
 21
137.4285759645501059
 31
0.0
  0
LINE
  5
11894
  8
0
 10
3732.9309701870720346
 20
137.4285759645501059
 30
0.0
 11
3732.9211276674109286
 21
137.4212193534806943
 31
0.0
  0
LINE
  5
11895
  8
0
 10
3732.9211276674109286
 20
137.4212193534806943
 30
0.0
 11
3732.9014426280418775
 21
137.4269454093326033
 31
0.0
  0
LINE
  5
11896
  8
0
 10
3732.9014426280418775
 20
137.4269454093326033
 30
0.0
 11
3732.8916001083061929
 21
137.4401395579751863
 31
0.0
  0
LINE
  5
11897
  8
0
 10
3732.8168442438968668
 20
137.4458642615254007
 30
0.0
 11
3732.8179260790279841
 21
137.4443385290421134
 31
0.0
  0
LINE
  5
11898
  8
0
 10
3732.8179260790279841
 20
137.4443385290421134
 30
0.0
 11
3732.8376111184511501
 21
137.4353269133266053
 31
0.0
  0
LINE
  5
11899
  8
0
 10
3732.8376111184511501
 20
137.4353269133266053
 30
0.0
 11
3732.8474536380608697
 21
137.4404264262740014
 31
0.0
  0
LINE
  5
1189A
  8
0
 10
3732.8474536380608697
 20
137.4404264262740014
 30
0.0
 11
3732.8376440275001187
 21
137.4544827832417013
 31
0.0
  0
LINE
  5
1189B
  8
0
 10
3732.8401973833420016
 20
137.4554074464957978
 30
0.0
 11
3732.8457649286920059
 21
137.4473060841451968
 31
0.0
  0
LINE
  5
1189C
  8
0
 10
3732.8457649286920059
 20
137.4473060841451968
 30
0.0
 11
3732.8654499680510526
 21
137.4393773415104931
 31
0.0
  0
LINE
  5
1189D
  8
0
 10
3732.8654499680510526
 20
137.4393773415104931
 30
0.0
 11
3732.8752924877499026
 21
137.4458229345387963
 31
0.0
  0
LINE
  5
1189E
  8
0
 10
3732.8752924877499026
 20
137.4458229345387963
 30
0.0
 11
3732.8654499680828849
 21
137.4602378936970126
 31
0.0
  0
LINE
  5
1189F
  8
0
 10
3732.8654499680828849
 20
137.4602378936970126
 30
0.0
 11
3732.8609594286890569
 21
137.4620105762693072
 31
0.0
  0
LINE
  5
118A0
  8
0
 10
3732.8665999574291163
 20
137.4636209525208983
 30
0.0
 11
3732.8736037783692154
 21
137.4531390015384034
 31
0.0
  0
LINE
  5
118A1
  8
0
 10
3732.8736037783692154
 20
137.4531390015384034
 30
0.0
 11
3732.8932888177509994
 21
137.4462325415344139
 31
0.0
  0
LINE
  5
118A2
  8
0
 10
3732.8932888177509994
 20
137.4462325415344139
 30
0.0
 11
3732.903131337411196
 21
137.4540175284523116
 31
0.0
  0
LINE
  5
118A3
  8
0
 10
3732.903131337411196
 20
137.4540175284523116
 30
0.0
 11
3732.8932888177509994
 21
137.4687921996105047
 31
0.0
  0
LINE
  5
118A4
  8
0
 10
3732.8932888177509994
 20
137.4687921996105047
 30
0.0
 11
3732.8904421589859339
 21
137.4697414101038078
 31
0.0
  0
LINE
  5
118A5
  8
0
 10
3732.8954795671929787
 20
137.4708947406070934
 30
0.0
 11
3732.901442627950928
 21
137.4617895548051081
 31
0.0
  0
LINE
  5
118A6
  8
0
 10
3732.901442627950928
 20
137.4617895548051081
 30
0.0
 11
3732.9211276673750035
 21
137.4558633854389882
 31
0.0
  0
LINE
  5
118A7
  8
0
 10
3732.9211276673750035
 20
137.4558633854389882
 30
0.0
 11
3732.9309701870738536
 21
137.4650033699186054
 31
0.0
  0
LINE
  5
118A8
  8
0
 10
3732.9309701870738536
 20
137.4650033699186054
 30
0.0
 11
3732.9234878428851516
 21
137.4764383591387968
 31
0.0
  0
LINE
  5
118A9
  8
0
 10
3732.9267576068941707
 20
137.4769907539491101
 30
0.0
 11
3732.9292814776508749
 21
137.4732585598875119
 31
0.0
  0
LINE
  5
118AA
  8
0
 10
3732.9292814776508749
 20
137.4732585598875119
 30
0.0
 11
3732.9489665170508488
 21
137.4682869619730923
 31
0.0
  0
LINE
  5
118AB
  8
0
 10
3732.9489665170508488
 20
137.4682869619730923
 30
0.0
 11
3732.9588090366942197
 21
137.478820713047611
 31
0.0
  0
LINE
  5
118AC
  8
0
 10
3732.9588090366942197
 20
137.478820713047611
 30
0.0
 11
3732.9571508387189169
 21
137.4813957004159874
 31
0.0
  0
LINE
  5
118AD
  8
0
 10
3732.9571203273007995
 20
137.4710498209736897
 30
0.0
 11
3732.9472778075869428
 21
137.4609214121431933
 31
0.0
  0
LINE
  5
118AE
  8
0
 10
3732.9472778075869428
 20
137.4609214121431933
 30
0.0
 11
3732.9571203272871571
 21
137.4469651680547031
 31
0.0
  0
LINE
  5
118AF
  8
0
 10
3732.9571203272871571
 20
137.4469651680547031
 30
0.0
 11
3732.9768053666662126
 21
137.4431199996087116
 31
0.0
  0
LINE
  5
118B0
  8
0
 10
3732.9768053666662126
 20
137.4431199996087116
 30
0.0
 11
3732.9866478863691555
 21
137.4531296065821948
 31
0.0
  0
LINE
  5
118B1
  8
0
 10
3732.9866478863691555
 20
137.4531296065821948
 30
0.0
 11
3732.9768053667121421
 21
137.4671012994367061
 31
0.0
  0
LINE
  5
118B2
  8
0
 10
3732.9768053667121421
 20
137.4671012994367061
 30
0.0
 11
3732.9571203273007995
 21
137.4710498209736897
 31
0.0
  0
LINE
  5
118B3
  8
0
 10
3732.982651520931995
 20
137.4842968974161863
 30
0.0
 11
3732.9751166573178125
 21
137.4755183506387937
 31
0.0
  0
LINE
  5
118B4
  8
0
 10
3732.9751166573178125
 20
137.4755183506387937
 30
0.0
 11
3732.9849591768888786
 21
137.4611023962231116
 31
0.0
  0
LINE
  5
118B5
  8
0
 10
3732.9849591768888786
 20
137.4611023962231116
 30
0.0
 11
3733.0046442163511529
 21
137.4581845780668061
 31
0.0
  0
LINE
  5
118B6
  8
0
 10
3733.0046442163511529
 20
137.4581845780668061
 30
0.0
 11
3733.0144867359417731
 21
137.4695938468613861
 31
0.0
  0
LINE
  5
118B7
  8
0
 10
3733.0144867359417731
 20
137.4695938468613861
 30
0.0
 11
3733.0046442163511529
 21
137.4840692782105123
 31
0.0
  0
LINE
  5
118B8
  8
0
 10
3733.0046442163511529
 20
137.4840692782105123
 30
0.0
 11
3732.9950199525519565
 21
137.4854493942411864
 31
0.0
  0
LINE
  5
118B9
  8
0
 10
3733.0072402469340886
 20
137.4864255697212059
 30
0.0
 11
3733.0127980266411214
 21
137.4780979111752117
 31
0.0
  0
LINE
  5
118BA
  8
0
 10
3733.0127980266411214
 20
137.4780979111752117
 30
0.0
 11
3733.0324830659510553
 21
137.4761182758105065
 31
0.0
  0
LINE
  5
118BB
  8
0
 10
3733.0324830659510553
 20
137.4761182758105065
 30
0.0
 11
3733.04181513700496
 21
137.4883164912573932
 31
0.0
  0
LINE
  5
118BC
  8
0
 10
3733.0701644353698612
 20
137.394372293822812
 30
0.0
 11
3733.0603219156869272
 21
137.4040449373451906
 31
0.0
  0
LINE
  5
118BD
  8
0
 10
3733.0603219156869272
 20
137.4040449373451906
 30
0.0
 11
3733.0406368761391604
 21
137.4049613243348062
 31
0.0
  0
LINE
  5
118BE
  8
0
 10
3733.0406368761391604
 20
137.4049613243348062
 30
0.0
 11
3733.030794356503975
 21
137.3961917706571967
 31
0.0
  0
LINE
  5
118BF
  8
0
 10
3733.030794356503975
 20
137.3961917706571967
 30
0.0
 11
3733.040636876085955
 21
137.3865398922771988
 31
0.0
  0
LINE
  5
118C0
  8
0
 10
3733.040636876085955
 20
137.3865398922771988
 30
0.0
 11
3733.0603219156510022
 21
137.3856366616105049
 31
0.0
  0
LINE
  5
118C1
  8
0
 10
3733.0603219156510022
 20
137.3856366616105049
 30
0.0
 11
3733.0701644353698612
 21
137.394372293822812
 31
0.0
  0
LINE
  5
118C2
  8
0
 10
3733.0423255856590004
 20
137.3810287261179894
 30
0.0
 11
3733.0324830659901636
 21
137.3903310300524936
 31
0.0
  0
LINE
  5
118C3
  8
0
 10
3733.0324830659901636
 20
137.3903310300524936
 30
0.0
 11
3733.0127980265551741
 21
137.3921481462350016
 31
0.0
  0
LINE
  5
118C4
  8
0
 10
3733.0127980265551741
 20
137.3921481462350016
 30
0.0
 11
3733.0029555069281741
 21
137.3846421872283088
 31
0.0
  0
LINE
  5
118C5
  8
0
 10
3733.0029555069281741
 20
137.3846421872283088
 30
0.0
 11
3733.0127980265251608
 21
137.375342964669187
 31
0.0
  0
LINE
  5
118C6
  8
0
 10
3733.0127980265251608
 20
137.375342964669187
 30
0.0
 11
3733.0324830659510553
 21
137.3735464582105124
 31
0.0
  0
LINE
  5
118C7
  8
0
 10
3733.0324830659510553
 20
137.3735464582105124
 30
0.0
 11
3733.0423255856590004
 21
137.3810287261179894
 31
0.0
  0
LINE
  5
118C8
  8
0
 10
3733.0144867360299941
 20
137.3977036966522007
 30
0.0
 11
3733.0046442163511529
 21
137.4083257308168129
 31
0.0
  0
LINE
  5
118C9
  8
0
 10
3733.0046442163511529
 20
137.4083257308168129
 30
0.0
 11
3732.9849591768929713
 21
137.4111016320040051
 31
0.0
  0
LINE
  5
118CA
  8
0
 10
3732.9849591768929713
 20
137.4111016320040051
 30
0.0
 11
3732.975116657223225
 21
137.4032144884646982
 31
0.0
  0
LINE
  5
118CB
  8
0
 10
3732.975116657223225
 20
137.4032144884646982
 30
0.0
 11
3732.9849591769948347
 21
137.3925909060723995
 31
0.0
  0
LINE
  5
118CC
  8
0
 10
3732.9849591769948347
 20
137.3925909060723995
 30
0.0
 11
3733.0046442163120446
 21
137.3898556201583858
 31
0.0
  0
LINE
  5
118CD
  8
0
 10
3733.0046442163120446
 20
137.3898556201583858
 30
0.0
 11
3733.0144867360299941
 21
137.3977036966522007
 31
0.0
  0
LINE
  5
118CE
  8
0
 10
3732.9866478863659722
 20
137.3868993791149933
 30
0.0
 11
3732.9768053666211927
 21
137.3971632453942107
 31
0.0
  0
LINE
  5
118CF
  8
0
 10
3732.9768053666211927
 20
137.3971632453942107
 30
0.0
 11
3732.9571203273490028
 21
137.4008499641398089
 31
0.0
  0
LINE
  5
118D0
  8
0
 10
3732.9571203273490028
 20
137.4008499641398089
 30
0.0
 11
3732.9472778076187751
 21
137.3942295537503071
 31
0.0
  0
LINE
  5
118D1
  8
0
 10
3732.9472778076187751
 20
137.3942295537503071
 30
0.0
 11
3732.9571203272507773
 21
137.38394418331049
 31
0.0
  0
LINE
  5
118D2
  8
0
 10
3732.9571203272507773
 20
137.38394418331049
 30
0.0
 11
3732.9768053666498417
 21
137.380300474913895
 31
0.0
  0
LINE
  5
118D3
  8
0
 10
3732.9768053666498417
 20
137.380300474913895
 30
0.0
 11
3732.9866478863659722
 21
137.3868993791149933
 31
0.0
  0
LINE
  5
118D4
  8
0
 10
3732.9588090366501092
 20
137.4062823983101111
 30
0.0
 11
3732.9489665168589454
 21
137.4179302243597078
 31
0.0
  0
LINE
  5
118D5
  8
0
 10
3732.9489665168589454
 20
137.4179302243597078
 30
0.0
 11
3732.929281477629047
 21
137.422649908315293
 31
0.0
  0
LINE
  5
118D6
  8
0
 10
3732.929281477629047
 20
137.422649908315293
 30
0.0
 11
3732.9194389579438393
 21
137.4156494137025959
 31
0.0
  0
LINE
  5
118D7
  8
0
 10
3732.9194389579438393
 20
137.4156494137025959
 30
0.0
 11
3732.9292814776508749
 21
137.4039656896104873
 31
0.0
  0
LINE
  5
118D8
  8
0
 10
3732.9292814776508749
 20
137.4039656896104873
 30
0.0
 11
3732.9489665170508488
 21
137.3993178079105064
 31
0.0
  0
LINE
  5
118D9
  8
0
 10
3732.9489665170508488
 20
137.3993178079105064
 30
0.0
 11
3732.9588090366651159
 21
137.4062823982926034
 31
0.0
  0
LINE
  5
118DA
  8
0
 10
3732.9472778076210489
 20
137.4246436965565863
 30
0.0
 11
3732.9571203272507773
 21
137.4329433390105066
 31
0.0
  0
LINE
  5
118DB
  8
0
 10
3732.9571203272507773
 20
137.4329433390105066
 30
0.0
 11
3732.9768053666762171
 21
137.4291520332454013
 31
0.0
  0
LINE
  5
118DC
  8
0
 10
3732.9768053666762171
 20
137.4291520332454013
 30
0.0
 11
3732.9866478863218617
 21
137.4171313601480051
 31
0.0
  0
LINE
  5
118DD
  8
0
 10
3732.9866478863218617
 20
137.4171313601480051
 30
0.0
 11
3732.9768053667021377
 21
137.4088915087176872
 31
0.0
  0
LINE
  5
118DE
  8
0
 10
3732.9768053667021377
 20
137.4088915087176872
 30
0.0
 11
3732.9571203273330866
 21
137.4126133598967954
 31
0.0
  0
LINE
  5
118DF
  8
0
 10
3732.9571203273330866
 20
137.4126133598967954
 30
0.0
 11
3732.9472778076210489
 21
137.4246436965565863
 31
0.0
  0
LINE
  5
118E0
  8
0
 10
3732.9194389579088238
 20
137.4491460832622067
 30
0.0
 11
3732.9292814775940315
 21
137.457900496824692
 31
0.0
  0
LINE
  5
118E1
  8
0
 10
3732.9292814775940315
 20
137.457900496824692
 30
0.0
 11
3732.9489665170508488
 21
137.4530136587104892
 31
0.0
  0
LINE
  5
118E2
  8
0
 10
3732.9489665170508488
 20
137.4530136587104892
 30
0.0
 11
3732.9588090366491997
 21
137.4394843088294067
 31
0.0
  0
LINE
  5
118E3
  8
0
 10
3732.9588090366491997
 20
137.4394843088294067
 30
0.0
 11
3732.9489665170508488
 21
137.4308178273622048
 31
0.0
  0
LINE
  5
118E4
  8
0
 10
3732.9489665170508488
 20
137.4308178273622048
 30
0.0
 11
3732.9292814776508749
 21
137.4355943319104938
 31
0.0
  0
LINE
  5
118E5
  8
0
 10
3732.9292814776508749
 20
137.4355943319104938
 30
0.0
 11
3732.9194389579338349
 21
137.4491460832832104
 31
0.0
  0
LINE
  5
118E6
  8
0
 10
3732.9751166572859802
 20
137.4363221989532065
 30
0.0
 11
3732.984959176951179
 21
137.4459487238104884
 31
0.0
  0
LINE
  5
118E7
  8
0
 10
3732.984959176951179
 20
137.4459487238104884
 30
0.0
 11
3733.0046442163070424
 21
137.4430785536291921
 31
0.0
  0
LINE
  5
118E8
  8
0
 10
3733.0046442163070424
 20
137.4430785536291921
 30
0.0
 11
3733.0144867360450007
 21
137.4306449968661923
 31
0.0
  0
LINE
  5
118E9
  8
0
 10
3733.0144867360450007
 20
137.4306449968661923
 30
0.0
 11
3733.0046442163511529
 21
137.4223090847623041
 31
0.0
  0
LINE
  5
118EA
  8
0
 10
3733.0046442163511529
 20
137.4223090847623041
 30
0.0
 11
3732.9849591769971084
 21
137.4239088332467986
 31
0.0
  0
LINE
  5
118EB
  8
0
 10
3732.9849591769971084
 20
137.4239088332467986
 30
0.0
 11
3732.975116657270064
 21
137.4363221989731869
 31
0.0
  0
LINE
  5
118EC
  8
0
 10
3733.0029555069318121
 20
137.4507329926015871
 30
0.0
 11
3733.0127980266511258
 21
137.4617363645105002
 31
0.0
  0
LINE
  5
118ED
  8
0
 10
3733.0127980266511258
 20
137.4617363645105002
 30
0.0
 11
3733.0324830659510553
 21
137.4597942451104871
 31
0.0
  0
LINE
  5
118EE
  8
0
 10
3733.0324830659510553
 20
137.4597942451104871
 30
0.0
 11
3733.0423255856048854
 21
137.446898937774904
 31
0.0
  0
LINE
  5
118EF
  8
0
 10
3733.0423255856048854
 20
137.446898937774904
 30
0.0
 11
3733.0324830660151747
 21
137.4360001591751086
 31
0.0
  0
LINE
  5
118F0
  8
0
 10
3733.0324830660151747
 20
137.4360001591751086
 30
0.0
 11
3733.0127980266820487
 21
137.4378930236715064
 31
0.0
  0
LINE
  5
118F1
  8
0
 10
3733.0127980266820487
 20
137.4378930236715064
 30
0.0
 11
3733.0029555069540947
 21
137.4507329925814929
 31
0.0
  0
LINE
  5
118F2
  8
0
 10
3733.0307943565580899
 20
137.4679700485363867
 30
0.0
 11
3733.0406368762442071
 21
137.4804263348949007
 31
0.0
  0
LINE
  5
118F3
  8
0
 10
3733.0406368762442071
 20
137.4804263348949007
 30
0.0
 11
3733.060321915557779
 21
137.4794347569194883
 31
0.0
  0
LINE
  5
118F4
  8
0
 10
3733.060321915557779
 20
137.4794347569194883
 30
0.0
 11
3733.0701644352880066
 21
137.4660168573934982
 31
0.0
  0
LINE
  5
118F5
  8
0
 10
3733.0701644352880066
 20
137.4660168573934982
 30
0.0
 11
3733.0603219156041632
 21
137.4536880018941076
 31
0.0
  0
LINE
  5
118F6
  8
0
 10
3733.0603219156041632
 20
137.4536880018941076
 30
0.0
 11
3733.0406368762842249
 21
137.4546502716478074
 31
0.0
  0
LINE
  5
118F7
  8
0
 10
3733.0406368762842249
 20
137.4546502716478074
 30
0.0
 11
3733.0307943565580899
 21
137.4679700485363867
 31
0.0
  0
LINE
  5
118F8
  8
0
 10
3733.0586332061798203
 20
137.446108413675887
 30
0.0
 11
3733.0684757258209174
 21
137.4580251642460951
 31
0.0
  0
LINE
  5
118F9
  8
0
 10
3733.0684757258209174
 20
137.4580251642460951
 30
0.0
 11
3733.0881607652149796
 21
137.4580251642771884
 31
0.0
  0
LINE
  5
118FA
  8
0
 10
3733.0881607652149796
 20
137.4580251642771884
 30
0.0
 11
3733.0980032849411145
 21
137.4461084136817988
 31
0.0
  0
LINE
  5
118FB
  8
0
 10
3733.0980032849411145
 20
137.4461084136817988
 30
0.0
 11
3733.0881607653350329
 21
137.4342756323397055
 31
0.0
  0
LINE
  5
118FC
  8
0
 10
3733.0881607653350329
 20
137.4342756323397055
 30
0.0
 11
3733.0684757260391962
 21
137.4342756323351011
 31
0.0
  0
LINE
  5
118FD
  8
0
 10
3733.0684757260391962
 20
137.4342756323351011
 30
0.0
 11
3733.0586332061798203
 21
137.446108413675887
 31
0.0
  0
LINE
  5
118FE
  8
0
 10
3733.0590792587308897
 20
137.4887906901282975
 30
0.0
 11
3733.0586332062512156
 21
137.4881812501105003
 31
0.0
  0
LINE
  5
118FF
  8
0
 10
3733.0586332062512156
 20
137.4881812501105003
 30
0.0
 11
3733.0684757258868558
 21
137.474315275861386
 31
0.0
  0
LINE
  5
11900
  8
0
 10
3733.0684757258868558
 20
137.474315275861386
 30
0.0
 11
3733.0881607602250369
 21
137.474315275861386
 31
0.0
  0
LINE
  5
11901
  8
0
 10
3733.0881607602250369
 20
137.474315275861386
 30
0.0
 11
3733.0980032849820418
 21
137.4881812500817091
 31
0.0
  0
LINE
  5
11902
  8
0
 10
3733.0980032849820418
 20
137.4881812500817091
 30
0.0
 11
3733.0974686355411905
 21
137.4887923597607085
 31
0.0
  0
LINE
  5
11903
  8
0
 10
3733.0406368762501188
 20
137.4396012564104979
 30
0.0
 11
3733.0603219156510022
 21
137.4386543760965935
 31
0.0
  0
LINE
  5
11904
  8
0
 10
3733.0603219156510022
 20
137.4386543760965935
 30
0.0
 11
3733.0701644353389383
 21
137.4272146984430094
 31
0.0
  0
LINE
  5
11905
  8
0
 10
3733.0701644353389383
 20
137.4272146984430094
 30
0.0
 11
3733.0603219156510022
 21
137.4167712191105011
 31
0.0
  0
LINE
  5
11906
  8
0
 10
3733.0603219156510022
 20
137.4167712191105011
 30
0.0
 11
3733.0406368762769489
 21
137.4176979928714957
 31
0.0
  0
LINE
  5
11907
  8
0
 10
3733.0406368762769489
 20
137.4176979928714957
 30
0.0
 11
3733.0307943565571804
 21
137.4290880309771978
 31
0.0
  0
LINE
  5
11908
  8
0
 10
3733.0307943565571804
 20
137.4290880309771978
 30
0.0
 11
3733.0406368763337923
 21
137.4396012564064904
 31
0.0
  0
LINE
  5
11909
  8
0
 10
3733.0127980265669976
 20
137.4239970318903943
 30
0.0
 11
3733.032483066045188
 21
137.4221298852862105
 31
0.0
  0
LINE
  5
1190A
  8
0
 10
3733.032483066045188
 20
137.4221298852862105
 30
0.0
 11
3733.0423255856858304
 21
137.4111184427630974
 31
0.0
  0
LINE
  5
1190B
  8
0
 10
3733.0423255856858304
 20
137.4111184427630974
 30
0.0
 11
3733.032483065967881
 21
137.4019954568128128
 31
0.0
  0
LINE
  5
1190C
  8
0
 10
3733.032483065967881
 20
137.4019954568128128
 30
0.0
 11
3733.0127980266511258
 21
137.4038293926105041
 31
0.0
  0
LINE
  5
1190D
  8
0
 10
3733.0127980266511258
 20
137.4038293926105041
 30
0.0
 11
3733.0029555068831542
 21
137.4148190947300918
 31
0.0
  0
LINE
  5
1190E
  8
0
 10
3733.0029555068831542
 20
137.4148190947300918
 30
0.0
 11
3733.0127980266511258
 21
137.4239970319104884
 31
0.0
  0
LINE
  5
1190F
  8
0
 10
3733.0586332061870962
 20
137.4103551923479927
 30
0.0
 11
3733.0684757259500657
 21
137.4204286314104877
 31
0.0
  0
LINE
  5
11910
  8
0
 10
3733.0684757259500657
 20
137.4204286314104877
 30
0.0
 11
3733.0881607653718675
 21
137.4204286314192984
 31
0.0
  0
LINE
  5
11911
  8
0
 10
3733.0881607653718675
 20
137.4204286314192984
 30
0.0
 11
3733.0980032850211501
 21
137.410355192279809
 31
0.0
  0
LINE
  5
11912
  8
0
 10
3733.0980032850211501
 20
137.410355192279809
 30
0.0
 11
3733.0881607653659557
 21
137.4003242660504895
 31
0.0
  0
LINE
  5
11913
  8
0
 10
3733.0881607653659557
 20
137.4003242660504895
 30
0.0
 11
3733.0684757259500657
 21
137.4003242660504895
 31
0.0
  0
LINE
  5
11914
  8
0
 10
3733.0684757259500657
 20
137.4003242660504895
 30
0.0
 11
3733.0586409567231385
 21
137.4103470203941129
 31
0.0
  0
LINE
  5
11915
  8
0
 10
3733.0586332061998291
 20
137.3802833146978912
 30
0.0
 11
3733.0684757259500657
 21
137.3886750687105121
 31
0.0
  0
LINE
  5
11916
  8
0
 10
3733.0684757259500657
 20
137.3886750687105121
 30
0.0
 11
3733.0881607652509047
 21
137.3886750687105121
 31
0.0
  0
LINE
  5
11917
  8
0
 10
3733.0881607652509047
 20
137.3886750687105121
 30
0.0
 11
3733.0980032849251984
 21
137.3802833146656894
 31
0.0
  0
LINE
  5
11918
  8
0
 10
3733.0980032849251984
 20
137.3802833146656894
 30
0.0
 11
3733.0881607652509047
 21
137.3719091617784898
 31
0.0
  0
LINE
  5
11919
  8
0
 10
3733.0881607652509047
 20
137.3719091617784898
 30
0.0
 11
3733.0684757259500657
 21
137.371909161710505
 31
0.0
  0
LINE
  5
1191A
  8
0
 10
3733.0684757259500657
 20
137.371909161710505
 30
0.0
 11
3733.0586332062339352
 21
137.3802833146060891
 31
0.0
  0
LINE
  5
1191B
  8
0
 10
3733.0881607652509047
 20
137.3719091617784898
 30
0.0
 11
3733.0881607652509047
 21
137.3886750687105121
 31
0.0
  0
LINE
  5
1191C
  8
0
 10
3733.0684757259500657
 20
137.3886750687105121
 30
0.0
 11
3733.0684757259500657
 21
137.371909161710505
 31
0.0
  0
LINE
  5
1191D
  8
0
 10
3733.0603219156510022
 20
137.3856366616105049
 30
0.0
 11
3733.0603219156869272
 21
137.4040449373451906
 31
0.0
  0
LINE
  5
1191E
  8
0
 10
3733.0406368761391604
 20
137.4049613243348062
 30
0.0
 11
3733.040636876085955
 21
137.3865398922771988
 31
0.0
  0
LINE
  5
1191F
  8
0
 10
3733.0324830659901636
 20
137.3903310300524936
 30
0.0
 11
3733.0324830659510553
 21
137.3735464582105124
 31
0.0
  0
LINE
  5
11920
  8
0
 10
3733.0127980265251608
 20
137.375342964669187
 30
0.0
 11
3733.0127980265551741
 21
137.3921481462350016
 31
0.0
  0
LINE
  5
11921
  8
0
 10
3733.032483065967881
 20
137.4019954568128128
 30
0.0
 11
3733.032483066045188
 21
137.4221298852862105
 31
0.0
  0
LINE
  5
11922
  8
0
 10
3733.0127980265669976
 20
137.4239970318903943
 30
0.0
 11
3733.0127980266511258
 21
137.4038293926105041
 31
0.0
  0
LINE
  5
11923
  8
0
 10
3733.0406368763337923
 20
137.4396012564064904
 30
0.0
 11
3733.0406368762769489
 21
137.4176979928714957
 31
0.0
  0
LINE
  5
11924
  8
0
 10
3733.0603219156510022
 20
137.4386543760965935
 30
0.0
 11
3733.0603219156510022
 21
137.4167712191105011
 31
0.0
  0
LINE
  5
11925
  8
0
 10
3733.0684757259500657
 20
137.4204286314104877
 30
0.0
 11
3733.0684757259500657
 21
137.4003242660504895
 31
0.0
  0
LINE
  5
11926
  8
0
 10
3733.0881607653659557
 20
137.4003242660504895
 30
0.0
 11
3733.0881607653568608
 21
137.4204286314192984
 31
0.0
  0
LINE
  5
11927
  8
0
 10
3733.0881607653350329
 20
137.4342756323397055
 30
0.0
 11
3733.0881607652149796
 21
137.4580251642771884
 31
0.0
  0
LINE
  5
11928
  8
0
 10
3733.0684757258868558
 20
137.474315275861386
 30
0.0
 11
3733.0684757258868558
 21
137.4889249164450007
 31
0.0
  0
LINE
  5
11929
  8
0
 10
3733.0684757258209174
 20
137.4580251642460951
 30
0.0
 11
3733.0684757260391962
 21
137.4342756323351011
 31
0.0
  0
LINE
  5
1192A
  8
0
 10
3733.0603219156041632
 20
137.4536880018941076
 30
0.0
 11
3733.060321915557779
 21
137.4794347569194883
 31
0.0
  0
LINE
  5
1192B
  8
0
 10
3733.0406368762442071
 20
137.4804263348949007
 30
0.0
 11
3733.0406368762842249
 21
137.4546502716478074
 31
0.0
  0
LINE
  5
1192C
  8
0
 10
3733.0324830659510553
 20
137.4597942451104871
 30
0.0
 11
3733.0324830660151747
 21
137.4360001591751086
 31
0.0
  0
LINE
  5
1192D
  8
0
 10
3733.0127980266511258
 20
137.4617363645105002
 30
0.0
 11
3733.0127980266820487
 21
137.4378930236715064
 31
0.0
  0
LINE
  5
1192E
  8
0
 10
3733.0324830659510553
 20
137.4761182758105065
 30
0.0
 11
3733.0319321742372267
 21
137.4879070328412922
 31
0.0
  0
LINE
  5
1192F
  8
0
 10
3733.0127980266411214
 20
137.4780979111752117
 30
0.0
 11
3733.0122084763597741
 21
137.4867763717901141
 31
0.0
  0
LINE
  5
11930
  8
0
 10
3733.0046442163511529
 20
137.4581845780668061
 30
0.0
 11
3733.0046442163511529
 21
137.4840692782105123
 31
0.0
  0
LINE
  5
11931
  8
0
 10
3732.9849591768888786
 20
137.4611023962231116
 30
0.0
 11
3732.985717821666185
 21
137.4845980756350912
 31
0.0
  0
LINE
  5
11932
  8
0
 10
3732.9768053666662126
 20
137.4431199996087116
 30
0.0
 11
3732.9768053667121421
 21
137.4671012994367061
 31
0.0
  0
LINE
  5
11933
  8
0
 10
3732.9571203273007995
 20
137.4710498209736897
 30
0.0
 11
3732.9571203272871571
 21
137.4469651680547031
 31
0.0
  0
LINE
  5
11934
  8
0
 10
3732.984959176951179
 20
137.4459487238104884
 30
0.0
 11
3732.9849591769971084
 21
137.4239088332467986
 31
0.0
  0
LINE
  5
11935
  8
0
 10
3733.0046442163070424
 20
137.4430785536291921
 30
0.0
 11
3733.0046442163511529
 21
137.4223090847623041
 31
0.0
  0
LINE
  5
11936
  8
0
 10
3732.9849591768929713
 20
137.4111016320040051
 30
0.0
 11
3732.9849591769948347
 21
137.3925909060723995
 31
0.0
  0
LINE
  5
11937
  8
0
 10
3733.0046442163120446
 20
137.3898556201583858
 30
0.0
 11
3733.0046442163511529
 21
137.4083257308168129
 31
0.0
  0
LINE
  5
11938
  8
0
 10
3732.9768053666211927
 20
137.3971632453942107
 30
0.0
 11
3732.9768053666498417
 21
137.380300474913895
 31
0.0
  0
LINE
  5
11939
  8
0
 10
3732.9571203273490028
 20
137.4008499641398089
 30
0.0
 11
3732.9571203272507773
 21
137.38394418331049
 31
0.0
  0
LINE
  5
1193A
  8
0
 10
3732.9489665170340231
 20
137.3886048319280064
 30
0.0
 11
3732.9472772898761832
 21
137.3813641158916141
 31
0.0
  0
LINE
  5
1193B
  8
0
 10
3732.9292814776699743
 20
137.3932175813455103
 30
0.0
 11
3732.927587755427794
 21
137.3859575975519931
 31
0.0
  0
LINE
  5
1193C
  8
0
 10
3732.9849591769111612
 20
137.3819277225209134
 30
0.0
 11
3732.9839325347561498
 21
137.3744533168726036
 31
0.0
  0
LINE
  5
1193D
  8
0
 10
3733.004644216277029
 20
137.3792123355202932
 30
0.0
 11
3733.0036191326921653
 21
137.3717492769428077
 31
0.0
  0
LINE
  5
1193E
  8
0
 10
3733.0406368762328384
 20
137.3759204657328894
 30
0.0
 11
3733.040293058773841
 21
137.3683416652006883
 31
0.0
  0
LINE
  5
1193F
  8
0
 10
3733.0603219156860177
 20
137.3750236849224109
 30
0.0
 11
3733.0599782682511432
 21
137.3674486322362895
 31
0.0
  0
LINE
  5
11940
  8
0
 10
3732.9768053666762171
 20
137.4291520332454013
 30
0.0
 11
3732.9768053667021377
 21
137.4088915087176872
 31
0.0
  0
LINE
  5
11941
  8
0
 10
3732.9571203272507773
 20
137.4329433390105066
 30
0.0
 11
3732.9571203273330866
 21
137.4126133598967954
 31
0.0
  0
LINE
  5
11942
  8
0
 10
3732.9489665168589454
 20
137.4179302243597078
 30
0.0
 11
3732.9489665170508488
 21
137.3993178079105064
 31
0.0
  0
LINE
  5
11943
  8
0
 10
3732.9292814776508749
 20
137.4039656896104873
 30
0.0
 11
3732.929281477629047
 21
137.422649908315293
 31
0.0
  0
LINE
  5
11944
  8
0
 10
3732.9211276673509019
 20
137.4093728316105114
 30
0.0
 11
3732.9211276673809152
 21
137.3923653598189105
 31
0.0
  0
LINE
  5
11945
  8
0
 10
3732.901442627950928
 20
137.4150420670104893
 30
0.0
 11
3732.901442627950928
 21
137.3979651462705078
 31
0.0
  0
LINE
  5
11946
  8
0
 10
3732.873603778350116
 20
137.4101352864506111
 30
0.0
 11
3732.8712714019397936
 21
137.4032038150224082
 31
0.0
  0
LINE
  5
11947
  8
0
 10
3732.8932888177168934
 20
137.4034805452290868
 30
0.0
 11
3732.8909657832878111
 21
137.3965768367615112
 31
0.0
  0
LINE
  5
11948
  8
0
 10
3732.8932888177509994
 20
137.4143090622077068
 30
0.0
 11
3732.8932888177741916
 21
137.4331577814647005
 31
0.0
  0
LINE
  5
11949
  8
0
 10
3732.8736037783510255
 20
137.4399767062639057
 30
0.0
 11
3732.8736037782628046
 21
137.4210176653288897
 31
0.0
  0
LINE
  5
1194A
  8
0
 10
3732.8654499680260415
 20
137.4273462603892995
 30
0.0
 11
3732.8654499680351364
 21
137.4101133948697111
 31
0.0
  0
LINE
  5
1194B
  8
0
 10
3732.8457649286528977
 20
137.4351902449114959
 30
0.0
 11
3732.8457649286651758
 21
137.4178540490619014
 31
0.0
  0
LINE
  5
1194C
  8
0
 10
3732.8376111184511501
 20
137.4353269133266053
 30
0.0
 11
3732.8376440275001187
 21
137.4544827832417013
 31
0.0
  0
LINE
  5
1194D
  8
0
 10
3732.8376111183938519
 20
137.4243248753523972
 30
0.0
 11
3732.8347743000940682
 21
137.4171015359549983
 31
0.0
  0
LINE
  5
1194E
  8
0
 10
3732.8179260790220724
 20
137.4332575968232959
 30
0.0
 11
3732.8179260790761873
 21
137.4175447357700932
 31
0.0
  0
LINE
  5
1194F
  8
0
 10
3732.8097722686329689
 20
137.4241879181876129
 30
0.0
 11
3732.8097722687512032
 21
137.4101979108411058
 31
0.0
  0
LINE
  5
11950
  8
0
 10
3732.8654499680828849
 20
137.4602378936970126
 30
0.0
 11
3732.8654499680510526
 21
137.4393773415104931
 31
0.0
  0
LINE
  5
11951
  8
0
 10
3732.8932888177509994
 20
137.4462325415344139
 30
0.0
 11
3732.8932888177509994
 21
137.4687921996105047
 31
0.0
  0
LINE
  5
11952
  8
0
 10
3732.8736037783692154
 20
137.4531390015384034
 30
0.0
 11
3732.8750126889772218
 21
137.4659064650039113
 31
0.0
  0
LINE
  5
11953
  8
0
 10
3732.9211276673750035
 20
137.4558633854389882
 30
0.0
 11
3732.9234878428851516
 21
137.4764383591387968
 31
0.0
  0
LINE
  5
11954
  8
0
 10
3732.901442627950928
 20
137.4617895548051081
 30
0.0
 11
3732.9023602370662047
 21
137.4723924860581974
 31
0.0
  0
LINE
  5
11955
  8
0
 10
3732.9489665170508488
 20
137.4682869619730923
 30
0.0
 11
3732.9502627210858918
 21
137.4804900905809859
 31
0.0
  0
LINE
  5
11956
  8
0
 10
3732.9489665170508488
 20
137.4530136587104892
 30
0.0
 11
3732.9489665170508488
 21
137.4308178273622048
 31
0.0
  0
LINE
  5
11957
  8
0
 10
3732.9292814775940315
 20
137.457900496824692
 30
0.0
 11
3732.9292814776508749
 21
137.4355943319104938
 31
0.0
  0
LINE
  5
11958
  8
0
 10
3732.9211276673509019
 20
137.4417138320104925
 30
0.0
 11
3732.9211276674109286
 21
137.4212193534806943
 31
0.0
  0
LINE
  5
11959
  8
0
 10
3732.9014426280418775
 20
137.4269454093326033
 30
0.0
 11
3732.901442627950928
 21
137.4475524656104994
 31
0.0
  0
LINE
  5
1195A
  8
0
 10
3733.0684757254180113
 20
137.3136238258082074
 30
0.0
 11
3733.0684757262920357
 21
137.3093175622271076
 31
0.0
  0
LINE
  5
1195B
  8
0
 10
3733.0603219156510022
 20
137.3128715337105064
 30
0.0
 11
3733.0603219156510022
 21
137.3157257846090999
 31
0.0
  0
LINE
  5
1195C
  8
0
 10
3733.0603219156178056
 20
137.3101459705609102
 30
0.0
 11
3733.0601981729428189
 21
137.3074878361369997
 31
0.0
  0
LINE
  5
1195D
  8
0
 10
3733.0406368763719911
 20
137.3137683145031929
 30
0.0
 11
3733.0406368762501188
 21
137.3166182797884005
 31
0.0
  0
LINE
  5
1195E
  8
0
 10
3733.0406368762501188
 20
137.3110492010885935
 30
0.0
 11
3733.0406368762628517
 21
137.3083984624637139
 31
0.0
  0
LINE
  5
1195F
  8
0
 10
3733.0324830659510553
 20
137.310973523617605
 30
0.0
 11
3733.0328711309111895
 21
137.3152257065864035
 31
0.0
  0
LINE
  5
11960
  8
0
 10
3733.0127980266152008
 20
137.3170576287944016
 30
0.0
 11
3733.0127980266511258
 21
137.3127906397104994
 31
0.0
  0
LINE
  5
11961
  8
0
 10
3733.0046442161878986
 20
137.3170601843305008
 30
0.0
 11
3733.005026352358982
 21
137.3198439534779141
 31
0.0
  0
LINE
  5
11962
  8
0
 10
3732.9849591769047947
 20
137.3197755712581909
 30
0.0
 11
3732.9853395394711697
 21
137.3225464201296973
 31
0.0
  0
LINE
  5
11963
  8
0
 10
3732.976805366698045
 20
137.3178057388849993
 30
0.0
 11
3732.97680536643702
 21
137.3220151391724926
 31
0.0
  0
LINE
  5
11964
  8
0
 10
3732.9849591769520885
 20
137.314538770213403
 30
0.0
 11
3732.9853083543080174
 21
137.3170516958354881
 31
0.0
  0
LINE
  5
11965
  8
0
 10
3733.0046442163511529
 20
137.3117628691105097
 30
0.0
 11
3733.0046442163511529
 21
137.3143649290105088
 31
0.0
  0
LINE
  5
11966
  8
0
 10
3733.012798027487861
 20
137.311133346089207
 30
0.0
 11
3733.0126966730308595
 21
137.3102398239101944
 31
0.0
  0
LINE
  5
11967
  8
0
 10
3733.0324830656400081
 20
137.3092994103809872
 30
0.0
 11
3733.0324081676858441
 21
137.3083471844130088
 31
0.0
  0
LINE
  5
11968
  8
0
 10
3732.9571203272507773
 20
137.321492457710491
 30
0.0
 11
3732.9570142671959729
 21
137.3256561457828013
 31
0.0
  0
LINE
  5
11969
  8
0
 10
3732.9489665170508488
 20
137.3264526807105028
 30
0.0
 11
3732.9495566196628715
 21
137.3291113535786963
 31
0.0
  0
LINE
  5
1196A
  8
0
 10
3732.9489665169871841
 20
137.3238271168004019
 30
0.0
 11
3732.9486921807979343
 21
137.321398349573002
 31
0.0
  0
LINE
  5
1196B
  8
0
 10
3732.9292814776508749
 20
137.3310654301104989
 30
0.0
 11
3732.9298923067849501
 21
137.3336868680999885
 31
0.0
  0
LINE
  5
1196C
  8
0
 10
3732.9292814776508749
 20
137.3284749985105009
 30
0.0
 11
3732.9292814776508749
 21
137.3260870464104926
 31
0.0
  0
LINE
  5
1196D
  8
0
 10
3732.9211276673509019
 20
137.3300153251105087
 30
0.0
 11
3732.9211276673531756
 21
137.3340800240000021
 31
0.0
  0
LINE
  5
1196E
  8
0
 10
3732.901442628598943
 20
137.3356845603638021
 30
0.0
 11
3732.9017779874420739
 21
137.3396514593650863
 31
0.0
  0
LINE
  5
1196F
  8
0
 10
3732.8932888176927918
 20
137.3413283940193992
 30
0.0
 11
3732.8940810964290904
 21
137.3437854398634101
 31
0.0
  0
LINE
  5
11970
  8
0
 10
3732.8736037783510255
 20
137.3479831352105123
 30
0.0
 11
3732.8744113017669406
 21
137.3503857309534908
 31
0.0
  0
LINE
  5
11971
  8
0
 10
3732.8736037773869612
 20
137.3434138449121917
 30
0.0
 11
3732.8740795493217774
 21
137.3454137920028018
 31
0.0
  0
LINE
  5
11972
  8
0
 10
3732.8926626522647894
 20
137.3365949197105067
 30
0.0
 11
3732.8936079825639354
 21
137.3386731947003909
 31
0.0
  0
LINE
  5
11973
  8
0
 10
3733.0881607654259824
 20
137.3093175622269939
 30
0.0
 11
3733.0881607654250729
 21
137.3136238258119022
 31
0.0
  0
LINE
  5
11974
  8
0
 10
3733.0881607652509047
 20
137.3066604143104996
 30
0.0
 11
3733.0881607652509047
 21
137.3076282195534077
 31
0.0
  0
LINE
  5
11975
  8
0
 10
3733.0631963646587792
 20
137.3067550028580115
 30
0.0
 11
3733.0631655354859504
 21
137.3073556785095093
 31
0.0
  0
ARC
  5
11976
  8
0
 10
3733.0800875360591817
 20
135.925803001087786
 30
0.0
 40
1.6881805726545911
 50
90.0600486086539149
 51
96.432193468971235
  0
ARC
  5
11977
  8
0
 10
3733.0449997392847763
 20
136.2370389697587996
 30
0.0
 40
1.374973003019009
 50
96.432193468971235
 51
103.9682818251338006
  0
ARC
  5
11978
  8
0
 10
3732.8409638894290765
 20
137.0573162914714942
 30
0.0
 40
0.5297005543122141
 50
103.9682818251338006
 51
118.6856112557350968
  0
ARC
  5
11979
  8
0
 10
3732.6284198302791992
 20
137.4457675171447022
 30
0.0
 40
0.0869033865181088
 50
118.6856112557350968
 51
142.1219806347098995
  0
ARC
  5
1197A
  8
0
 10
3732.6373804007689614
 20
137.4387974225500955
 30
0.0
 40
0.0982556568705699
 50
142.1219806347098995
 51
160.068189888825799
  0
ARC
  5
1197B
  8
0
 10
3732.5790279596180881
 20
137.4599573607740126
 30
0.0
 40
0.0361851294527086
 50
160.068189888825799
 51
189.4751471283113062
  0
ARC
  5
1197C
  8
0
 10
3733.0708887464629697
 20
136.5593568459451035
 30
0.0
 40
0.9460033700386469
 50
89.5500192346032406
 51
97.0799735931279741
  0
ARC
  5
1197D
  8
0
 10
3733.0242733407330888
 20
136.8534873412876891
 30
0.0
 40
0.6484472523849281
 50
96.1957336115291213
 51
108.7884851132357937
  0
ARC
  5
1197E
  8
0
 10
3732.8842223902470323
 20
137.2651554815047064
 30
0.0
 40
0.213608286327614
 50
108.7884851132357937
 51
123.625807761050396
  0
ARC
  5
1197F
  8
0
 10
3732.8151406438078084
 20
137.3690303299123912
 30
0.0
 40
0.0888594513722412
 50
123.625807761050396
 51
147.7671468397522858
  0
ARC
  5
11980
  8
0
 10
3732.7647152437521072
 20
137.4008252935080918
 30
0.0
 40
0.0292470308470194
 50
147.7671468397508932
 51
183.420607775468909
  0
ARC
  5
11981
  8
0
 10
3732.7828136444009033
 20
137.4019070692629896
 30
0.0
 40
0.0473777325654761
 50
183.420607775468909
 51
197.4392922833343107
  0
ARC
  5
11982
  8
0
 10
3732.7668411441168246
 20
137.3968895591536068
 30
0.0
 40
0.030635684512532
 50
197.4392922833343107
 51
214.6424555553415985
  0
ARC
  5
11983
  8
0
 10
3732.8016956555788965
 20
137.4150518334209892
 30
0.0
 40
0.0698055764058865
 50
210.6413063499742009
 51
215.2702558211875044
  0
ARC
  5
11984
  8
0
 10
3732.7657822522592141
 20
137.5623751745675918
 30
0.0
 40
0.155173191230383
 50
205.5987294915269956
 51
254.8621070642894892
  0
LINE
  5
11985
  8
0
 10
3733.9050898991840768
 20
134.2157183093104891
 30
0.0
 11
3733.9050898991840768
 21
138.0661120101104871
 31
0.0
  0
ARC
  5
11986
  8
0
 10
3733.877530829798161
 20
138.0661120100554058
 30
0.0
 40
0.0275590693853793
 50
0.0000001146343152
 51
90.0582252714821294
  0
ARC
  5
11987
  8
0
 10
3684.6370092486617978
 20
133.6398195138152118
 30
0.0
 40
49.4196950159939306
 50
4.4891991229581629
 51
4.7493548887778312
  0
ARC
  5
11988
  8
0
 10
3731.7893568201261587
 20
137.6742277467934912
 30
0.0
 40
2.0984467187224931
 50
1.5672647231617589
 51
7.5855262884741386
  0
ARC
  5
11989
  8
0
 10
3733.5251460659010263
 20
137.9088051749425006
 30
0.0
 40
0.3468984451874714
 50
7.0255981711521702
 51
14.2590072857996493
  0
ARC
  5
1198A
  8
0
 10
3733.810044671209198
 20
137.980935275586603
 30
0.0
 40
0.0530115453002077
 50
14.5445688969713505
 51
36.9241232496643335
  0
ARC
  5
1198B
  8
0
 10
3733.8479473401848736
 20
138.0094183666273011
 30
0.0
 40
0.0055995342617941
 50
36.9241232496682414
 51
80.9301359582285045
  0
ARC
  5
1198C
  8
0
 10
3733.0771357870721658
 20
138.2261106196804974
 30
0.0
 40
0.723794312694966
 50
333.7029736147841277
 51
343.0362032858445787
  0
ARC
  5
1198D
  8
0
 10
3734.3431310942628443
 20
137.6004985186600038
 30
0.0
 40
0.6883440016268111
 50
153.702973614784014
 51
163.204410592607303
  0
ARC
  5
1198E
  8
0
 10
3734.7207531509989167
 20
137.4865194160639135
 30
0.0
 40
1.082792545243809
 50
163.204410592607303
 51
169.2497406315648902
  0
ARC
  5
1198F
  8
0
 10
3723.7487203494320056
 20
139.4121790530244027
 30
0.0
 40
10.0570569484255508
 50
348.7457174353900768
 51
350.1313015567923799
  0
ARC
  5
11990
  8
0
 10
3733.5370513789889628
 20
137.4631969287343054
 30
0.0
 40
0.0765873539469535
 50
321.3044935690716102
 51
349.6272783606149801
  0
ARC
  5
11991
  8
0
 10
3733.4478759989410719
 20
137.5346283979127122
 30
0.0
 40
0.1908445340091555
 50
294.0929680347579165
 51
321.3044935690716102
  0
ARC
  5
11992
  8
0
 10
3733.2861852921810168
 20
137.8465482670835911
 30
0.0
 40
0.5419757197989029
 50
283.9917607276706804
 51
296.236708350687195
  0
ARC
  5
11993
  8
0
 10
3733.1118727258840408
 20
138.5408542800489897
 30
0.0
 40
1.257828369162288
 50
272.7449312965883905
 51
284.0496042370982082
  0
ARC
  5
11994
  8
0
 10
3733.0719414379341288
 20
139.2136075056407094
 30
0.0
 40
1.9317372128321451
 50
270.1891379568518232
 51
272.9723510990961017
  0
ARC
  5
11995
  8
0
 10
3733.0867179195947756
 20
138.1967153916571078
 30
0.0
 40
0.9085208882624645
 50
269.4702678475346147
 51
282.0209732199081145
  0
ARC
  5
11996
  8
0
 10
3733.0790210221161942
 20
136.0706522700477024
 30
0.0
 40
1.5224464447671231
 50
85.5906982758337165
 51
90.0264483061372971
  0
ARC
  5
11997
  8
0
 10
3733.1000595493910623
 20
136.3434932585358013
 30
0.0
 40
1.248795527302744
 50
77.552787834235474
 51
85.5906982758337165
  0
ARC
  5
11998
  8
0
 10
3733.2473796065241913
 20
137.0109205257328995
 30
0.0
 40
0.5653027649184577
 50
64.0118242153536841
 51
77.552787834235474
  0
ARC
  5
11999
  8
0
 10
3733.4242459369002063
 20
137.373740260349706
 30
0.0
 40
0.1616694428945611
 50
39.5273507429551785
 51
64.0118242153536841
  0
ARC
  5
1199A
  8
0
 10
3733.5096647961299823
 20
137.4442226448607869
 30
0.0
 40
0.0509258289086751
 50
1.884377147896183
 51
39.5273507429551785
  0
ARC
  5
1199B
  8
0
 10
3733.511436499994943
 20
137.444280934713106
 30
0.0
 40
0.0491531664219937
 50
335.4293730638784723
 51
1.884377147896183
  0
ARC
  5
1199C
  8
0
 10
3733.4545483658048397
 20
137.4791702167123901
 30
0.0
 40
0.1156797085172482
 50
298.9446631644493095
 51
331.4265377302846218
  0
ARC
  5
1199D
  8
0
 10
3733.2711904455200056
 20
137.8042695050974942
 30
0.0
 40
0.4889187398137959
 50
281.9374824943756153
 51
299.3100200805722011
  0
ARC
  5
1199E
  8
0
 10
3733.136224869031139
 20
138.3340897952737123
 30
0.0
 40
1.0354414740426181
 50
277.7544790057592081
 51
283.1802022781973847
  0
ARC
  5
1199F
  8
0
 10
3733.3720593929338065
 20
137.4739016959379967
 30
0.0
 40
0.0878891666333593
 50
32.7992503745702635
 51
61.4087862668069988
  0
ARC
  5
119A0
  8
0
 10
3733.4126833764921685
 20
137.500081314576903
 30
0.0
 40
0.0395602883907586
 50
350.0992472216657916
 51
32.7992503745702635
  0
ARC
  5
119A1
  8
0
 10
3733.4126819800148951
 20
137.5000815583200051
 30
0.0
 40
0.0395617059794971
 50
321.4308414322538852
 51
350.0992472216657916
  0
ARC
  5
119A2
  8
0
 10
3733.3805162029780149
 20
137.5211569439109098
 30
0.0
 40
0.0779324454112698
 50
312.0262196699026163
 51
324.0609191497925963
  0
LINE
  5
119A3
  8
0
 10
3733.432648954250908
 20
137.4815079359105141
 30
0.0
 11
3733.432648954250908
 21
137.4258753818104992
 31
0.0
  0
ARC
  5
119A4
  8
0
 10
3733.3626045571950272
 20
137.4258753818104992
 30
0.0
 40
0.0700443970552609
 50
343.0101290727205878
 51
0.0
  0
ARC
  5
119A5
  8
0
 10
3733.3514265248368247
 20
137.4297740071422993
 30
0.0
 40
0.0818750735195265
 50
323.1549490947243726
 51
342.68666465164182
  0
ARC
  5
119A6
  8
0
 10
3733.2845221459369895
 20
137.4875183157913057
 30
0.0
 40
0.1701515868542788
 50
307.6396306335790882
 51
321.103447195738795
  0
ARC
  5
119A7
  8
0
 10
3733.265779702952841
 20
137.5255290650501081
 30
0.0
 40
0.211862394938086
 50
289.066841311650478
 51
305.3750992155991071
  0
ARC
  5
119A8
  8
0
 10
3733.1684674459020243
 20
137.7878005295879973
 30
0.0
 40
0.4915745790104011
 50
282.6279726393757983
 51
289.8008178217189084
  0
ARC
  5
119A9
  8
0
 10
3733.3920030086042061
 20
137.4804513159511998
 30
0.0
 40
0.0406596771171118
 50
1.4891087324898691
 51
37.6816341737418412
  0
ARC
  5
119AA
  8
0
 10
3733.3102269182918462
 20
137.4033920116908973
 30
0.0
 40
0.1528793285802833
 50
41.807263072908988
 51
71.0578460214239698
  0
ARC
  5
119AB
  8
0
 10
3733.1448137750799106
 20
136.967742072639993
 30
0.0
 40
0.6188154860349666
 50
69.6653779468021099
 51
83.7055693173518165
  0
ARC
  5
119AC
  8
0
 10
3733.0839629558508932
 20
136.5553395183227963
 30
0.0
 40
1.035516044397309
 50
82.8606882060723535
 51
87.4502627549897511
  0
ARC
  5
119AD
  8
0
 10
3733.0784854130229178
 20
136.456615030846109
 30
0.0
 40
1.1343869843531289
 50
87.3957038073525752
 51
90.0084433160011343
  0
ARC
  5
119AE
  8
0
 10
3733.0783252296769206
 20
136.4732201932341127
 30
0.0
 40
1.0157523431006941
 50
88.0589625520545241
 51
90.0003939523900982
  0
ARC
  5
119AF
  8
0
 10
3733.0810636827291091
 20
136.554023257653995
 30
0.0
 40
0.9349028882802345
 50
81.2476506336605979
 51
88.0589625511420451
  0
ARC
  5
119B0
  8
0
 10
3733.1368533356821899
 20
136.9163956265265938
 30
0.0
 40
0.5682610751998423
 50
72.7237180232533404
 51
81.2476506336605979
  0
ARC
  5
119B1
  8
0
 10
3733.223029461547867
 20
137.1934792480629994
 30
0.0
 40
0.2780858557322866
 50
62.8393513038112914
 51
72.7237180232538236
  0
ARC
  5
119B2
  8
0
 10
3733.2889999110930148
 20
137.3220610041236114
 30
0.0
 40
0.1335681467658441
 50
48.9475930352552524
 51
62.8393513038112914
  0
ARC
  5
119B3
  8
0
 10
3733.3393852453541513
 20
137.3799157391985943
 30
0.0
 40
0.0568488383802702
 50
31.2146549772750994
 51
48.9475930352563182
  0
ARC
  5
119B4
  8
0
 10
3733.3584218692772083
 20
137.391451384512493
 30
0.0
 40
0.0345898140708766
 50
342.6445126280469822
 51
31.2146549772750994
  0
ARC
  5
119B5
  8
0
 10
3733.3500112636947961
 20
137.3963519517909901
 30
0.0
 40
0.0441326524192749
 50
320.9417550835610768
 51
339.8279946599594155
  0
ARC
  5
119B6
  8
0
 10
3733.2984499588860672
 20
137.4454866701279059
 30
0.0
 40
0.1152698314683834
 50
296.2006311467828255
 51
318.1252371154687921
  0
ARC
  5
119B7
  8
0
 10
3733.2001881115261313
 20
137.6451755594667077
 30
0.0
 40
0.3378255394873993
 50
284.0028922626260055
 51
296.2006311467828255
  0
ARC
  5
119B8
  8
0
 10
3733.1046497900310897
 20
138.0282764515513918
 30
0.0
 40
0.7326595101513098
 50
275.2487985521639757
 51
284.0028922626260055
  0
ARC
  5
119B9
  8
0
 10
3733.0747512858861228
 20
138.3537344218788974
 30
0.0
 40
1.059487922318705
 50
271.3438338800083898
 51
275.2487985521639757
  0
ARC
  5
119BA
  8
0
 10
3733.0783499451817988
 20
138.3133081808373106
 30
0.0
 40
1.0189918484623099
 50
269.9982175988687914
 51
271.194853022793211
  0
ARC
  5
119BB
  8
0
 10
3733.3312987007648189
 20
137.4393556277273092
 30
0.0
 40
0.066611902216884
 50
302.5998383478932965
 51
330.7488368252688247
  0
ARC
  5
119BC
  8
0
 10
3733.2054651796129292
 20
137.6361172440207099
 30
0.0
 40
0.3001696224747878
 50
296.3529691499462047
 51
302.5998383478932965
  0
ARC
  5
119BD
  8
0
 10
3733.102681938880778
 20
137.8436001980668948
 30
0.0
 40
0.5317156671290992
 50
293.8230607100420002
 51
296.3529691499462047
  0
ARC
  5
119BE
  8
0
 10
3733.0772330925210554
 20
137.9012376166201079
 30
0.0
 40
0.5947213478133538
 50
286.5575698730248746
 51
293.8230607100420002
  0
ARC
  5
119BF
  8
0
 10
3733.0766968742318568
 20
137.9030412025128101
 30
0.0
 40
0.5966029567332107
 50
276.4663615204024723
 51
286.5575698730248746
  0
ARC
  5
119C0
  8
0
 10
3733.0657569262762081
 20
138.0399880691196017
 30
0.0
 40
0.733924763034446
 50
270.9806805289276781
 51
276.1109493940771245
  0
ARC
  5
119C1
  8
0
 10
3733.0783694230290166
 20
137.9392540812019945
 30
0.0
 40
0.617477062332625
 50
269.9952512395310009
 51
280.7963359008278985
  0
ARC
  5
119C2
  8
0
 10
3733.0794592070019462
 20
137.9335392480147959
 30
0.0
 40
0.6116592493874546
 50
280.7963359008278985
 51
292.3341363236891084
  0
ARC
  5
119C3
  8
0
 10
3733.0876258903567759
 20
137.9136605596515039
 30
0.0
 40
0.5901683916088161
 50
292.3341363236891084
 51
294.7397414735260099
  0
LINE
  5
119C4
  8
0
 10
3733.3346096698051042
 20
137.3776589335870995
 30
0.0
 11
3733.3351150854177831
 21
137.3792940089034005
 31
0.0
  0
LINE
  5
119C5
  8
0
 10
3733.3351150854509797
 20
137.3792940089105059
 30
0.0
 11
3733.3387104121879929
 21
137.3809654572746979
 31
0.0
  0
LINE
  5
119C6
  8
0
 10
3733.3387104121879929
 20
137.3809654572746979
 30
0.0
 11
3733.3485529318741101
 21
137.3898325299659859
 31
0.0
  0
LINE
  5
119C7
  8
0
 10
3733.3485529318481895
 20
137.3898325299417138
 30
0.0
 11
3733.3387104122498386
 21
137.3897951913228894
 31
0.0
  0
LINE
  5
119C8
  8
0
 10
3733.3387104122498386
 20
137.3897951913228894
 30
0.0
 11
3733.336692663283884
 21
137.3888567881803056
 31
0.0
  0
LINE
  5
119C9
  8
0
 10
3733.336692663283884
 20
137.3888567881803056
 30
0.0
 11
3733.3190253727511845
 21
137.3992858450104961
 31
0.0
  0
ARC
  5
119CA
  8
0
 10
3733.0783419271901948
 20
137.9711488437573905
 30
0.0
 40
0.6177401663064385
 50
269.9978035181289897
 51
281.1719472221105889
  0
ARC
  5
119CB
  8
0
 10
3733.0796058745218033
 20
137.9647489999038044
 30
0.0
 40
0.6112167037128581
 50
281.1719472120456089
 51
290.2528098597261987
  0
ARC
  5
119CC
  8
0
 10
3733.0819632073439607
 20
137.9583601345804027
 30
0.0
 40
0.604406812512946
 50
290.2528098597261987
 51
294.7088440764725874
  0
LINE
  5
119CD
  8
0
 10
3733.3346096699001464
 20
137.4092905943849985
 30
0.0
 11
3733.3351150854509797
 21
137.407035449510488
 31
0.0
  0
LINE
  5
119CE
  8
0
 10
3733.3351150854509797
 20
137.407035449510488
 30
0.0
 11
3733.3387104121511584
 21
137.4087068978670914
 31
0.0
  0
LINE
  5
119CF
  8
0
 10
3733.3387104121511584
 20
137.4087068978670914
 30
0.0
 11
3733.3485529317831606
 21
137.4070378852202055
 31
0.0
  0
LINE
  5
119D0
  8
0
 10
3733.3485529317831606
 20
137.4070378852202055
 30
0.0
 11
3733.3387104121911761
 21
137.3964644612015036
 31
0.0
  0
LINE
  5
119D1
  8
0
 10
3733.3387104121911761
 20
137.3964644612015036
 30
0.0
 11
3733.3366926632511422
 21
137.3955260582104927
 31
0.0
  0
LINE
  5
119D2
  8
0
 10
3733.3366926632511422
 20
137.3955260582104927
 30
0.0
 11
3733.3226044684001863
 21
137.4039240440440039
 31
0.0
  0
ARC
  5
119D3
  8
0
 10
3733.2714825021280376
 20
137.3921914235787938
 30
0.0
 40
0.0652953666911665
 50
357.0726302466827065
 51
2.9273691296437399
  0
ARC
  5
119D4
  8
0
 10
3733.3104903857110912
 20
137.0767000213089943
 30
0.0
 40
0.3226987134416804
 50
88.4844198390671295
 51
89.7514853087139528
  0
LINE
  5
119D5
  8
0
 10
3733.3351150854150546
 20
137.3792940088937939
 30
0.0
 11
3733.3190253727570962
 21
137.388749759683094
 31
0.0
  0
LINE
  5
119D6
  8
0
 10
3733.3190253727570962
 20
137.388749759683094
 30
0.0
 11
3733.3099335256820268
 21
137.3985948900634924
 31
0.0
  0
LINE
  5
119D7
  8
0
 10
3733.3190253726020273
 20
137.3992858450986887
 30
0.0
 11
3733.3190253727570962
 21
137.388749759683094
 31
0.0
  0
LINE
  5
119D8
  8
0
 10
3733.3108715625508012
 20
137.3951601009136994
 30
0.0
 11
3733.3108715625508012
 21
137.3758284976105131
 31
0.0
  0
LINE
  5
119D9
  8
0
 10
3733.3346096698051042
 20
137.3776589335870995
 30
0.0
 11
3733.3181179706898547
 21
137.3873130846542949
 31
0.0
  0
LINE
  5
119DA
  8
0
 10
3733.3181179706898547
 20
137.3873130846542949
 30
0.0
 11
3733.3181179707507908
 21
137.3758284976105131
 31
0.0
  0
LINE
  5
119DB
  8
0
 10
3733.3181179707507908
 20
137.3758284976105131
 30
0.0
 11
3733.2839401149508376
 21
137.3758284976105131
 31
0.0
  0
LINE
  5
119DC
  8
0
 10
3733.2839401149508376
 20
137.3758284976105131
 30
0.0
 11
3733.2839401149508376
 21
137.3886991955587007
 31
0.0
  0
LINE
  5
119DD
  8
0
 10
3733.3067898088679613
 20
137.3973248466892016
 30
0.0
 11
3733.3108715624907745
 21
137.3951601009457022
 31
0.0
  0
LINE
  5
119DE
  8
0
 10
3733.3108715624907745
 20
137.3951601009457022
 30
0.0
 11
3733.3181179708199124
 21
137.3873130845778974
 31
0.0
  0
LINE
  5
119DF
  8
0
 10
3733.2911865231508273
 20
137.3758284976105131
 30
0.0
 11
3733.2911865231508273
 21
137.3913211596104986
 31
0.0
  0
LINE
  5
119E0
  8
0
 10
3733.2624402714509415
 20
137.3815156040147087
 30
0.0
 11
3733.2624402714509415
 21
137.3758284976105131
 31
0.0
  0
LINE
  5
119E1
  8
0
 10
3733.2624402714509415
 20
137.3758284976105131
 30
0.0
 11
3733.2431861327331717
 21
137.3758284976105131
 31
0.0
  0
LINE
  5
119E2
  8
0
 10
3733.319772766315964
 20
137.4027035781772099
 30
0.0
 11
3733.3207140821991743
 21
137.4016673550983967
 31
0.0
  0
LINE
  5
119E3
  8
0
 10
3733.3207140821991743
 20
137.4016673550983967
 30
0.0
 11
3733.3175383016450724
 21
137.4017525798732891
 31
0.0
  0
LINE
  5
119E4
  8
0
 10
3733.3387104125267797
 20
137.4087068978033983
 30
0.0
 11
3733.3387104125267797
 21
137.3964644614690087
 31
0.0
  0
LINE
  5
119E5
  8
0
 10
3733.3351150854509797
 20
137.407035449510488
 30
0.0
 11
3733.3327877693809569
 21
137.4084559301126944
 31
0.0
  0
LINE
  5
119E6
  8
0
 10
3733.2551938632500423
 20
137.3758284976105131
 30
0.0
 11
3733.2551938632500423
 21
137.3792964252986906
 31
0.0
  0
LINE
  5
119E7
  8
0
 10
3733.3370217028091247
 20
137.3922395148146052
 30
0.0
 11
3733.3468642226130214
 21
137.4024404575810081
 31
0.0
  0
LINE
  5
119E8
  8
0
 10
3733.3468642226130214
 20
137.4024404575810081
 30
0.0
 11
3733.3665492616291885
 21
137.4124552335885028
 31
0.0
  0
LINE
  5
119E9
  8
0
 10
3733.3665492616291885
 20
137.4124552335885028
 30
0.0
 11
3733.3763917814048909
 21
137.4122721442520003
 31
0.0
  0
LINE
  5
119EA
  8
0
 10
3733.3763917814048909
 20
137.4122721442520003
 30
0.0
 11
3733.3665492617869859
 21
137.401919148323401
 31
0.0
  0
LINE
  5
119EB
  8
0
 10
3733.3665492617869859
 20
137.401919148323401
 30
0.0
 11
3733.3468642222928793
 21
137.3919043721261062
 31
0.0
  0
LINE
  5
119EC
  8
0
 10
3733.3468642222928793
 20
137.3919043721261062
 30
0.0
 11
3733.3370217027750186
 21
137.3922395147812949
 31
0.0
  0
LINE
  5
119ED
  8
0
 10
3733.3468642222928793
 20
137.3919043721261062
 30
0.0
 11
3733.3468642222928793
 21
137.4024404574261098
 31
0.0
  0
LINE
  5
119EE
  8
0
 10
3733.3665492618511053
 20
137.412455233575713
 30
0.0
 11
3733.3665492618511053
 21
137.4019191483878899
 31
0.0
  0
LINE
  5
119EF
  8
0
 10
3733.376391781518123
 20
137.3979670307950869
 30
0.0
 11
3733.3665492618088138
 21
137.3963603551098061
 31
0.0
  0
LINE
  5
119F0
  8
0
 10
3733.3665492618088138
 20
137.3963603551098061
 30
0.0
 11
3733.346864222298791
 21
137.3863232854670002
 31
0.0
  0
LINE
  5
119F1
  8
0
 10
3733.346864222298791
 20
137.3863232854670002
 30
0.0
 11
3733.3370217026499631
 21
137.3778186756962043
 31
0.0
  0
LINE
  5
119F2
  8
0
 10
3733.3370217026499631
 20
137.3778186756962043
 30
0.0
 11
3733.3468642224511314
 21
137.3792411222104874
 31
0.0
  0
LINE
  5
119F3
  8
0
 10
3733.3468642224511314
 20
137.3792411222104874
 30
0.0
 11
3733.3665492617678865
 21
137.3893496205720055
 31
0.0
  0
LINE
  5
119F4
  8
0
 10
3733.3665492617678865
 20
137.3893496205720055
 30
0.0
 11
3733.376391781518123
 21
137.3979670307950869
 31
0.0
  0
LINE
  5
119F5
  8
0
 10
3733.3665492618088138
 20
137.3963603551098061
 30
0.0
 11
3733.3665492618088138
 21
137.3893496206075042
 31
0.0
  0
LINE
  5
119F6
  8
0
 10
3733.3468642224511314
 20
137.3863232855983938
 30
0.0
 11
3733.3468642224511314
 21
137.3792411222104874
 31
0.0
  0
LINE
  5
119F7
  8
0
 10
3733.3485529317849796
 20
137.3782819082780975
 30
0.0
 11
3733.3387104121511584
 21
137.3764647552104918
 31
0.0
  0
LINE
  5
119F8
  8
0
 10
3733.3387104121511584
 20
137.3764647552104918
 30
0.0
 11
3733.3270038513501277
 21
137.3711043378104932
 31
0.0
  0
LINE
  5
119F9
  8
0
 10
3733.3270038513501277
 20
137.3711043378104932
 30
0.0
 11
3733.3220950264048952
 21
137.3660956788565102
 31
0.0
  0
LINE
  5
119FA
  8
0
 10
3733.3220950264048952
 20
137.3660956788565102
 30
0.0
 11
3733.3190253727511845
 21
137.3647671960104901
 31
0.0
  0
LINE
  5
119FB
  8
0
 10
3733.3190253727511845
 20
137.3647671960104901
 30
0.0
 11
3733.3091828531510146
 21
137.3605059202104997
 31
0.0
  0
LINE
  5
119FC
  8
0
 10
3733.3091828531510146
 20
137.3605059202104997
 30
0.0
 11
3733.3190253727511845
 21
137.3621727242104953
 31
0.0
  0
LINE
  5
119FD
  8
0
 10
3733.3190253727511845
 20
137.3621727242104953
 30
0.0
 11
3733.3387104124431062
 21
137.3711054458738943
 31
0.0
  0
LINE
  5
119FE
  8
0
 10
3733.3387104124431062
 20
137.3711054458738943
 30
0.0
 11
3733.3485529317849796
 21
137.3782819082780975
 31
0.0
  0
LINE
  5
119FF
  8
0
 10
3733.3485529326108008
 20
137.3725851952615926
 30
0.0
 11
3733.3387104121511584
 21
137.368847837810506
 31
0.0
  0
LINE
  5
11A00
  8
0
 10
3733.3387104121511584
 20
137.368847837810506
 30
0.0
 11
3733.3190253725520051
 21
137.3598362220153035
 31
0.0
  0
LINE
  5
11A01
  8
0
 10
3733.3190253725520051
 20
137.3598362220153035
 30
0.0
 11
3733.3091828532901673
 21
137.3543996499192872
 31
0.0
  0
LINE
  5
11A02
  8
0
 10
3733.3091828532901673
 20
137.3543996499192872
 30
0.0
 11
3733.3190253727921117
 21
137.3579685632805933
 31
0.0
  0
LINE
  5
11A03
  8
0
 10
3733.3190253727921117
 20
137.3579685632805933
 30
0.0
 11
3733.3387104121511584
 21
137.3671423191105134
 31
0.0
  0
LINE
  5
11A04
  8
0
 10
3733.3485529319000307
 20
137.372585194841605
 30
0.0
 11
3733.3424838765799905
 21
137.3690448213747004
 31
0.0
  0
LINE
  5
11A05
  8
0
 10
3733.3387104126991289
 20
137.3764647553115879
 30
0.0
 11
3733.3387104126991289
 21
137.3711054460509899
 31
0.0
  0
LINE
  5
11A06
  8
0
 10
3733.3387104149860534
 20
137.3688478388870067
 30
0.0
 11
3733.3387104149860534
 21
137.3671423205807969
 31
0.0
  0
LINE
  5
11A07
  8
0
 10
3733.3190253727511845
 20
137.3647671960104901
 30
0.0
 11
3733.3190253727511845
 21
137.3621726990772913
 31
0.0
  0
LINE
  5
11A08
  8
0
 10
3733.3190253727821073
 20
137.359836222115689
 30
0.0
 11
3733.3190253727821073
 21
137.3579685633245901
 31
0.0
  0
LINE
  5
11A09
  8
0
 10
3733.3207140822178189
 20
137.3616306164902028
 30
0.0
 11
3733.3108715625508012
 21
137.3595687131991099
 31
0.0
  0
LINE
  5
11A0A
  8
0
 10
3733.3108715625508012
 20
137.3595687131991099
 30
0.0
 11
3733.29118652297484
 21
137.351828058894597
 31
0.0
  0
LINE
  5
11A0B
  8
0
 10
3733.29118652297484
 20
137.351828058894597
 30
0.0
 11
3733.281344003490176
 21
137.346045635243712
 31
0.0
  0
LINE
  5
11A0C
  8
0
 10
3733.281344003490176
 20
137.346045635243712
 30
0.0
 11
3733.2911865231949378
 21
137.3479887538289006
 31
0.0
  0
LINE
  5
11A0D
  8
0
 10
3733.2911865231949378
 20
137.3479887538289006
 30
0.0
 11
3733.3108715625508012
 21
137.3558327384104985
 31
0.0
  0
LINE
  5
11A0E
  8
0
 10
3733.3108715625508012
 20
137.3558327384104985
 30
0.0
 11
3733.3207140822119072
 21
137.3616306165523042
 31
0.0
  0
LINE
  5
11A0F
  8
0
 10
3733.3108715619218856
 20
137.3595687129522958
 30
0.0
 11
3733.3108715619218856
 21
137.3558327380752075
 31
0.0
  0
LINE
  5
11A10
  8
0
 10
3733.2911865231508273
 20
137.3479887538115065
 30
0.0
 11
3733.2911865231508273
 21
137.3518280590045038
 31
0.0
  0
LINE
  5
11A11
  8
0
 10
3733.2928752324742163
 20
137.3541148432315993
 30
0.0
 11
3733.2830327128508543
 21
137.3506571432660053
 31
0.0
  0
LINE
  5
11A12
  8
0
 10
3733.2830327128508543
 20
137.3506571432660053
 30
0.0
 11
3733.2633476734508804
 21
137.3440409115104899
 31
0.0
  0
LINE
  5
11A13
  8
0
 10
3733.2633476734508804
 20
137.3440409115104899
 30
0.0
 11
3733.2535051538820881
 21
137.3408671738384896
 31
0.0
  0
LINE
  5
11A14
  8
0
 10
3733.2535051538820881
 20
137.3408671738384896
 30
0.0
 11
3733.2633476735090881
 21
137.3413283940193992
 31
0.0
  0
LINE
  5
11A15
  8
0
 10
3733.2633476735090881
 20
137.3413283940193992
 30
0.0
 11
3733.2830327128508543
 21
137.3479831352105123
 31
0.0
  0
LINE
  5
11A16
  8
0
 10
3733.2830327128508543
 20
137.3479831352105123
 30
0.0
 11
3733.2928752325860842
 21
137.3541148433048136
 31
0.0
  0
LINE
  5
11A17
  8
0
 10
3733.2928752325301502
 20
137.3478684334932041
 30
0.0
 11
3733.2830327128917816
 21
137.3455269742445068
 31
0.0
  0
LINE
  5
11A18
  8
0
 10
3733.2830327128917816
 20
137.3455269742445068
 30
0.0
 11
3733.2633476733558382
 21
137.3388183709066084
 31
0.0
  0
LINE
  5
11A19
  8
0
 10
3733.2633476733558382
 20
137.3388183709066084
 30
0.0
 11
3733.2535051537070103
 21
137.334341373356807
 31
0.0
  0
LINE
  5
11A1A
  8
0
 10
3733.2535051537070103
 20
137.334341373356807
 30
0.0
 11
3733.2633476734508804
 21
137.3365949197105067
 31
0.0
  0
LINE
  5
11A1B
  8
0
 10
3733.2633476734508804
 20
137.3365949197105067
 30
0.0
 11
3733.2830327138140092
 21
137.3434138449121917
 31
0.0
  0
LINE
  5
11A1C
  8
0
 10
3733.2830327138140092
 20
137.3434138449121917
 30
0.0
 11
3733.2928752325301502
 21
137.3478684334932041
 31
0.0
  0
LINE
  5
11A1D
  8
0
 10
3733.2650363828688569
 20
137.3405118900832065
 30
0.0
 11
3733.2551938631800112
 21
137.3396798104137986
 31
0.0
  0
LINE
  5
11A1E
  8
0
 10
3733.2551938631800112
 20
137.3396798104137986
 30
0.0
 11
3733.2355088238491589
 21
137.3340800240000021
 31
0.0
  0
LINE
  5
11A1F
  8
0
 10
3733.2355088238491589
 20
137.3340800240000021
 30
0.0
 11
3733.2256663040020612
 21
137.3292430287600894
 31
0.0
  0
LINE
  5
11A20
  8
0
 10
3733.2256663040020612
 20
137.3292430287600894
 30
0.0
 11
3733.2355088238509779
 21
137.3300153251105087
 31
0.0
  0
LINE
  5
11A21
  8
0
 10
3733.2355088238509779
 20
137.3300153251105087
 30
0.0
 11
3733.2551938626029369
 21
137.3356845603638021
 31
0.0
  0
LINE
  5
11A22
  8
0
 10
3733.2551938626029369
 20
137.3356845603638021
 30
0.0
 11
3733.2650363829161506
 21
137.3405118900888908
 31
0.0
  0
LINE
  5
11A23
  8
0
 10
3733.2625258095349636
 20
137.3361180800912109
 30
0.0
 11
3733.2551938632500423
 21
137.3342493628719865
 31
0.0
  0
LINE
  5
11A24
  8
0
 10
3733.2551938632500423
 20
137.3342493628719865
 30
0.0
 11
3733.2355088238091412
 21
137.3285233070683091
 31
0.0
  0
LINE
  5
11A25
  8
0
 10
3733.2355088238091412
 20
137.3285233070683091
 30
0.0
 11
3733.2267822791641265
 21
137.3256250101445914
 31
0.0
  0
LINE
  5
11A26
  8
0
 10
3733.237197532952905
 20
137.329622637151914
 30
0.0
 11
3733.2273550135500955
 21
137.3284749985105009
 31
0.0
  0
LINE
  5
11A27
  8
0
 10
3733.2273550135500955
 20
137.3284749985105009
 30
0.0
 11
3733.2076699742151504
 21
137.3238271168004019
 31
0.0
  0
LINE
  5
11A28
  8
0
 10
3733.2076699742151504
 20
137.3238271168004019
 30
0.0
 11
3733.1978274542580039
 21
137.3202556218051029
 31
0.0
  0
LINE
  5
11A29
  8
0
 10
3733.1978274542580039
 20
137.3202556218051029
 30
0.0
 11
3733.2076699741510311
 21
137.3213673625105002
 31
0.0
  0
LINE
  5
11A2A
  8
0
 10
3733.2076699741510311
 20
137.3213673625105002
 30
0.0
 11
3733.2273550135500955
 21
137.3260870464104926
 31
0.0
  0
LINE
  5
11A2B
  8
0
 10
3733.2273550135500955
 20
137.3260870464104926
 30
0.0
 11
3733.2371975332512193
 21
137.3296226372690967
 31
0.0
  0
LINE
  5
11A2C
  8
0
 10
3733.2371975332630427
 20
137.3362426101816141
 30
0.0
 11
3733.2273550135500955
 21
137.3338291992301947
 31
0.0
  0
LINE
  5
11A2D
  8
0
 10
3733.2273550135500955
 20
137.3338291992301947
 30
0.0
 11
3733.2076699741510311
 21
137.3292423291105138
 31
0.0
  0
LINE
  5
11A2E
  8
0
 10
3733.2076699741510311
 20
137.3292423291105138
 30
0.0
 11
3733.1978274546167995
 21
137.3270577442534091
 31
0.0
  0
LINE
  5
11A2F
  8
0
 10
3733.1978274546167995
 20
137.3270577442534091
 30
0.0
 11
3733.2076699741510311
 21
137.3264526807105028
 31
0.0
  0
LINE
  5
11A30
  8
0
 10
3733.2076699741510311
 20
137.3264526807105028
 30
0.0
 11
3733.2273550135500955
 21
137.3310654301104989
 31
0.0
  0
LINE
  5
11A31
  8
0
 10
3733.2273550135500955
 20
137.3310654301104989
 30
0.0
 11
3733.2371975332630427
 21
137.3362426101816141
 31
0.0
  0
LINE
  5
11A32
  8
0
 10
3733.2093586835521819
 20
137.3254081326244886
 30
0.0
 11
3733.1995161639511025
 21
137.3256588474104944
 31
0.0
  0
LINE
  5
11A33
  8
0
 10
3733.1995161639511025
 20
137.3256588474104944
 30
0.0
 11
3733.1798311247648599
 21
137.3220151391724926
 31
0.0
  0
LINE
  5
11A34
  8
0
 10
3733.1798311247648599
 20
137.3220151391724926
 30
0.0
 11
3733.1699886048941153
 21
137.3180779578659099
 31
0.0
  0
LINE
  5
11A35
  8
0
 10
3733.1699886048941153
 20
137.3180779578659099
 30
0.0
 11
3733.1798311245051991
 21
137.3178057388849993
 31
0.0
  0
LINE
  5
11A36
  8
0
 10
3733.1798311245051991
 20
137.3178057388849993
 30
0.0
 11
3733.1995161639511025
 21
137.321492457710491
 31
0.0
  0
LINE
  5
11A37
  8
0
 10
3733.1995161639511025
 20
137.321492457710491
 30
0.0
 11
3733.2093586835521819
 21
137.3254081326244886
 31
0.0
  0
LINE
  5
11A38
  8
0
 10
3733.1815198339509152
 20
137.3240481501105137
 30
0.0
 11
3733.1716773142970851
 21
137.3197755712581909
 31
0.0
  0
LINE
  5
11A39
  8
0
 10
3733.1716773142970851
 20
137.3197755712581909
 30
0.0
 11
3733.1519922750139813
 21
137.3170601843305008
 31
0.0
  0
LINE
  5
11A3A
  8
0
 10
3733.1519922750139813
 20
137.3170601843305008
 30
0.0
 11
3733.1421497551500579
 21
137.3186404984105025
 31
0.0
  0
LINE
  5
11A3B
  8
0
 10
3733.1421497551500579
 20
137.3186404984105025
 30
0.0
 11
3733.1519922748511817
 21
137.3198964104105073
 31
0.0
  0
LINE
  5
11A3C
  8
0
 10
3733.1519922748511817
 20
137.3198964104105073
 30
0.0
 11
3733.1716773142511556
 21
137.3225986336105109
 31
0.0
  0
LINE
  5
11A3D
  8
0
 10
3733.1716773142511556
 20
137.3225986336105109
 30
0.0
 11
3733.1815198339509152
 21
137.3240481501105137
 31
0.0
  0
LINE
  5
11A3E
  8
0
 10
3733.1815198339231756
 20
137.3171877120960005
 30
0.0
 11
3733.1716773142511556
 21
137.3171002149105107
 31
0.0
  0
LINE
  5
11A3F
  8
0
 10
3733.1716773142511556
 20
137.3171002149105107
 30
0.0
 11
3733.1519922748511817
 21
137.3143649290105088
 31
0.0
  0
LINE
  5
11A40
  8
0
 10
3733.1519922748511817
 20
137.3143649290105088
 30
0.0
 11
3733.1421497552350957
 21
137.3116769201004104
 31
0.0
  0
LINE
  5
11A41
  8
0
 10
3733.1421497552350957
 20
137.3116769201004104
 30
0.0
 11
3733.1519922748511817
 21
137.3117628691105097
 31
0.0
  0
LINE
  5
11A42
  8
0
 10
3733.1519922748511817
 20
137.3117628691105097
 30
0.0
 11
3733.1716773142497914
 21
137.314538770213403
 31
0.0
  0
LINE
  5
11A43
  8
0
 10
3733.1716773142497914
 20
137.314538770213403
 30
0.0
 11
3733.1815198339231756
 21
137.3171877120960005
 31
0.0
  0
LINE
  5
11A44
  8
0
 10
3733.0864720559020498
 20
137.3083455173654954
 30
0.0
 11
3733.0963145755831647
 21
137.3101459705609102
 31
0.0
  0
LINE
  5
11A45
  8
0
 10
3733.0963145755831647
 20
137.3101459705609102
 30
0.0
 11
3733.1159996149522158
 21
137.3110492010885935
 31
0.0
  0
LINE
  5
11A46
  8
0
 10
3733.1159996149522158
 20
137.3110492010885935
 30
0.0
 11
3733.1258421343691225
 21
137.3101649941193045
 31
0.0
  0
LINE
  5
11A47
  8
0
 10
3733.1258421343691225
 20
137.3101649941193045
 30
0.0
 11
3733.1159996149381186
 21
137.3083984624637139
 31
0.0
  0
LINE
  5
11A48
  8
0
 10
3733.1159996149381186
 20
137.3083984624637139
 30
0.0
 11
3733.0963145755508776
 21
137.3074820756104941
 31
0.0
  0
LINE
  5
11A49
  8
0
 10
3733.0963145755508776
 20
137.3074820756104941
 30
0.0
 11
3733.0864720575559659
 21
137.3083455176681014
 31
0.0
  0
LINE
  5
11A4A
  8
0
 10
3733.1258421346619798
 20
137.3171565143865962
 30
0.0
 11
3733.1159996149508515
 21
137.3166182797884005
 31
0.0
  0
LINE
  5
11A4B
  8
0
 10
3733.1159996149508515
 20
137.3166182797884005
 30
0.0
 11
3733.0963145755508776
 21
137.3157257846090999
 31
0.0
  0
LINE
  5
11A4C
  8
0
 10
3733.0963145755508776
 20
137.3157257846090999
 30
0.0
 11
3733.0864720558479348
 21
137.315370463909602
 31
0.0
  0
LINE
  5
11A4D
  8
0
 10
3733.0864720558479348
 20
137.315370463909602
 30
0.0
 11
3733.0963145755508776
 21
137.3128715337105064
 31
0.0
  0
LINE
  5
11A4E
  8
0
 10
3733.0963145755508776
 20
137.3128715337105064
 30
0.0
 11
3733.1159996148298887
 21
137.3137683145031929
 31
0.0
  0
LINE
  5
11A4F
  8
0
 10
3733.1159996148298887
 20
137.3137683145031929
 30
0.0
 11
3733.1258421347388321
 21
137.3171565143908026
 31
0.0
  0
LINE
  5
11A50
  8
0
 10
3733.1143109057320544
 20
137.3122073049271137
 30
0.0
 11
3733.1241534258037973
 21
137.3152611224255111
 31
0.0
  0
LINE
  5
11A51
  8
0
 10
3733.1241534258037973
 20
137.3152611224255111
 30
0.0
 11
3733.1438384645871338
 21
137.3170576287944016
 31
0.0
  0
LINE
  5
11A52
  8
0
 10
3733.1438384645871338
 20
137.3170576287944016
 30
0.0
 11
3733.1536809843169067
 21
137.315820765990793
 31
0.0
  0
LINE
  5
11A53
  8
0
 10
3733.1536809843169067
 20
137.315820765990793
 30
0.0
 11
3733.1438384645512087
 21
137.3127906397104994
 31
0.0
  0
LINE
  5
11A54
  8
0
 10
3733.1438384645512087
 20
137.3127906397104994
 30
0.0
 11
3733.1241534252508245
 21
137.310973523617605
 31
0.0
  0
LINE
  5
11A55
  8
0
 10
3733.1241534252508245
 20
137.310973523617605
 30
0.0
 11
3733.1143109055337845
 21
137.3122073049584912
 31
0.0
  0
LINE
  5
11A56
  8
0
 10
3733.1143109051331521
 20
137.3078863109435019
 30
0.0
 11
3733.1241534255627812
 21
137.3092994103809872
 31
0.0
  0
LINE
  5
11A57
  8
0
 10
3733.1241534255627812
 20
137.3092994103809872
 30
0.0
 11
3733.1438384637140189
 21
137.311133346089207
 31
0.0
  0
LINE
  5
11A58
  8
0
 10
3733.1438384637140189
 20
137.311133346089207
 30
0.0
 11
3733.1536809840231399
 21
137.3115869628971097
 31
0.0
  0
LINE
  5
11A59
  8
0
 10
3733.1536809840231399
 20
137.3115869628971097
 30
0.0
 11
3733.150908842237186
 21
137.3110718859198016
 31
0.0
  0
LINE
  5
11A5A
  8
0
 10
3733.1143109051331521
 20
137.3078863109435019
 30
0.0
 11
3733.1186534400021628
 21
137.3079359597506937
 31
0.0
  0
LINE
  5
11A5B
  8
0
 10
3733.3719270259689438
 20
137.4267679449093862
 30
0.0
 11
3733.3665492619820725
 21
137.4202349805015047
 31
0.0
  0
LINE
  5
11A5C
  8
0
 10
3733.3665492619820725
 20
137.4202349805015047
 30
0.0
 11
3733.3468642224511314
 21
137.4101979108411058
 31
0.0
  0
LINE
  5
11A5D
  8
0
 10
3733.3468642224511314
 20
137.4101979108411058
 30
0.0
 11
3733.3370217028282241
 21
137.412229386341096
 31
0.0
  0
LINE
  5
11A5E
  8
0
 10
3733.3370217028282241
 20
137.412229386341096
 30
0.0
 11
3733.3468642225698204
 21
137.4241879181876129
 31
0.0
  0
LINE
  5
11A5F
  8
0
 10
3733.3468642225698204
 20
137.4241879181876129
 30
0.0
 11
3733.3637236973759173
 21
137.4327714625005115
 31
0.0
  0
LINE
  5
11A60
  8
0
 10
3733.3665492618511053
 20
137.4308109375834874
 30
0.0
 11
3733.3665492618511053
 21
137.4202349804317009
 31
0.0
  0
LINE
  5
11A61
  8
0
 10
3733.3485529318668341
 20
137.4298979741382993
 30
0.0
 11
3733.3387104121798075
 21
137.4332575968232959
 31
0.0
  0
LINE
  5
11A62
  8
0
 10
3733.3387104121798075
 20
137.4332575968232959
 30
0.0
 11
3733.3190253728080279
 21
137.4243248753523972
 31
0.0
  0
LINE
  5
11A63
  8
0
 10
3733.3190253728080279
 20
137.4243248753523972
 30
0.0
 11
3733.3091828530459679
 21
137.4121219861559098
 31
0.0
  0
LINE
  5
11A64
  8
0
 10
3733.3091828530459679
 20
137.4121219861559098
 30
0.0
 11
3733.3220950263312261
 21
137.4171929772105045
 31
0.0
  0
LINE
  5
11A65
  8
0
 10
3733.3220950263312261
 20
137.4171929772105045
 30
0.0
 11
3733.3270038513501277
 21
137.4121843183104943
 31
0.0
  0
LINE
  5
11A66
  8
0
 10
3733.3270038513501277
 20
137.4121843183104943
 30
0.0
 11
3733.338710412124783
 21
137.4175447357700932
 31
0.0
  0
LINE
  5
11A67
  8
0
 10
3733.338710412124783
 20
137.4175447357700932
 30
0.0
 11
3733.3485529319241323
 21
137.4298979742173969
 31
0.0
  0
LINE
  5
11A68
  8
0
 10
3733.0864720558402041
 20
137.3669865298068942
 30
0.0
 11
3733.0963145755158621
 21
137.3750236849224109
 31
0.0
  0
LINE
  5
11A69
  8
0
 10
3733.0963145755158621
 20
137.3750236849224109
 30
0.0
 11
3733.1159996149681319
 21
137.3759204657328894
 31
0.0
  0
LINE
  5
11A6A
  8
0
 10
3733.1159996149681319
 20
137.3759204657328894
 30
0.0
 11
3733.1258421346510659
 21
137.3687725803104911
 31
0.0
  0
LINE
  5
11A6B
  8
0
 10
3733.1258421346510659
 20
137.3687725803104911
 30
0.0
 11
3733.0864720558470253
 21
137.3669865298130048
 31
0.0
  0
LINE
  5
11A6C
  8
0
 10
3733.1421497551500579
 20
137.3702565643104947
 30
0.0
 11
3733.1519922749248508
 21
137.3792123355202932
 31
0.0
  0
LINE
  5
11A6D
  8
0
 10
3733.1519922749248508
 20
137.3792123355202932
 30
0.0
 11
3733.1716773142898091
 21
137.3819277225209134
 31
0.0
  0
LINE
  5
11A6E
  8
0
 10
3733.1716773142898091
 20
137.3819277225209134
 30
0.0
 11
3733.1815198339791095
 21
137.3756642160307138
 31
0.0
  0
LINE
  5
11A6F
  8
0
 10
3733.1815198339791095
 20
137.3756642160307138
 30
0.0
 11
3733.1421497551500579
 21
137.3702565643104947
 31
0.0
  0
LINE
  5
11A70
  8
0
 10
3733.2371975332521288
 20
137.3878586761117049
 30
0.0
 11
3733.2273550135328151
 21
137.3932175813455103
 31
0.0
  0
LINE
  5
11A71
  8
0
 10
3733.2273550135328151
 20
137.3932175813455103
 30
0.0
 11
3733.2076699741678567
 21
137.3886048319280064
 31
0.0
  0
LINE
  5
11A72
  8
0
 10
3733.2076699741678567
 20
137.3886048319280064
 30
0.0
 11
3733.1978274544831038
 21
137.3786738101468075
 31
0.0
  0
LINE
  5
11A73
  8
0
 10
3733.1978274544831038
 20
137.3786738101468075
 30
0.0
 11
3733.2371975332512193
 21
137.3878586761105112
 31
0.0
  0
LINE
  5
11A74
  8
0
 10
3733.2928752325510686
 20
137.4057309092104902
 30
0.0
 11
3733.283032712853128
 21
137.4101352864506111
 31
0.0
  0
LINE
  5
11A75
  8
0
 10
3733.283032712853128
 20
137.4101352864506111
 30
0.0
 11
3733.2633476734840769
 21
137.4034805452290868
 31
0.0
  0
LINE
  5
11A76
  8
0
 10
3733.2633476734840769
 20
137.4034805452290868
 30
0.0
 11
3733.2535051537988693
 21
137.392483239647504
 31
0.0
  0
LINE
  5
11A77
  8
0
 10
3733.2535051537988693
 20
137.392483239647504
 30
0.0
 11
3733.2928752325651658
 21
137.4057309091984109
 31
0.0
  0
LINE
  5
11A78
  8
0
 10
3733.3207140822200927
 20
137.430452037759693
 30
0.0
 11
3733.3108715625508012
 21
137.4351902449105012
 31
0.0
  0
LINE
  5
11A79
  8
0
 10
3733.3108715625508012
 20
137.4351902449105012
 30
0.0
 11
3733.2911865231758384
 21
137.4273462603892995
 31
0.0
  0
LINE
  5
11A7A
  8
0
 10
3733.2911865231758384
 20
137.4273462603892995
 30
0.0
 11
3733.2813440034587984
 21
137.4148670563924099
 31
0.0
  0
LINE
  5
11A7B
  8
0
 10
3733.2813440034587984
 20
137.4148670563924099
 30
0.0
 11
3733.2911865231671982
 21
137.4101133948697111
 31
0.0
  0
LINE
  5
11A7C
  8
0
 10
3733.2911865231671982
 20
137.4101133948697111
 30
0.0
 11
3733.3108715625371588
 21
137.4178540490619014
 31
0.0
  0
LINE
  5
11A7D
  8
0
 10
3733.3108715625371588
 20
137.4178540490619014
 30
0.0
 11
3733.3207140822660222
 21
137.430452037771488
 31
0.0
  0
LINE
  5
11A7E
  8
0
 10
3733.2928752324710331
 20
137.4338952099566029
 30
0.0
 11
3733.2830327128508543
 21
137.4399767062639057
 31
0.0
  0
LINE
  5
11A7F
  8
0
 10
3733.2830327128508543
 20
137.4399767062639057
 30
0.0
 11
3733.263347673428143
 21
137.4331577814647005
 31
0.0
  0
LINE
  5
11A80
  8
0
 10
3733.263347673428143
 20
137.4331577814647005
 30
0.0
 11
3733.2535051538079642
 21
137.420368149941396
 31
0.0
  0
LINE
  5
11A81
  8
0
 10
3733.2535051538079642
 20
137.420368149941396
 30
0.0
 11
3733.2633476734508804
 21
137.4143090622077068
 31
0.0
  0
LINE
  5
11A82
  8
0
 10
3733.2633476734508804
 20
137.4143090622077068
 30
0.0
 11
3733.2830327129399848
 21
137.4210176653288897
 31
0.0
  0
LINE
  5
11A83
  8
0
 10
3733.2830327129399848
 20
137.4210176653288897
 30
0.0
 11
3733.2928752324710331
 21
137.4338952099566029
 31
0.0
  0
LINE
  5
11A84
  8
0
 10
3733.2650363829097842
 20
137.4093333112637083
 30
0.0
 11
3733.2551938632500423
 21
137.4150420670104893
 31
0.0
  0
LINE
  5
11A85
  8
0
 10
3733.2551938632500423
 20
137.4150420670104893
 30
0.0
 11
3733.2355088238509779
 21
137.4093728316105114
 31
0.0
  0
LINE
  5
11A86
  8
0
 10
3733.2355088238509779
 20
137.4093728316105114
 30
0.0
 11
3733.2256663041380307
 21
137.3980644499798132
 31
0.0
  0
LINE
  5
11A87
  8
0
 10
3733.2256663041380307
 20
137.3980644499798132
 30
0.0
 11
3733.2355088238209646
 21
137.3923653598189105
 31
0.0
  0
LINE
  5
11A88
  8
0
 10
3733.2355088238209646
 20
137.3923653598189105
 30
0.0
 11
3733.2551938632500423
 21
137.3979651462705078
 31
0.0
  0
LINE
  5
11A89
  8
0
 10
3733.2551938632500423
 20
137.3979651462705078
 30
0.0
 11
3733.2650363829097842
 21
137.4093333112637083
 31
0.0
  0
LINE
  5
11A8A
  8
0
 10
3733.2650363828961417
 20
137.4401395579751863
 30
0.0
 11
3733.2551938632500423
 21
137.4475524656104994
 31
0.0
  0
LINE
  5
11A8B
  8
0
 10
3733.2551938632500423
 20
137.4475524656104994
 30
0.0
 11
3733.2355088238509779
 21
137.4417138320104925
 31
0.0
  0
LINE
  5
11A8C
  8
0
 10
3733.2355088238509779
 20
137.4417138320104925
 30
0.0
 11
3733.2256663041298452
 21
137.4285759645501059
 31
0.0
  0
LINE
  5
11A8D
  8
0
 10
3733.2256663041298452
 20
137.4285759645501059
 30
0.0
 11
3733.2355088237909513
 21
137.4212193534806943
 31
0.0
  0
LINE
  5
11A8E
  8
0
 10
3733.2355088237909513
 20
137.4212193534806943
 30
0.0
 11
3733.2551938631600024
 21
137.4269454093326033
 31
0.0
  0
LINE
  5
11A8F
  8
0
 10
3733.2551938631600024
 20
137.4269454093326033
 30
0.0
 11
3733.2650363828961417
 21
137.4401395579751863
 31
0.0
  0
LINE
  5
11A90
  8
0
 10
3733.339792247305013
 20
137.4458642615254007
 30
0.0
 11
3733.3387104121738957
 21
137.4443385290421134
 31
0.0
  0
LINE
  5
11A91
  8
0
 10
3733.3387104121738957
 20
137.4443385290421134
 30
0.0
 11
3733.3190253727511845
 21
137.4353269133266053
 31
0.0
  0
LINE
  5
11A92
  8
0
 10
3733.3190253727511845
 20
137.4353269133266053
 30
0.0
 11
3733.3091828531401006
 21
137.4404264262740014
 31
0.0
  0
LINE
  5
11A93
  8
0
 10
3733.3091828531401006
 20
137.4404264262740014
 30
0.0
 11
3733.3189924637031254
 21
137.4544827832417013
 31
0.0
  0
LINE
  5
11A94
  8
0
 10
3733.3164391078589688
 20
137.4554074464957978
 30
0.0
 11
3733.3108715625098739
 21
137.4473060841451968
 31
0.0
  0
LINE
  5
11A95
  8
0
 10
3733.3108715625098739
 20
137.4473060841451968
 30
0.0
 11
3733.2911865231508273
 21
137.4393773415104931
 31
0.0
  0
LINE
  5
11A96
  8
0
 10
3733.2911865231508273
 20
137.4393773415104931
 30
0.0
 11
3733.2813440034510677
 21
137.4458229345387963
 31
0.0
  0
LINE
  5
11A97
  8
0
 10
3733.2813440034510677
 20
137.4458229345387963
 30
0.0
 11
3733.2911865231199045
 21
137.4602378936970126
 31
0.0
  0
LINE
  5
11A98
  8
0
 10
3733.2911865231199045
 20
137.4602378936970126
 30
0.0
 11
3733.2956770625128229
 21
137.4620105762693072
 31
0.0
  0
LINE
  5
11A99
  8
0
 10
3733.2900365337741277
 20
137.4636209525208983
 30
0.0
 11
3733.2830327128331191
 21
137.4531390015384034
 31
0.0
  0
LINE
  5
11A9A
  8
0
 10
3733.2830327128331191
 20
137.4531390015384034
 30
0.0
 11
3733.2633476734508804
 21
137.4462325415344139
 31
0.0
  0
LINE
  5
11A9B
  8
0
 10
3733.2633476734508804
 20
137.4462325415344139
 30
0.0
 11
3733.2535051537920481
 21
137.4540175284523116
 31
0.0
  0
LINE
  5
11A9C
  8
0
 10
3733.2535051537920481
 20
137.4540175284523116
 30
0.0
 11
3733.2633476734508804
 21
137.4687921996105047
 31
0.0
  0
LINE
  5
11A9D
  8
0
 10
3733.2633476734508804
 20
137.4687921996105047
 30
0.0
 11
3733.2661943322159459
 21
137.4697414101038078
 31
0.0
  0
LINE
  5
11A9E
  8
0
 10
3733.2611569240089011
 20
137.4708947406070934
 30
0.0
 11
3733.2551938632500423
 21
137.4617895548051081
 31
0.0
  0
LINE
  5
11A9F
  8
0
 10
3733.2551938632500423
 20
137.4617895548051081
 30
0.0
 11
3733.2355088238268763
 21
137.4558633854389882
 31
0.0
  0
LINE
  5
11AA0
  8
0
 10
3733.2355088238268763
 20
137.4558633854389882
 30
0.0
 11
3733.2256663041271167
 21
137.4650033699186054
 31
0.0
  0
LINE
  5
11AA1
  8
0
 10
3733.2256663041271167
 20
137.4650033699186054
 30
0.0
 11
3733.233148648317183
 21
137.4764383591387968
 31
0.0
  0
LINE
  5
11AA2
  8
0
 10
3733.2298788843090733
 20
137.4769907539491101
 30
0.0
 11
3733.2273550135500955
 21
137.4732585598875119
 31
0.0
  0
LINE
  5
11AA3
  8
0
 10
3733.2273550135500955
 20
137.4732585598875119
 30
0.0
 11
3733.2076699741510311
 21
137.4682869619730923
 31
0.0
  0
LINE
  5
11AA4
  8
0
 10
3733.2076699741510311
 20
137.4682869619730923
 30
0.0
 11
3733.1978274545072054
 21
137.478820713047611
 31
0.0
  0
LINE
  5
11AA5
  8
0
 10
3733.1978274545072054
 20
137.478820713047611
 30
0.0
 11
3733.1994856524829629
 21
137.4813957004159874
 31
0.0
  0
LINE
  5
11AA6
  8
0
 10
3733.1995161639010803
 20
137.4710498209736897
 30
0.0
 11
3733.209358683614937
 21
137.4609214121431933
 31
0.0
  0
LINE
  5
11AA7
  8
0
 10
3733.209358683614937
 20
137.4609214121431933
 30
0.0
 11
3733.1995161639151775
 21
137.4469651680547031
 31
0.0
  0
LINE
  5
11AA8
  8
0
 10
3733.1995161639151775
 20
137.4469651680547031
 30
0.0
 11
3733.1798311245361219
 21
137.4431199996087116
 31
0.0
  0
LINE
  5
11AA9
  8
0
 10
3733.1798311245361219
 20
137.4431199996087116
 30
0.0
 11
3733.1699886048340886
 21
137.4531296065821948
 31
0.0
  0
LINE
  5
11AAA
  8
0
 10
3733.1699886048340886
 20
137.4531296065821948
 30
0.0
 11
3733.1798311244901925
 21
137.4671012994367061
 31
0.0
  0
LINE
  5
11AAB
  8
0
 10
3733.1798311244901925
 20
137.4671012994367061
 30
0.0
 11
3733.1995161639010803
 21
137.4710498209736897
 31
0.0
  0
LINE
  5
11AAC
  8
0
 10
3733.1739849702698848
 20
137.4842968974161863
 30
0.0
 11
3733.1815198338840673
 21
137.4755183506387937
 31
0.0
  0
LINE
  5
11AAD
  8
0
 10
3733.1815198338840673
 20
137.4755183506387937
 30
0.0
 11
3733.1716773143120918
 21
137.4611023962231116
 31
0.0
  0
LINE
  5
11AAE
  8
0
 10
3733.1716773143120918
 20
137.4611023962231116
 30
0.0
 11
3733.1519922748511817
 21
137.4581845780668061
 31
0.0
  0
LINE
  5
11AAF
  8
0
 10
3733.1519922748511817
 20
137.4581845780668061
 30
0.0
 11
3733.1421497552591973
 21
137.4695938468613861
 31
0.0
  0
LINE
  5
11AB0
  8
0
 10
3733.1421497552591973
 20
137.4695938468613861
 30
0.0
 11
3733.1519922748511817
 21
137.4840692782105123
 31
0.0
  0
LINE
  5
11AB1
  8
0
 10
3733.1519922748511817
 20
137.4840692782105123
 30
0.0
 11
3733.1616165386490138
 21
137.4854493942411864
 31
0.0
  0
LINE
  5
11AB2
  8
0
 10
3733.1493962442668817
 20
137.4864255697212059
 30
0.0
 11
3733.1438384645598489
 21
137.4780979111752117
 31
0.0
  0
LINE
  5
11AB3
  8
0
 10
3733.1438384645598489
 20
137.4780979111752117
 30
0.0
 11
3733.1241534252508245
 21
137.4761182758105065
 31
0.0
  0
LINE
  5
11AB4
  8
0
 10
3733.1241534252508245
 20
137.4761182758105065
 30
0.0
 11
3733.1148213541969199
 21
137.4883164912573932
 31
0.0
  0
LINE
  5
11AB5
  8
0
 10
3733.0864720558320187
 20
137.394372293822812
 30
0.0
 11
3733.0963145755158621
 21
137.4040449373451906
 31
0.0
  0
LINE
  5
11AB6
  8
0
 10
3733.0963145755158621
 20
137.4040449373451906
 30
0.0
 11
3733.1159996150618099
 21
137.4049613243348062
 31
0.0
  0
LINE
  5
11AB7
  8
0
 10
3733.1159996150618099
 20
137.4049613243348062
 30
0.0
 11
3733.1258421346979048
 21
137.3961917706571967
 31
0.0
  0
LINE
  5
11AB8
  8
0
 10
3733.1258421346979048
 20
137.3961917706571967
 30
0.0
 11
3733.1159996151150153
 21
137.3865398922771988
 31
0.0
  0
LINE
  5
11AB9
  8
0
 10
3733.1159996151150153
 20
137.3865398922771988
 30
0.0
 11
3733.0963145755508776
 21
137.3856366616105049
 31
0.0
  0
LINE
  5
11ABA
  8
0
 10
3733.0963145755508776
 20
137.3856366616105049
 30
0.0
 11
3733.0864720558320187
 21
137.394372293822812
 31
0.0
  0
LINE
  5
11ABB
  8
0
 10
3733.11431090554197
 20
137.3810287261179894
 30
0.0
 11
3733.1241534252108067
 21
137.3903310300524936
 31
0.0
  0
LINE
  5
11ABC
  8
0
 10
3733.1241534252108067
 20
137.3903310300524936
 30
0.0
 11
3733.1438384646471604
 21
137.3921481462350016
 31
0.0
  0
LINE
  5
11ABD
  8
0
 10
3733.1438384646471604
 20
137.3921481462350016
 30
0.0
 11
3733.1536809842741604
 21
137.3846421872283088
 31
0.0
  0
LINE
  5
11ABE
  8
0
 10
3733.1536809842741604
 20
137.3846421872283088
 30
0.0
 11
3733.1438384646771738
 21
137.375342964669187
 31
0.0
  0
LINE
  5
11ABF
  8
0
 10
3733.1438384646771738
 20
137.375342964669187
 30
0.0
 11
3733.1241534252508245
 21
137.3735464582105124
 31
0.0
  0
LINE
  5
11AC0
  8
0
 10
3733.1241534252508245
 20
137.3735464582105124
 30
0.0
 11
3733.11431090554197
 21
137.3810287261179894
 31
0.0
  0
LINE
  5
11AC1
  8
0
 10
3733.1421497551718858
 20
137.3977036966522007
 30
0.0
 11
3733.1519922748511817
 21
137.4083257308168129
 31
0.0
  0
LINE
  5
11AC2
  8
0
 10
3733.1519922748511817
 20
137.4083257308168129
 30
0.0
 11
3733.171677314307999
 21
137.4111016320040051
 31
0.0
  0
LINE
  5
11AC3
  8
0
 10
3733.171677314307999
 20
137.4111016320040051
 30
0.0
 11
3733.1815198339791095
 21
137.4032144884646982
 31
0.0
  0
LINE
  5
11AC4
  8
0
 10
3733.1815198339791095
 20
137.4032144884646982
 30
0.0
 11
3733.1716773142070451
 21
137.3925909060723995
 31
0.0
  0
LINE
  5
11AC5
  8
0
 10
3733.1716773142070451
 20
137.3925909060723995
 30
0.0
 11
3733.1519922748898352
 21
137.3898556201583858
 31
0.0
  0
LINE
  5
11AC6
  8
0
 10
3733.1519922748898352
 20
137.3898556201583858
 30
0.0
 11
3733.1421497551718858
 21
137.3977036966522007
 31
0.0
  0
LINE
  5
11AC7
  8
0
 10
3733.1699886048349981
 20
137.3868993791149933
 30
0.0
 11
3733.1798311245797777
 21
137.3971632453942107
 31
0.0
  0
LINE
  5
11AC8
  8
0
 10
3733.1798311245797777
 20
137.3971632453942107
 30
0.0
 11
3733.1995161638528771
 21
137.4008499641398089
 31
0.0
  0
LINE
  5
11AC9
  8
0
 10
3733.1995161638528771
 20
137.4008499641398089
 30
0.0
 11
3733.2093586835831047
 21
137.3942295537503071
 31
0.0
  0
LINE
  5
11ACA
  8
0
 10
3733.2093586835831047
 20
137.3942295537503071
 30
0.0
 11
3733.1995161639511025
 21
137.38394418331049
 31
0.0
  0
LINE
  5
11ACB
  8
0
 10
3733.1995161639511025
 20
137.38394418331049
 30
0.0
 11
3733.1798311245511286
 21
137.380300474913895
 31
0.0
  0
LINE
  5
11ACC
  8
0
 10
3733.1798311245511286
 20
137.380300474913895
 30
0.0
 11
3733.1699886048349981
 21
137.3868993791149933
 31
0.0
  0
LINE
  5
11ACD
  8
0
 10
3733.1978274545522254
 20
137.4062823983101111
 30
0.0
 11
3733.2076699743429344
 21
137.4179302243597078
 31
0.0
  0
LINE
  5
11ACE
  8
0
 10
3733.2076699743429344
 20
137.4179302243597078
 30
0.0
 11
3733.2273550135728328
 21
137.422649908315293
 31
0.0
  0
LINE
  5
11ACF
  8
0
 10
3733.2273550135728328
 20
137.422649908315293
 30
0.0
 11
3733.2371975332580405
 21
137.4156494137025959
 31
0.0
  0
LINE
  5
11AD0
  8
0
 10
3733.2371975332580405
 20
137.4156494137025959
 30
0.0
 11
3733.2273550135500955
 21
137.4039656896104873
 31
0.0
  0
LINE
  5
11AD1
  8
0
 10
3733.2273550135500955
 20
137.4039656896104873
 30
0.0
 11
3733.2076699741510311
 21
137.3993178079105064
 31
0.0
  0
LINE
  5
11AD2
  8
0
 10
3733.2076699741510311
 20
137.3993178079105064
 30
0.0
 11
3733.1978274545358545
 21
137.4062823982926034
 31
0.0
  0
LINE
  5
11AD3
  8
0
 10
3733.209358683580831
 20
137.4246436965565863
 30
0.0
 11
3733.1995161639511025
 21
137.4329433390105066
 31
0.0
  0
LINE
  5
11AD4
  8
0
 10
3733.1995161639511025
 20
137.4329433390105066
 30
0.0
 11
3733.1798311245261175
 21
137.4291520332454013
 31
0.0
  0
LINE
  5
11AD5
  8
0
 10
3733.1798311245261175
 20
137.4291520332454013
 30
0.0
 11
3733.1699886048800181
 21
137.4171313601480051
 31
0.0
  0
LINE
  5
11AD6
  8
0
 10
3733.1699886048800181
 20
137.4171313601480051
 30
0.0
 11
3733.1798311245001969
 21
137.4088915087176872
 31
0.0
  0
LINE
  5
11AD7
  8
0
 10
3733.1798311245001969
 20
137.4088915087176872
 30
0.0
 11
3733.1995161638687932
 21
137.4126133598967954
 31
0.0
  0
LINE
  5
11AD8
  8
0
 10
3733.1995161638687932
 20
137.4126133598967954
 30
0.0
 11
3733.209358683580831
 21
137.4246436965565863
 31
0.0
  0
LINE
  5
11AD9
  8
0
 10
3733.237197533293056
 20
137.4491460832622067
 30
0.0
 11
3733.2273550136078484
 21
137.457900496824692
 31
0.0
  0
LINE
  5
11ADA
  8
0
 10
3733.2273550136078484
 20
137.457900496824692
 30
0.0
 11
3733.2076699741510311
 21
137.4530136587104892
 31
0.0
  0
LINE
  5
11ADB
  8
0
 10
3733.2076699741510311
 20
137.4530136587104892
 30
0.0
 11
3733.1978274545531349
 21
137.4394843088294067
 31
0.0
  0
LINE
  5
11ADC
  8
0
 10
3733.1978274545531349
 20
137.4394843088294067
 30
0.0
 11
3733.2076699741510311
 21
137.4308178273622048
 31
0.0
  0
LINE
  5
11ADD
  8
0
 10
3733.2076699741510311
 20
137.4308178273622048
 30
0.0
 11
3733.2273550135500955
 21
137.4355943319104938
 31
0.0
  0
LINE
  5
11ADE
  8
0
 10
3733.2273550135500955
 20
137.4355943319104938
 30
0.0
 11
3733.2371975332689544
 21
137.4491460832832104
 31
0.0
  0
LINE
  5
11ADF
  8
0
 10
3733.1815198339158997
 20
137.4363221989532065
 30
0.0
 11
3733.1716773142511556
 21
137.4459487238104884
 31
0.0
  0
LINE
  5
11AE0
  8
0
 10
3733.1716773142511556
 20
137.4459487238104884
 30
0.0
 11
3733.1519922748948375
 21
137.4430785536291921
 31
0.0
  0
LINE
  5
11AE1
  8
0
 10
3733.1519922748948375
 20
137.4430785536291921
 30
0.0
 11
3733.1421497551568791
 21
137.4306449968661923
 31
0.0
  0
LINE
  5
11AE2
  8
0
 10
3733.1421497551568791
 20
137.4306449968661923
 30
0.0
 11
3733.1519922748511817
 21
137.4223090847623041
 31
0.0
  0
LINE
  5
11AE3
  8
0
 10
3733.1519922748511817
 20
137.4223090847623041
 30
0.0
 11
3733.1716773142052261
 21
137.4239088332467986
 31
0.0
  0
LINE
  5
11AE4
  8
0
 10
3733.1716773142052261
 20
137.4239088332467986
 30
0.0
 11
3733.1815198339309063
 21
137.4363221989731869
 31
0.0
  0
LINE
  5
11AE5
  8
0
 10
3733.1536809842700677
 20
137.4507329926015871
 30
0.0
 11
3733.1438384645512087
 21
137.4617363645105002
 31
0.0
  0
LINE
  5
11AE6
  8
0
 10
3733.1438384645512087
 20
137.4617363645105002
 30
0.0
 11
3733.1241534252508245
 21
137.4597942451104871
 31
0.0
  0
LINE
  5
11AE7
  8
0
 10
3733.1241534252508245
 20
137.4597942451104871
 30
0.0
 11
3733.1143109055969944
 21
137.446898937774904
 31
0.0
  0
LINE
  5
11AE8
  8
0
 10
3733.1143109055969944
 20
137.446898937774904
 30
0.0
 11
3733.1241534251871599
 21
137.4360001591751086
 31
0.0
  0
LINE
  5
11AE9
  8
0
 10
3733.1241534251871599
 20
137.4360001591751086
 30
0.0
 11
3733.1438384645198312
 21
137.4378930236715064
 31
0.0
  0
LINE
  5
11AEA
  8
0
 10
3733.1438384645198312
 20
137.4378930236715064
 30
0.0
 11
3733.1536809842477851
 21
137.4507329925814929
 31
0.0
  0
LINE
  5
11AEB
  8
0
 10
3733.1258421346437899
 20
137.4679700485363867
 30
0.0
 11
3733.1159996149581275
 21
137.4804263348949007
 31
0.0
  0
LINE
  5
11AEC
  8
0
 10
3733.1159996149581275
 20
137.4804263348949007
 30
0.0
 11
3733.0963145756441008
 21
137.4794347569194883
 31
0.0
  0
LINE
  5
11AED
  8
0
 10
3733.0963145756441008
 20
137.4794347569194883
 30
0.0
 11
3733.0864720559138732
 21
137.4660168573934982
 31
0.0
  0
LINE
  5
11AEE
  8
0
 10
3733.0864720559138732
 20
137.4660168573934982
 30
0.0
 11
3733.0963145755981714
 21
137.4536880018941076
 31
0.0
  0
LINE
  5
11AEF
  8
0
 10
3733.0963145755981714
 20
137.4536880018941076
 30
0.0
 11
3733.1159996149181097
 21
137.4546502716478074
 31
0.0
  0
LINE
  5
11AF0
  8
0
 10
3733.1159996149181097
 20
137.4546502716478074
 30
0.0
 11
3733.1258421346437899
 21
137.4679700485363867
 31
0.0
  0
LINE
  5
11AF1
  8
0
 10
3733.0975572324709901
 20
137.4887906901282975
 30
0.0
 11
3733.098003284951119
 21
137.4881812501105003
 31
0.0
  0
LINE
  5
11AF2
  8
0
 10
3733.1159996149508515
 20
137.4396012564104979
 30
0.0
 11
3733.0963145755508776
 21
137.4386543760965935
 31
0.0
  0
LINE
  5
11AF3
  8
0
 10
3733.0963145755508776
 20
137.4386543760965935
 30
0.0
 11
3733.086472055862032
 21
137.4272146984430094
 31
0.0
  0
LINE
  5
11AF4
  8
0
 10
3733.086472055862032
 20
137.4272146984430094
 30
0.0
 11
3733.0963145755508776
 21
137.4167712191105011
 31
0.0
  0
LINE
  5
11AF5
  8
0
 10
3733.0963145755508776
 20
137.4167712191105011
 30
0.0
 11
3733.1159996149249309
 21
137.4176979928714957
 31
0.0
  0
LINE
  5
11AF6
  8
0
 10
3733.1159996149249309
 20
137.4176979928714957
 30
0.0
 11
3733.1258421346460636
 21
137.4290880309771978
 31
0.0
  0
LINE
  5
11AF7
  8
0
 10
3733.1258421346460636
 20
137.4290880309771978
 30
0.0
 11
3733.115999614867178
 21
137.4396012564064904
 31
0.0
  0
LINE
  5
11AF8
  8
0
 10
3733.1438384646339728
 20
137.4239970318903943
 30
0.0
 11
3733.1241534251571466
 21
137.4221298852862105
 31
0.0
  0
LINE
  5
11AF9
  8
0
 10
3733.1241534251571466
 20
137.4221298852862105
 30
0.0
 11
3733.1143109055160494
 21
137.4111184427630974
 31
0.0
  0
LINE
  5
11AFA
  8
0
 10
3733.1143109055160494
 20
137.4111184427630974
 30
0.0
 11
3733.1241534252339989
 21
137.4019954568128128
 31
0.0
  0
LINE
  5
11AFB
  8
0
 10
3733.1241534252339989
 20
137.4019954568128128
 30
0.0
 11
3733.1438384645512087
 21
137.4038293926105041
 31
0.0
  0
LINE
  5
11AFC
  8
0
 10
3733.1438384645512087
 20
137.4038293926105041
 30
0.0
 11
3733.1536809843191804
 21
137.4148190947300918
 31
0.0
  0
LINE
  5
11AFD
  8
0
 10
3733.1536809843191804
 20
137.4148190947300918
 30
0.0
 11
3733.1438384645512087
 21
137.4239970319104884
 31
0.0
  0
LINE
  5
11AFE
  8
0
 10
3733.0963145755508776
 20
137.3856366616105049
 30
0.0
 11
3733.0963145755158621
 21
137.4040449373451906
 31
0.0
  0
LINE
  5
11AFF
  8
0
 10
3733.1159996150618099
 20
137.4049613243348062
 30
0.0
 11
3733.1159996151150153
 21
137.3865398922771988
 31
0.0
  0
LINE
  5
11B00
  8
0
 10
3733.1241534252108067
 20
137.3903310300524936
 30
0.0
 11
3733.1241534252508245
 21
137.3735464582105124
 31
0.0
  0
LINE
  5
11B01
  8
0
 10
3733.1438384646771738
 20
137.375342964669187
 30
0.0
 11
3733.1438384646471604
 21
137.3921481462350016
 31
0.0
  0
LINE
  5
11B02
  8
0
 10
3733.1241534252339989
 20
137.4019954568128128
 30
0.0
 11
3733.1241534251571466
 21
137.4221298852862105
 31
0.0
  0
LINE
  5
11B03
  8
0
 10
3733.1438384646339728
 20
137.4239970318903943
 30
0.0
 11
3733.1438384645512087
 21
137.4038293926105041
 31
0.0
  0
LINE
  5
11B04
  8
0
 10
3733.115999614867178
 20
137.4396012564064904
 30
0.0
 11
3733.1159996149249309
 21
137.4176979928714957
 31
0.0
  0
LINE
  5
11B05
  8
0
 10
3733.0963145755508776
 20
137.4386543760965935
 30
0.0
 11
3733.0963145755508776
 21
137.4167712191105011
 31
0.0
  0
LINE
  5
11B06
  8
0
 10
3733.088160765315024
 20
137.474315275861386
 30
0.0
 11
3733.088160765315024
 21
137.4889249164450007
 31
0.0
  0
LINE
  5
11B07
  8
0
 10
3733.0963145755981714
 20
137.4536880018941076
 30
0.0
 11
3733.0963145756441008
 21
137.4794347569194883
 31
0.0
  0
LINE
  5
11B08
  8
0
 10
3733.1159996149581275
 20
137.4804263348949007
 30
0.0
 11
3733.1159996149181097
 21
137.4546502716478074
 31
0.0
  0
LINE
  5
11B09
  8
0
 10
3733.1241534252508245
 20
137.4597942451104871
 30
0.0
 11
3733.1241534251871599
 21
137.4360001591751086
 31
0.0
  0
LINE
  5
11B0A
  8
0
 10
3733.1438384645512087
 20
137.4617363645105002
 30
0.0
 11
3733.1438384645198312
 21
137.4378930236715064
 31
0.0
  0
LINE
  5
11B0B
  8
0
 10
3733.1241534252508245
 20
137.4761182758105065
 30
0.0
 11
3733.1247043169651079
 21
137.4879070328412922
 31
0.0
  0
LINE
  5
11B0C
  8
0
 10
3733.1438384645598489
 20
137.4780979111752117
 30
0.0
 11
3733.1444280148421058
 21
137.4867763717901141
 31
0.0
  0
LINE
  5
11B0D
  8
0
 10
3733.1519922748511817
 20
137.4581845780668061
 30
0.0
 11
3733.1519922748511817
 21
137.4840692782105123
 31
0.0
  0
LINE
  5
11B0E
  8
0
 10
3733.1716773143120918
 20
137.4611023962231116
 30
0.0
 11
3733.1709186695361495
 21
137.4845980756350912
 31
0.0
  0
LINE
  5
11B0F
  8
0
 10
3733.1798311245361219
 20
137.4431199996087116
 30
0.0
 11
3733.1798311244901925
 21
137.4671012994367061
 31
0.0
  0
LINE
  5
11B10
  8
0
 10
3733.1995161639010803
 20
137.4710498209736897
 30
0.0
 11
3733.1995161639151775
 21
137.4469651680547031
 31
0.0
  0
LINE
  5
11B11
  8
0
 10
3733.1716773142511556
 20
137.4459487238104884
 30
0.0
 11
3733.1716773142052261
 21
137.4239088332467986
 31
0.0
  0
LINE
  5
11B12
  8
0
 10
3733.1519922748948375
 20
137.4430785536291921
 30
0.0
 11
3733.1519922748511817
 21
137.4223090847623041
 31
0.0
  0
LINE
  5
11B13
  8
0
 10
3733.171677314307999
 20
137.4111016320040051
 30
0.0
 11
3733.1716773142070451
 21
137.3925909060723995
 31
0.0
  0
LINE
  5
11B14
  8
0
 10
3733.1519922748898352
 20
137.3898556201583858
 30
0.0
 11
3733.1519922748511817
 21
137.4083257308168129
 31
0.0
  0
LINE
  5
11B15
  8
0
 10
3733.1798311245797777
 20
137.3971632453942107
 30
0.0
 11
3733.1798311245511286
 21
137.380300474913895
 31
0.0
  0
LINE
  5
11B16
  8
0
 10
3733.1995161638528771
 20
137.4008499641398089
 30
0.0
 11
3733.1995161639511025
 21
137.38394418331049
 31
0.0
  0
LINE
  5
11B17
  8
0
 10
3733.2076699741678567
 20
137.3886048319280064
 30
0.0
 11
3733.2093592013261514
 21
137.3813641158916141
 31
0.0
  0
LINE
  5
11B18
  8
0
 10
3733.2273550135328151
 20
137.3932175813455103
 30
0.0
 11
3733.2290487357740858
 21
137.3859575975519931
 31
0.0
  0
LINE
  5
11B19
  8
0
 10
3733.1716773142898091
 20
137.3819277225209134
 30
0.0
 11
3733.1727039564448205
 21
137.3744533168726036
 31
0.0
  0
LINE
  5
11B1A
  8
0
 10
3733.1519922749248508
 20
137.3792123355202932
 30
0.0
 11
3733.1530173585101693
 21
137.3717492769428077
 31
0.0
  0
LINE
  5
11B1B
  8
0
 10
3733.1159996149681319
 20
137.3759204657328894
 30
0.0
 11
3733.1163434324280388
 21
137.3683416652006883
 31
0.0
  0
LINE
  5
11B1C
  8
0
 10
3733.0963145755158621
 20
137.3750236849224109
 30
0.0
 11
3733.0966582229511914
 21
137.3674486322362895
 31
0.0
  0
LINE
  5
11B1D
  8
0
 10
3733.1798311245261175
 20
137.4291520332454013
 30
0.0
 11
3733.1798311245001969
 21
137.4088915087176872
 31
0.0
  0
LINE
  5
11B1E
  8
0
 10
3733.1995161639511025
 20
137.4329433390105066
 30
0.0
 11
3733.1995161638687932
 21
137.4126133598967954
 31
0.0
  0
LINE
  5
11B1F
  8
0
 10
3733.2076699743429344
 20
137.4179302243597078
 30
0.0
 11
3733.2076699741510311
 21
137.3993178079105064
 31
0.0
  0
LINE
  5
11B20
  8
0
 10
3733.2273550135500955
 20
137.4039656896104873
 30
0.0
 11
3733.2273550135728328
 21
137.422649908315293
 31
0.0
  0
LINE
  5
11B21
  8
0
 10
3733.2355088238509779
 20
137.4093728316105114
 30
0.0
 11
3733.2355088238209646
 21
137.3923653598189105
 31
0.0
  0
LINE
  5
11B22
  8
0
 10
3733.2551938632500423
 20
137.4150420670104893
 30
0.0
 11
3733.2551938632500423
 21
137.3979651462705078
 31
0.0
  0
LINE
  5
11B23
  8
0
 10
3733.283032712853128
 20
137.4101352864506111
 30
0.0
 11
3733.2853650892620863
 21
137.4032038150224082
 31
0.0
  0
LINE
  5
11B24
  8
0
 10
3733.2633476734840769
 20
137.4034805452290868
 30
0.0
 11
3733.2656707079131593
 21
137.3965768367615112
 31
0.0
  0
LINE
  5
11B25
  8
0
 10
3733.2633476734508804
 20
137.4143090622077068
 30
0.0
 11
3733.263347673428143
 21
137.4331577814647005
 31
0.0
  0
LINE
  5
11B26
  8
0
 10
3733.2830327128508543
 20
137.4399767062639057
 30
0.0
 11
3733.2830327129399848
 21
137.4210176653288897
 31
0.0
  0
LINE
  5
11B27
  8
0
 10
3733.2911865231758384
 20
137.4273462603892995
 30
0.0
 11
3733.2911865231671982
 21
137.4101133948697111
 31
0.0
  0
LINE
  5
11B28
  8
0
 10
3733.3108715625489822
 20
137.4351902449114959
 30
0.0
 11
3733.3108715625371588
 21
137.4178540490619014
 31
0.0
  0
LINE
  5
11B29
  8
0
 10
3733.3190253727511845
 20
137.4353269133266053
 30
0.0
 11
3733.3189924637031254
 21
137.4544827832417013
 31
0.0
  0
LINE
  5
11B2A
  8
0
 10
3733.3190253728080279
 20
137.4243248753523972
 30
0.0
 11
3733.3218621911069022
 21
137.4171015359549983
 31
0.0
  0
LINE
  5
11B2B
  8
0
 10
3733.3387104121798075
 20
137.4332575968232959
 30
0.0
 11
3733.338710412124783
 21
137.4175447357700932
 31
0.0
  0
LINE
  5
11B2C
  8
0
 10
3733.3468642225698204
 20
137.4241879181876129
 30
0.0
 11
3733.3468642224511314
 21
137.4101979108411058
 31
0.0
  0
LINE
  5
11B2D
  8
0
 10
3733.2911865231199045
 20
137.4602378936970126
 30
0.0
 11
3733.2911865231508273
 21
137.4393773415104931
 31
0.0
  0
LINE
  5
11B2E
  8
0
 10
3733.2633476734508804
 20
137.4462325415344139
 30
0.0
 11
3733.2633476734508804
 21
137.4687921996105047
 31
0.0
  0
LINE
  5
11B2F
  8
0
 10
3733.2830327128331191
 20
137.4531390015384034
 30
0.0
 11
3733.2816238022251127
 21
137.4659064650039113
 31
0.0
  0
LINE
  5
11B30
  8
0
 10
3733.2355088238268763
 20
137.4558633854389882
 30
0.0
 11
3733.233148648317183
 21
137.4764383591387968
 31
0.0
  0
LINE
  5
11B31
  8
0
 10
3733.2551938632500423
 20
137.4617895548051081
 30
0.0
 11
3733.2542762541352204
 21
137.4723924860581974
 31
0.0
  0
LINE
  5
11B32
  8
0
 10
3733.2076699741510311
 20
137.4682869619730923
 30
0.0
 11
3733.206373770115988
 21
137.4804900905809859
 31
0.0
  0
LINE
  5
11B33
  8
0
 10
3733.2076699741510311
 20
137.4530136587104892
 30
0.0
 11
3733.2076699741510311
 21
137.4308178273622048
 31
0.0
  0
LINE
  5
11B34
  8
0
 10
3733.2273550136078484
 20
137.457900496824692
 30
0.0
 11
3733.2273550135500955
 21
137.4355943319104938
 31
0.0
  0
LINE
  5
11B35
  8
0
 10
3733.2355088238509779
 20
137.4417138320104925
 30
0.0
 11
3733.2355088237909513
 21
137.4212193534806943
 31
0.0
  0
LINE
  5
11B36
  8
0
 10
3733.2551938631600024
 20
137.4269454093326033
 30
0.0
 11
3733.2551938632500423
 21
137.4475524656104994
 31
0.0
  0
LINE
  5
11B37
  8
0
 10
3733.0963145755508776
 20
137.3128715337105064
 30
0.0
 11
3733.0963145755508776
 21
137.3157257846090999
 31
0.0
  0
LINE
  5
11B38
  8
0
 10
3733.0963145755831647
 20
137.3101459705609102
 30
0.0
 11
3733.0964383182590609
 21
137.3074878361369997
 31
0.0
  0
LINE
  5
11B39
  8
0
 10
3733.1159996148298887
 20
137.3137683145031929
 30
0.0
 11
3733.1159996149508515
 21
137.3166182797884005
 31
0.0
  0
LINE
  5
11B3A
  8
0
 10
3733.1159996149522158
 20
137.3110492010885935
 30
0.0
 11
3733.1159996149381186
 21
137.3083984624637139
 31
0.0
  0
LINE
  5
11B3B
  8
0
 10
3733.1241534252508245
 20
137.310973523617605
 30
0.0
 11
3733.123765360291145
 21
137.3152257065864035
 31
0.0
  0
LINE
  5
11B3C
  8
0
 10
3733.1438384645871338
 20
137.3170576287944016
 30
0.0
 11
3733.1438384645512087
 21
137.3127906397104994
 31
0.0
  0
LINE
  5
11B3D
  8
0
 10
3733.1519922750139813
 20
137.3170601843305008
 30
0.0
 11
3733.1516101388428979
 21
137.3198439534779141
 31
0.0
  0
LINE
  5
11B3E
  8
0
 10
3733.1716773142970851
 20
137.3197755712581909
 30
0.0
 11
3733.1712969517311649
 21
137.3225464201296973
 31
0.0
  0
LINE
  5
11B3F
  8
0
 10
3733.1798311245051991
 20
137.3178057388849993
 30
0.0
 11
3733.1798311247648599
 21
137.3220151391724926
 31
0.0
  0
LINE
  5
11B40
  8
0
 10
3733.1716773142497914
 20
137.314538770213403
 30
0.0
 11
3733.1713281368929529
 21
137.3170516958354881
 31
0.0
  0
LINE
  5
11B41
  8
0
 10
3733.1519922748511817
 20
137.3117628691105097
 30
0.0
 11
3733.1519922748511817
 21
137.3143649290105088
 31
0.0
  0
LINE
  5
11B42
  8
0
 10
3733.1438384637140189
 20
137.311133346089207
 30
0.0
 11
3733.1439398181710203
 21
137.3102398239101944
 31
0.0
  0
LINE
  5
11B43
  8
0
 10
3733.1241534255627812
 20
137.3092994103809872
 30
0.0
 11
3733.1242283235160357
 21
137.3083471844130088
 31
0.0
  0
LINE
  5
11B44
  8
0
 10
3733.1995161639511025
 20
137.321492457710491
 30
0.0
 11
3733.1996222240049974
 21
137.3256561457828013
 31
0.0
  0
LINE
  5
11B45
  8
0
 10
3733.2076699741510311
 20
137.3264526807105028
 30
0.0
 11
3733.2070798715390083
 21
137.3291113535786963
 31
0.0
  0
LINE
  5
11B46
  8
0
 10
3733.2076699742151504
 20
137.3238271168004019
 30
0.0
 11
3733.2079443104039456
 21
137.321398349573002
 31
0.0
  0
LINE
  5
11B47
  8
0
 10
3733.2273550135500955
 20
137.3310654301104989
 30
0.0
 11
3733.2267441844160203
 21
137.3336868680999885
 31
0.0
  0
LINE
  5
11B48
  8
0
 10
3733.2273550135500955
 20
137.3284749985105009
 30
0.0
 11
3733.2273550135500955
 21
137.3260870464104926
 31
0.0
  0
LINE
  5
11B49
  8
0
 10
3733.2355088238509779
 20
137.3300153251105087
 30
0.0
 11
3733.2355088238491589
 21
137.3340800240000021
 31
0.0
  0
LINE
  5
11B4A
  8
0
 10
3733.2551938626029369
 20
137.3356845603638021
 30
0.0
 11
3733.2548585037611701
 21
137.3396514593650863
 31
0.0
  0
LINE
  5
11B4B
  8
0
 10
3733.2633476735090881
 20
137.3413283940193992
 30
0.0
 11
3733.2625553947741537
 21
137.3437854398634101
 31
0.0
  0
LINE
  5
11B4C
  8
0
 10
3733.2830327128508543
 20
137.3479831352105123
 30
0.0
 11
3733.2822251894358487
 21
137.3503857309534908
 31
0.0
  0
LINE
  5
11B4D
  8
0
 10
3733.2830327138140092
 20
137.3434138449121917
 30
0.0
 11
3733.2825569418801024
 21
137.3454137920028018
 31
0.0
  0
LINE
  5
11B4E
  8
0
 10
3733.2639738389370905
 20
137.3365949197105067
 30
0.0
 11
3733.2630285086379445
 21
137.3386731947003909
 31
0.0
  0
ARC
  5
11B4F
  8
0
 10
3733.0765489551431529
 20
135.9258030010875871
 30
0.0
 40
1.6881805726548531
 50
83.5678065310287792
 51
89.9399513913460851
  0
ARC
  5
11B50
  8
0
 10
3733.1116367519171035
 20
136.2370389697587996
 30
0.0
 40
1.374973003019009
 50
76.0317181748662563
 51
83.5678065310287792
  0
ARC
  5
11B51
  8
0
 10
3733.3156726017728033
 20
137.0573162914714942
 30
0.0
 40
0.5297005543122141
 50
61.3143887442649103
 51
76.0317181748662563
  0
ARC
  5
11B52
  8
0
 10
3733.5282166609231354
 20
137.4457675171447022
 30
0.0
 40
0.0869033865181088
 50
37.8780193652900721
 51
61.3143887442649103
  0
ARC
  5
11B53
  8
0
 10
3733.5192560904329184
 20
137.4387974225500955
 30
0.0
 40
0.0982556568705699
 50
19.9318101111742507
 51
37.8780193652900721
  0
ARC
  5
11B54
  8
0
 10
3733.5776085315837918
 20
137.4599573607740126
 30
0.0
 40
0.0361851294527086
 50
350.5248528716887222
 51
19.9318101111742507
  0
ARC
  5
11B55
  8
0
 10
3733.0857477447389101
 20
136.5593568459451035
 30
0.0
 40
0.9460033700386469
 50
82.9200264068720543
 51
90.4499807653967736
  0
ARC
  5
11B56
  8
0
 10
3733.1323631504678815
 20
136.8534873412876891
 30
0.0
 40
0.6484472523849281
 50
71.2115148867641636
 51
83.8042663884708787
  0
ARC
  5
11B57
  8
0
 10
3733.2724141009548475
 20
137.2651554815047064
 30
0.0
 40
0.213608286327614
 50
56.3741922389495329
 51
71.2115148867641636
  0
ARC
  5
11B58
  8
0
 10
3733.341495847393162
 20
137.3690303299123912
 30
0.0
 40
0.0888594513722412
 50
32.2328531602477
 51
56.3741922389495329
  0
ARC
  5
11B59
  8
0
 10
3733.3919212474488631
 20
137.4008252935080918
 30
0.0
 40
0.0292470308470194
 50
356.579392224531091
 51
32.2328531602490784
  0
ARC
  5
11B5A
  8
0
 10
3733.3738228468009765
 20
137.4019070692629896
 30
0.0
 40
0.0473777325654761
 50
342.560707716665604
 51
356.579392224531091
  0
ARC
  5
11B5B
  8
0
 10
3733.3897953470850553
 20
137.3968895591536068
 30
0.0
 40
0.030635684512532
 50
325.3575444446584015
 51
342.560707716665604
  0
ARC
  5
11B5C
  8
0
 10
3733.3549408356229833
 20
137.4150518334209892
 30
0.0
 40
0.0698055764058865
 50
324.729744178812382
 51
329.3586936500258275
  0
ARC
  5
11B5D
  8
0
 10
3733.3908542389431204
 20
137.5623751745675918
 30
0.0
 40
0.155173191230383
 50
285.1378929357105108
 51
334.4012705084729191
  0
LINE
  5
11B5E
  8
0
 10
3736.1334357665841708
 20
134.0188679156105138
 30
0.0
 11
3738.0232001353510896
 21
134.0188679156105138
 31
0.0
  0
LINE
  5
11B5F
  8
0
 10
3736.1334357665841708
 20
134.0188679156105138
 30
0.0
 11
3736.1334357665841708
 21
134.1960332699104868
 31
0.0
  0
ARC
  5
11B60
  8
0
 10
3736.1531358323918539
 20
134.1960182430605926
 30
0.0
 40
0.0197000715400174
 50
90.041989053872598
 51
179.9562958357390983
  0
LINE
  5
11B61
  8
0
 10
3736.1531213952512189
 20
134.2157183093104891
 30
0.0
 11
3738.0019608473539847
 21
134.2157183093104891
 31
0.0
  0
ARC
  5
11B62
  8
0
 10
3738.003394473183107
 20
134.1959644817646051
 30
0.0
 40
0.0198057816238483
 50
0.1989963557646241
 51
94.1509398426282189
  0
LINE
  5
11B63
  8
0
 10
3738.0232001353510896
 20
134.1960332699104868
 30
0.0
 11
3738.0232001353510896
 21
134.0188679156105138
 31
0.0
  0
LINE
  5
11B64
  8
0
 10
3736.487767064450054
 20
134.2629624038104907
 30
0.0
 11
3737.6688694266508719
 21
134.2629624038104907
 31
0.0
  0
LINE
  5
11B65
  8
0
 10
3737.6688694266508719
 20
134.2629624038104907
 30
0.0
 11
3737.6688694266508719
 21
135.0039466557105072
 31
0.0
  0
ARC
  5
11B66
  8
0
 10
3738.8531122740641877
 20
135.0229860163832996
 30
0.0
 40
1.184395887744625
 50
163.9787379899914015
 51
180.9210788472645959
  0
ARC
  5
11B67
  8
0
 10
3738.1299280628131783
 20
135.2306462168621977
 30
0.0
 40
0.4319876459861233
 50
98.0629537752400751
 51
163.9787379899914015
  0
ARC
  5
11B68
  8
0
 10
3738.2701792048701464
 20
134.2406017757710117
 30
0.0
 40
1.431916832570576
 50
90.7017300974903691
 51
98.0629537752400751
  0
LINE
  5
11B69
  8
0
 10
3738.2526422409509905
 20
135.6724112150104986
 30
0.0
 11
3738.9222239344508125
 21
135.672411337582588
 31
0.0
  0
ARC
  5
11B6A
  8
0
 10
3738.9247659256761835
 20
136.2599861223330038
 30
0.0
 40
0.5875802833603841
 50
269.7521260886268806
 51
278.9000094784049111
  0
ARC
  5
11B6B
  8
0
 10
3738.9681228306208141
 20
135.983115015294203
 30
0.0
 40
0.3073349781022184
 50
278.9000095336818958
 51
308.7624681453676772
  0
ARC
  5
11B6C
  8
0
 10
3738.9750470032818157
 20
135.940330504210209
 30
0.0
 40
0.270485579630995
 50
313.2977247544903889
 51
331.2443539997232733
  0
ARC
  5
11B6D
  8
0
 10
3738.9739752099339967
 20
135.9407125315921974
 30
0.0
 40
0.2716090427231846
 50
331.2824720708482005
 51
348.1425423309498797
  0
ARC
  5
11B6E
  8
0
 10
3739.2200242583280669
 20
135.8884146019753132
 30
0.0
 40
0.0202232562744042
 50
3.5633280105929388
 51
88.585431101066618
  0
ARC
  5
11B6F
  8
0
 10
3739.1952702170051452
 20
135.8912249602757072
 30
0.0
 40
0.0449650424388398
 50
351.9175447362900968
 51
358.0201567882771201
  0
LINE
  5
11B70
  8
0
 10
3739.2205234972511789
 20
135.9086316951105005
 30
0.0
 11
3736.5074720500510921
 21
135.9086316951105005
 31
0.0
  0
ARC
  5
11B71
  8
0
 10
3736.5074521210722196
 20
135.8889466485771891
 30
0.0
 40
0.0196850566212331
 50
89.9419942451483649
 51
179.9999792377444976
  0
LINE
  5
11B72
  8
0
 10
3736.487767064450054
 20
135.8889466557104981
 30
0.0
 11
3736.487767064450054
 21
134.2629624038104907
 31
0.0
  0
ARC
  5
11B73
  8
0
 10
3736.5319542534189168
 20
134.294467785973012
 30
0.0
 40
0.0787579484463883
 50
270.84039170963689
 51
336.4200730308227776
  0
ARC
  5
11B74
  8
0
 10
3737.6246967685851814
 20
134.2944627429048126
 30
0.0
 40
0.0787650644097646
 50
203.573665119090208
 51
268.688589998742998
  0
ARC
  5
11B75
  8
0
 10
3733.0861635428741465
 20
135.4374814419172139
 30
0.0
 40
2.0575877008643459
 50
90.2184614107711838
 51
90.7004613647752365
  0
ARC
  5
11B76
  8
0
 10
3733.0781971881060599
 20
136.4343755821882951
 30
0.0
 40
1.060679068249434
 50
90.9284895067809344
 51
95.0880335627765163
  0
ARC
  5
11B77
  8
0
 10
3733.0570573334462097
 20
136.6718030424397909
 30
0.0
 40
0.822312350068139
 50
95.0880335627765163
 51
103.2541438026353973
  0
ARC
  5
11B78
  8
0
 10
3732.9552356726439939
 20
137.104084038357513
 30
0.0
 40
0.3782014291935502
 50
103.2541438026353973
 51
115.1734373269603964
  0
ARC
  5
11B79
  8
0
 10
3732.8542318675072238
 20
137.318986600996908
 30
0.0
 40
0.1407464227583455
 50
115.1734373269603964
 51
132.2289280443287112
  0
ARC
  5
11B7A
  8
0
 10
3732.7959535947070435
 20
137.3831934056478019
 30
0.0
 40
0.0540349999580276
 50
132.2289280443287112
 51
157.9498347881336997
  0
ARC
  5
11B7B
  8
0
 10
3732.7744989252719279
 20
137.391883513443787
 30
0.0
 40
0.0308871963034293
 50
157.9498347881336997
 51
190.4487542953619084
  0
ARC
  5
11B7C
  8
0
 10
3732.7830536974520328
 20
137.3934611337853937
 30
0.0
 40
0.0395862199829587
 50
190.4487542953619084
 51
207.9320250214217936
  0
ARC
  5
11B7D
  8
0
 10
3732.792831753919927
 20
137.3986453477942007
 30
0.0
 40
0.0506535802457848
 50
207.9320250214217936
 51
221.8842980592255003
  0
ARC
  5
11B7E
  8
0
 10
3733.096509937024166
 20
137.6709700124924893
 30
0.0
 40
0.458552050329537
 50
221.8842980592255003
 51
222.7403504695053016
  0
ARC
  5
11B7F
  8
0
 10
3733.0704729483268238
 20
135.4374814419172139
 30
0.0
 40
2.0575877008643459
 50
89.2995386352247635
 51
89.7815385892288447
  0
ARC
  5
11B80
  8
0
 10
3733.0784393030958199
 20
136.4343755821882951
 30
0.0
 40
1.060679068249434
 50
84.9119664372234979
 51
89.071510493219094
  0
ARC
  5
11B81
  8
0
 10
3733.0995791577561249
 20
136.6718030424397909
 30
0.0
 40
0.822312350068139
 50
76.7458561973645317
 51
84.9119664372234979
  0
ARC
  5
11B82
  8
0
 10
3733.2014008185578859
 20
137.104084038357513
 30
0.0
 40
0.3782014291935502
 50
64.8265626730396178
 51
76.7458561973645317
  0
ARC
  5
11B83
  8
0
 10
3733.3024046236951108
 20
137.318986600996908
 30
0.0
 40
0.1407464227583455
 50
47.7710719556713173
 51
64.8265626730396178
  0
ARC
  5
11B84
  8
0
 10
3733.3606828964948363
 20
137.3831934056478019
 30
0.0
 40
0.0540349999580276
 50
22.050165211866279
 51
47.7710719556713173
  0
ARC
  5
11B85
  8
0
 10
3733.3821375659290425
 20
137.391883513443787
 30
0.0
 40
0.0308871963034293
 50
349.5512457046381201
 51
22.050165211866279
  0
ARC
  5
11B86
  8
0
 10
3733.373582793749847
 20
137.3934611337853937
 30
0.0
 40
0.0395862199829587
 50
332.0679749785782064
 51
349.5512457046381201
  0
ARC
  5
11B87
  8
0
 10
3733.3638047372819528
 20
137.3986453477942007
 30
0.0
 40
0.0506535802457848
 50
318.115701940774386
 51
332.0679749785782064
  0
ARC
  5
11B88
  8
0
 10
3733.0601265541768043
 20
137.6709700124924893
 30
0.0
 40
0.458552050329537
 50
317.2596495304945847
 51
318.115701940774386
  0
LINE
  5
11B89
  8
0
 10
3730.0232007246181638
 20
134.0188679156105138
 30
0.0
 11
3728.1334363558507903
 21
134.0188679156105138
 31
0.0
  0
LINE
  5
11B8A
  8
0
 10
3730.0232007246181638
 20
134.0188679156105138
 30
0.0
 11
3730.0232007246181638
 21
134.1960332699104868
 31
0.0
  0
ARC
  5
11B8B
  8
0
 10
3730.0035006588091164
 20
134.1960182430605926
 30
0.0
 40
0.0197000715400174
 50
0.0437041642608056
 51
89.9580109461273878
  0
LINE
  5
11B8C
  8
0
 10
3730.0035150959511157
 20
134.2157183093104891
 30
0.0
 11
3728.1546756438478951
 21
134.2157183093104891
 31
0.0
  0
ARC
  5
11B8D
  8
0
 10
3728.1532420180187728
 20
134.1959644817646051
 30
0.0
 40
0.0198057816238483
 50
85.8490601573717669
 51
179.8010036442354078
  0
LINE
  5
11B8E
  8
0
 10
3728.1334363558507903
 20
134.1960332699104868
 30
0.0
 11
3728.1334363558507903
 21
134.0188679156105138
 31
0.0
  0
LINE
  5
11B8F
  8
0
 10
3729.6688694267509163
 20
134.2629624038104907
 30
0.0
 11
3728.4877670645510079
 21
134.2629624038104907
 31
0.0
  0
LINE
  5
11B90
  8
0
 10
3728.4877670645510079
 20
134.2629624038104907
 30
0.0
 11
3728.4877670645510079
 21
135.0039466557105072
 31
0.0
  0
ARC
  5
11B91
  8
0
 10
3727.3035242171367827
 20
135.0229860163832996
 30
0.0
 40
1.184395887744625
 50
359.0789211527352904
 51
16.0212620100085807
  0
ARC
  5
11B92
  8
0
 10
3728.0267084283877921
 20
135.2306462168621977
 30
0.0
 40
0.4319876459861233
 50
16.0212620100085807
 51
81.9370462247599392
  0
ARC
  5
11B93
  8
0
 10
3727.8864572863321882
 20
134.2406017757710117
 30
0.0
 40
1.431916832570576
 50
81.9370462247599392
 51
89.2982699025096451
  0
LINE
  5
11B94
  8
0
 10
3727.9039942502508893
 20
135.6724112150104986
 30
0.0
 11
3727.2344125567510673
 21
135.672411337582588
 31
0.0
  0
ARC
  5
11B95
  8
0
 10
3727.231870565526151
 20
136.2599861223330038
 30
0.0
 40
0.5875802833603841
 50
261.0999905215952026
 51
270.2478739113731194
  0
ARC
  5
11B96
  8
0
 10
3727.1885136605810658
 20
135.983115015294203
 30
0.0
 40
0.3073349781022184
 50
231.2375318546322944
 51
261.0999904663179905
  0
ARC
  5
11B97
  8
0
 10
3727.1815894879200641
 20
135.940330504210209
 30
0.0
 40
0.270485579630995
 50
208.7556460002766983
 51
226.7022752455096111
  0
ARC
  5
11B98
  8
0
 10
3727.1826612812678832
 20
135.9407125315921974
 30
0.0
 40
0.2716090427231846
 50
191.8574576690500066
 51
208.7175279291517995
  0
ARC
  5
11B99
  8
0
 10
3726.9366122328729034
 20
135.8884146019753132
 30
0.0
 40
0.0202232562744042
 50
91.4145688989333962
 51
176.4366719894069888
  0
ARC
  5
11B9A
  8
0
 10
3726.9613662741980988
 20
135.8912249602757072
 30
0.0
 40
0.0449650424388398
 50
181.9798432117227946
 51
188.0824552637097895
  0
LINE
  5
11B9B
  8
0
 10
3726.9361129939497914
 20
135.9086316951105005
 30
0.0
 11
3729.6491644411507878
 21
135.9086316951105005
 31
0.0
  0
ARC
  5
11B9C
  8
0
 10
3729.649184370130115
 20
135.8889466485771891
 30
0.0
 40
0.0196850566212331
 50
0.000020762255478
 51
90.0580057548516066
  0
LINE
  5
11B9D
  8
0
 10
3729.6688694267509163
 20
135.8889466557104981
 30
0.0
 11
3729.6688694267509163
 21
134.2629624038104907
 31
0.0
  0
ARC
  5
11B9E
  8
0
 10
3729.6246822377829631
 20
134.294467785973012
 30
0.0
 40
0.0787579484463883
 50
203.5799269691771087
 51
269.15960829036311
  0
ARC
  5
11B9F
  8
0
 10
3728.5319397226157889
 20
134.2944627429048126
 30
0.0
 40
0.0787650644097646
 50
271.3114100012571157
 51
336.4263348809099057
  0
LINE
  5
11BA0
  8
0
 10
3732.2515465920178031
 20
134.2157183093104891
 30
0.0
 11
3732.2515465920178031
 21
138.0661120101104871
 31
0.0
  0
ENDSEC
  0
EOF
