  0
SECTION
  2
HEADER
  9
$ACADVER
  1
AC1009
  9
$INSBASE
 10
4750.0837461267074104
 20
521.063061958540743
 30
0.0
  9
$EXTMIN
 10
4749.1388642369556692
 20
521.063061958540743
 30
0.0
  9
$EXTMAX
 10
4753.4302028195561434
 20
530.7392073312397542
 30
0.0
  9
$LIMMIN
 10
0.0
 20
0.0
  9
$LIMMAX
 10
11.6929133858000007
 20
8.2677165353999982
  9
$ORTHOMODE
 70
     0
  9
$REGENMODE
 70
     1
  9
$FILLMODE
 70
     1
  9
$QTEXTMODE
 70
     0
  9
$MIRRTEXT
 70
     0
  9
$DRAGMODE
 70
     2
  9
$LTSCALE
 40
0.6431102362
  9
$OSMODE
 70
     7
  9
$ATTMODE
 70
     1
  9
$TEXTSIZE
 40
0.2
  9
$TRACEWID
 40
0.05
  9
$TEXTSTYLE
  7
STANDARD
  9
$CLAYER
  8
0
  9
$CELTYPE
  6
BYLAYER
  9
$CECOLOR
 62
   256
  9
$DIMSCALE
 40
1.0
  9
$DIMASZ
 40
0.1875
  9
$DIMEXO
 40
0.0625
  9
$DIMDLI
 40
0.4443307087
  9
$DIMRND
 40
0.0
  9
$DIMDLE
 40
0.0
  9
$DIMEXE
 40
0.125
  9
$DIMTP
 40
0.01
  9
$DIMTM
 40
0.01
  9
$DIMTXT
 40
2.0
  9
$DIMCEN
 40
0.1052362205
  9
$DIMTSZ
 40
0.0
  9
$DIMTOL
 70
     1
  9
$DIMLIM
 70
     0
  9
$DIMTIH
 70
     1
  9
$DIMTOH
 70
     1
  9
$DIMSE1
 70
     0
  9
$DIMSE2
 70
     0
  9
$DIMTAD
 70
     0
  9
$DIMZIN
 70
     0
  9
$DIMBLK
  1

  9
$DIMASO
 70
     1
  9
$DIMSHO
 70
     1
  9
$DIMPOST
  1
\X
  9
$DIMAPOST
  1

  9
$DIMALT
 70
     1
  9
$DIMALTD
 70
     2
  9
$DIMALTF
 40
25.3999999999999986
  9
$DIMLFAC
 40
1.0
  9
$DIMTOFL
 70
     0
  9
$DIMTVP
 40
0.0
  9
$DIMTIX
 70
     0
  9
$DIMSOXD
 70
     0
  9
$DIMSAH
 70
     0
  9
$DIMBLK1
  1

  9
$DIMBLK2
  1

  9
$DIMSTYLE
  2
STANDARD
  9
$DIMCLRD
 70
     0
  9
$DIMCLRE
 70
     0
  9
$DIMCLRT
 70
     0
  9
$DIMTFAC
 40
1.0
  9
$DIMGAP
 40
0.09
  9
$LUNITS
 70
     2
  9
$LUPREC
 70
     4
  9
$SKETCHINC
 40
0.1
  9
$FILLETRAD
 40
0.0
  9
$AUNITS
 70
     0
  9
$AUPREC
 70
     0
  9
$MENU
  1
.
  9
$ELEVATION
 40
0.0
  9
$PELEVATION
 40
0.0
  9
$THICKNESS
 40
0.0
  9
$LIMCHECK
 70
     0
  9
$BLIPMODE
 70
     0
  9
$CHAMFERA
 40
0.0
  9
$CHAMFERB
 40
0.0
  9
$SKPOLY
 70
     0
  9
$TDCREATE
 40
2458060.468368056230247
  9
$TDUPDATE
 40
2459393.7885879632085562
  9
$TDINDWG
 40
1.5647422917
  9
$TDUSRTIMER
 40
1.5647422917
  9
$USRTIMER
 70
     1
  9
$ANGBASE
 50
0.0
  9
$ANGDIR
 70
     0
  9
$PDMODE
 70
     0
  9
$PDSIZE
 40
0.3125
  9
$PLINEWID
 40
0.0
  9
$COORDS
 70
     1
  9
$SPLFRAME
 70
     0
  9
$SPLINETYPE
 70
     6
  9
$SPLINESEGS
 70
     8
  9
$ATTDIA
 70
     1
  9
$ATTREQ
 70
     1
  9
$HANDLING
 70
     1
  9
$HANDSEED
  5
1E609
  9
$SURFTAB1
 70
     6
  9
$SURFTAB2
 70
     6
  9
$SURFTYPE
 70
     6
  9
$SURFU
 70
     6
  9
$SURFV
 70
     6
  9
$UCSNAME
  2

  9
$UCSORG
 10
0.0
 20
0.0
 30
0.0
  9
$UCSXDIR
 10
1.0
 20
0.0
 30
0.0
  9
$UCSYDIR
 10
0.0
 20
1.0
 30
0.0
  9
$PUCSNAME
  2

  9
$PUCSORG
 10
0.0
 20
0.0
 30
0.0
  9
$PUCSXDIR
 10
1.0
 20
0.0
 30
0.0
  9
$PUCSYDIR
 10
0.0
 20
1.0
 30
0.0
  9
$USERI1
 70
     0
  9
$USERI2
 70
     0
  9
$USERI3
 70
     0
  9
$USERI4
 70
     0
  9
$USERI5
 70
     0
  9
$USERR1
 40
0.0
  9
$USERR2
 40
0.0
  9
$USERR3
 40
0.0
  9
$USERR4
 40
0.0
  9
$USERR5
 40
0.0
  9
$WORLDVIEW
 70
     1
  9
$SHADEDGE
 70
     3
  9
$SHADEDIF
 70
    70
  9
$TILEMODE
 70
     1
  9
$MAXACTVP
 70
    64
  9
$PLIMCHECK
 70
     0
  9
$PEXTMIN
 10
1.0000000000000000E+20
 20
1.0000000000000000E+20
 30
1.0000000000000000E+20
  9
$PEXTMAX
 10
-1.0000000000000000E+20
 20
-1.0000000000000000E+20
 30
-1.0000000000000000E+20
  9
$PLIMMIN
 10
0.0
 20
0.0
  9
$PLIMMAX
 10
12.0
 20
9.0
  9
$UNITMODE
 70
     0
  9
$VISRETAIN
 70
     1
  9
$PLINEGEN
 70
     0
  9
$PSLTSCALE
 70
     1
  0
ENDSEC
  0
SECTION
  2
TABLES
  0
TABLE
  2
VPORT
 70
     1
  0
VPORT
  2
*ACTIVE
 70
     0
 10
0.0
 20
0.0
 11
1.0
 21
1.0
 12
839.919177082943861
 22
393.3215295423511861
 13
0.0
 23
0.0
 14
1.0
 24
1.0
 15
0.0
 25
0.0
 16
0.0
 26
0.0
 36
60.4960186965801583
 17
3911.3653564453120453
 27
132.5796051025390057
 37
0.0
 40
9.7504819568683843
 41
2.3461538461538458
 42
50.0
 43
0.0
 44
0.0
 50
0.0
 51
0.0
 71
     0
 72
   100
 73
     1
 74
     1
 75
     0
 76
     0
 77
     0
 78
     0
  0
ENDTAB
  0
TABLE
  2
LTYPE
 70
     2
  0
LTYPE
  2
CONTINUOUS
 70
     0
  3
Solid line
 72
    65
 73
     0
 40
0.0
  0
LTYPE
  2
PHANTOM2
 70
     0
  3
___ _ _ ___ _ _ ___ _ _ ___ _ _
 72
    65
 73
     6
 40
1.25
 49
0.625
 49
-0.125
 49
0.125
 49
-0.125
 49
0.125
 49
-0.125
  0
ENDTAB
  0
TABLE
  2
LAYER
 70
     2
  0
LAYER
  2
0
 70
     0
 62
   255
  6
CONTINUOUS
  0
LAYER
  2
DEFPOINTS
 70
     0
 62
     7
  6
CONTINUOUS
  0
ENDTAB
  0
TABLE
  2
STYLE
 70
     1
  0
STYLE
  2
STANDARD
 70
     0
 40
0.0
 41
0.8
 50
0.0
 71
     0
 42
0.2
  3
txt
  4

  0
ENDTAB
  0
TABLE
  2
VIEW
 70
     0
  0
ENDTAB
  0
TABLE
  2
UCS
 70
     0
  0
ENDTAB
  0
TABLE
  2
APPID
 70
    11
  0
APPID
  2
ACAD
 70
     0
  0
APPID
  2
ACAD_MLEADERVER
 70
     0
  0
APPID
  2
ACAD_EXEMPT_FROM_CAD_STANDARDS
 70
     0
  0
APPID
  2
ACAD_NAV_VCDISPLAY
 70
     0
  0
APPID
  2
ACAECLAYERSTANDARD
 70
     0
  0
APPID
  2
ACCMTRANSPARENCY
 70
     0
  0
APPID
  2
ACAD_DSTYLE_DIMJAG
 70
     0
  0
APPID
  2
ACAD_DSTYLE_DIMTALN
 70
     0
  0
APPID
  2
ACDBATTR
 70
     0
  0
APPID
  2
ACADANNOTATIVE
 70
     0
  0
APPID
  2
DCO15
 70
     0
  0
ENDTAB
  0
TABLE
  2
DIMSTYLE
 70
     1
  0
DIMSTYLE
  2
STANDARD
 70
     0
  3

  4

  5

  6

  7

 40
1.0
 41
0.1875
 42
0.0625
 43
0.38
 44
0.125
 45
0.0
 46
0.0
 47
0.01
 48
0.01
140
0.15625
141
0.09
142
0.0
143
25.3999999999999986
144
1.0
145
0.0
146
1.0
147
0.09
 71
     1
 72
     0
 73
     1
 74
     1
 75
     0
 76
     0
 77
     0
 78
     4
170
     0
171
     2
172
     0
173
     0
174
     0
175
     0
176
     0
177
     0
178
     0
  0
ENDTAB
  0
ENDSEC
  0
SECTION
  2
BLOCKS
  0
BLOCK
  8
0
  2
$MODEL_SPACE
 70
     0
 10
0.0
 20
0.0
 30
0.0
  3
$MODEL_SPACE
  1

  0
ENDBLK
  5
21
  8
0
  0
BLOCK
 67
     1
  8
0
  2
$PAPER_SPACE
 70
     0
 10
0.0
 20
0.0
 30
0.0
  3
$PAPER_SPACE
  1

  0
ENDBLK
  5
1D
 67
     1
  8
0
  0
ENDSEC
  0
SECTION
  2
ENTITIES
  0
ATTDEF
  5
159BF
  8
DEFPOINTS
 10
4750.0837432205371442
 20
521.0664136264168746
 30
0.0
 40
0.001
  1
K-31240T-4
  3

  2
MODELNUMBER
 70
     0
1001
ACDBATTR
1070
     0
1070
     1
  0
ATTDEF
  5
159C0
  8
DEFPOINTS
 10
4750.0837432205371442
 20
521.0647467860377446
 30
0.0
 40
0.001
  1
ALEO
  3

  2
TRADENAME
 70
     0
1001
ACDBATTR
1070
     0
1070
     1
  0
ATTDEF
  5
159C1
  8
DEFPOINTS
 10
4750.0837432205371442
 20
521.0630802930835443
 30
0.0
 40
0.001
  1
BATHROOM SINK FAUCET
  3

  2
PRODUCT
 70
     0
1001
ACDBATTR
1070
     0
1070
     1
  0
LINE
  5
1E105
  8
0
 10
4751.0286280164564232
 20
521.063061958540743
 30
0.0
 11
4749.1388642369556692
 21
521.063061958540743
 31
0.0
  0
LINE
  5
1E106
  8
0
 10
4753.4302028195561434
 20
522.5788074982879152
 30
0.0
 11
4753.4302028195561434
 21
526.7731407786593536
 31
0.0
  0
LINE
  5
1E107
  8
0
 10
4752.0916201426980479
 20
522.5591249506406939
 30
0.0
 11
4751.1817002118177697
 21
522.5591249506406939
 31
0.0
  0
LINE
  5
1E108
  8
0
 10
4752.5291215915558496
 20
522.5591249506406939
 30
0.0
 11
4753.4105177803858169
 21
522.5591249506406939
 31
0.0
  0
ARC
  5
1E109
  8
0
 10
4752.5291237041219574
 20
522.5709391659188441
 30
0.0
 40
0.0118142154670952
 50
203.0102452900125058
 51
269.989754624684906
  0
LINE
  5
1E10A
  8
0
 10
4752.5182494870559822
 20
522.5663210396406839
 30
0.0
 11
4752.186008950856376
 21
523.349030692940687
 31
0.0
  0
LINE
  5
1E10B
  8
0
 10
4752.170360299955064
 20
523.4259462694550393
 30
0.0
 11
4752.170360299955064
 21
524.2008595222491749
 31
0.0
  0
LINE
  5
1E10C
  8
0
 10
4752.111305181755597
 20
524.1929832185113582
 30
0.0
 11
4752.111305181755597
 21
522.5788099896993799
 31
0.0
  0
LINE
  5
1E10D
  8
0
 10
4751.1817002118177697
 20
524.2126682577406882
 30
0.0
 11
4752.0916201425270629
 21
524.2126682577406882
 31
0.0
  0
LINE
  5
1E10E
  8
0
 10
4752.1821713238841767
 20
524.2126682577406882
 30
0.0
 11
4752.7145561435036143
 21
524.2126682577406882
 31
0.0
  0
ARC
  5
1E10F
  8
0
 10
4751.9917038835574203
 20
523.2800206992402536
 30
0.0
 40
0.8661417323004824
 50
78.0937260980829393
 51
82.0629079589843684
  0
ARC
  5
1E110
  8
0
 10
4751.9917038835574203
 20
523.4917725091406737
 30
0.0
 40
0.8661417323000185
 50
277.9370563896089266
 51
301.1698065914557105
  0
ARC
  5
1E111
  8
0
 10
4752.0916201426980479
 20
522.5788099896993799
 30
0.0
 40
0.0196850390585795
 50
269.9999992972939253
 51
0.0000007026866122
  0
ARC
  5
1E112
  8
0
 10
4753.4105177803858169
 20
522.578809989968363
 30
0.0
 40
0.0196850393277783
 50
270.0
 51
359.9927476507285746
  0
LINE
  5
1E113
  8
0
 10
4753.2057768248050706
 20
525.0310208136407937
 30
0.0
 11
4753.2057768248050706
 21
526.2375898487420045
 31
0.0
  0
ARC
  5
1E114
  8
0
 10
4753.4105194900794231
 20
526.7731407786594673
 30
0.0
 40
0.0196833294774024
 50
359.9999999994789164
 51
128.3096777478997126
  0
ARC
  5
1E115
  8
0
 10
4753.6215758989192182
 20
526.505789247840994
 30
0.0
 40
0.3603028355232882
 50
128.2899076051720044
 51
134.0301193475702917
  0
ARC
  5
1E116
  8
0
 10
4753.6223194446492926
 20
526.5049793664560411
 30
0.0
 40
0.3614019120826069
 50
134.0256316858836954
 51
150.6552479403283087
  0
ARC
  5
1E117
  8
0
 10
4753.9782872625355594
 20
526.3180178891337846
 30
0.0
 40
0.7634035809456571
 50
151.5165121950034859
 51
171.690447896953998
  0
ARC
  5
1E118
  8
0
 10
4754.621647608875719
 20
526.2066548583775329
 30
0.0
 40
1.4162086890047121
 50
170.9939720770935025
 51
178.7483586410928922
  0
LINE
  5
1E119
  8
0
 10
4749.1388642369556692
 20
521.2402273130113599
 30
0.0
 11
4749.1388642369556692
 21
521.063061958540743
 31
0.0
  0
LINE
  5
1E11A
  8
0
 10
4751.0286280164564232
 20
521.2402273128406023
 30
0.0
 11
4751.0286280164564232
 21
521.063061958540743
 31
0.0
  0
LINE
  5
1E11B
  8
0
 10
4749.2569744731563333
 20
525.6457391236424428
 30
0.0
 11
4749.2569744731563333
 21
521.2599123522408036
 31
0.0
  0
LINE
  5
1E11C
  8
0
 10
4749.2569744731563333
 20
525.681172194740725
 30
0.0
 11
4749.2569744731563333
 21
529.5465160268406635
 31
0.0
  0
LINE
  5
1E11D
  8
0
 10
4750.9105177802566686
 20
524.5276288877405477
 30
0.0
 11
4750.9105177802566686
 21
525.6457391236424428
 31
0.0
  0
LINE
  5
1E11E
  8
0
 10
4750.9105177802566686
 20
525.681172194740725
 30
0.0
 11
4750.9105177802566686
 21
529.5465160268402087
 31
0.0
  0
LINE
  5
1E11F
  8
0
 10
4750.9105177802566686
 20
522.2441643206408344
 30
0.0
 11
4750.9105177802566686
 21
521.2599123522408036
 31
0.0
  0
LINE
  5
1E120
  8
0
 10
4749.2766561906119023
 20
525.6654241632408002
 30
0.0
 11
4750.8908360634986821
 21
525.6654241632408002
 31
0.0
  0
LINE
  5
1E121
  8
0
 10
4749.2569744731563333
 20
525.681172194740725
 30
0.0
 11
4750.9105177802566686
 21
525.681172194740725
 31
0.0
  0
LINE
  5
1E122
  8
0
 10
4749.5522500636561745
 20
525.681172194740725
 30
0.0
 11
4749.5522500636561745
 21
525.6654241632408002
 31
0.0
  0
LINE
  5
1E123
  8
0
 10
4750.6152421896558735
 20
525.681172194740725
 30
0.0
 11
4750.6152421896558735
 21
525.6654241632408002
 31
0.0
  0
ARC
  5
1E124
  8
0
 10
4749.2766595130351561
 20
525.6457391236424428
 30
0.0
 40
0.0196850398786312
 50
90.0096703283754636
 51
179.9999994229575861
  0
ARC
  5
1E125
  8
0
 10
4750.8908327403778458
 20
525.6457391236424428
 30
0.0
 40
0.019685039878838
 50
0.0000005773029382
 51
89.9903276394827429
  0
ARC
  5
1E126
  8
0
 10
4751.1316884587104141
 20
522.3412841587700086
 30
0.0
 40
0.2110141432476317
 50
113.0586292999295068
 51
171.2096781903725002
  0
ARC
  5
1E127
  8
0
 10
4751.6334256211812317
 20
522.2388593977585742
 30
0.0
 40
0.722927305251405
 50
169.2638433995435889
 51
179.579553272522304
  0
ARC
  5
1E128
  8
0
 10
4751.1839042716374024
 20
522.1634320613444515
 30
0.0
 40
0.3956990276956894
 50
90.3191414929074483
 51
109.927176797279003
  0
ARC
  5
1E129
  8
0
 10
4751.1316884587104141
 20
524.4305090496114872
 30
0.0
 40
0.2110141432476317
 50
188.7903218096273861
 51
246.9413707000703937
  0
ARC
  5
1E12A
  8
0
 10
4751.6334256211812317
 20
524.5329338106228079
 30
0.0
 40
0.722927305251405
 50
180.420446727477696
 51
190.7361566004562974
  0
ARC
  5
1E12B
  8
0
 10
4751.1839042716374024
 20
524.6083611470370442
 30
0.0
 40
0.3956990276956894
 50
250.072823202720997
 51
269.6808585070925801
  0
ARC
  5
1E12C
  8
0
 10
4753.1377405946714134
 20
523.3858966041907479
 30
0.0
 40
2.502813231615745
 50
152.8591439384053956
 51
207.1408560615946044
  0
ARC
  5
1E12D
  8
0
 10
4744.3624841317741812
 20
525.1693940186426062
 30
0.0
 40
8.8443752067913088
 50
358.6520479831867192
 51
359.1035518129816069
  0
ARC
  5
1E12E
  8
0
 10
4751.0089148510687664
 20
525.0163670240160627
 30
0.0
 40
2.1961865110047989
 50
353.1709112011074012
 51
358.5642281657077888
  0
ARC
  5
1E12F
  8
0
 10
4752.1037667402197258
 20
524.8852500514052508
 30
0.0
 40
1.093511436612761
 50
342.7297527789144738
 51
353.1709112011074012
  0
ARC
  5
1E130
  8
0
 10
4752.7153599921739442
 20
524.6791239687718189
 30
0.0
 40
0.4485570705619898
 50
291.5059129240145239
 51
344.6798141136890763
  0
ARC
  5
1E131
  8
0
 10
4750.5497941278663347
 20
531.2677235958230995
 30
0.0
 40
7.3832211127689504
 50
287.4484991750325094
 51
288.3959028134343043
  0
ARC
  5
1E132
  8
0
 10
4752.6408193747747646
 20
524.6357747488063978
 30
0.0
 40
0.4294836595780624
 50
279.8859203403110882
 51
286.6171875235309017
  0
LINE
  5
1E133
  8
0
 10
4749.1585492761860223
 20
521.2599123522408036
 30
0.0
 11
4751.0089429770559946
 21
521.2599123522408036
 31
0.0
  0
ARC
  5
1E134
  8
0
 10
4749.1585492761860223
 20
521.2402273130113599
 30
0.0
 40
0.0196850392292896
 50
89.9999997941646797
 51
180.000000496870797
  0
ARC
  5
1E135
  8
0
 10
4751.0089429770559946
 20
521.2402273128406023
 30
0.0
 40
0.0196850394000015
 50
0.0000000000065138
 51
90.0
  0
ARC
  5
1E136
  8
0
 10
4752.3672106937983699
 20
523.4259462694550393
 30
0.0
 40
0.1968503938417161
 50
180.0000000041557939
 51
202.9999999952360952
  0
ARC
  5
1E137
  8
0
 10
4752.1821713238841767
 20
524.2008572335913641
 30
0.0
 40
0.011811024149238
 50
90.0000015887360263
 51
179.9888976240860927
  0
ARC
  5
1E138
  8
0
 10
4752.0916201425270629
 20
524.1929832185113582
 30
0.0
 40
0.01968503922929
 50
359.9999995031291746
 51
90.0000002057832091
  0
ARC
  5
1E139
  8
0
 10
4750.0837461267074104
 20
521.6777998754591863
 30
0.0
 40
9.0614074557806497
 50
87.64293251380019
 51
92.3570674861997958
  0
ARC
  5
1E13A
  8
0
 10
4749.7580820319390114
 20
529.6198307998754444
 30
0.0
 40
1.112703176462855
 50
92.4210845275833464
 51
101.3686729528332933
  0
ARC
  5
1E13B
  8
0
 10
4749.5939146447553867
 20
530.4597427335249904
 30
0.0
 40
0.2569516830111799
 50
102.3985268842176026
 51
121.8000458808288045
  0
ARC
  5
1E13C
  8
0
 10
4749.5201483924502099
 20
530.5836109406052401
 30
0.0
 40
0.1128349419708234
 50
123.1101342238311958
 51
169.4891286674522064
  0
LINE
  5
1E13D
  8
0
 10
4749.4092067855563073
 20
530.6041945260407147
 30
0.0
 11
4749.2577346397565634
 21
529.5581402501405819
 31
0.0
  0
ARC
  5
1E13E
  8
0
 10
4749.3548935911640001
 20
529.5459495689754021
 30
0.0
 40
0.0979207564619874
 50
172.8483848098329929
 51
179.6685500893329959
  0
ARC
  5
1E13F
  8
0
 10
4751.756308857266049
 20
530.5890121639982908
 30
0.0
 40
2.367554080472853
 50
182.633639955549711
 51
187.6935067558052026
  0
ARC
  5
1E140
  8
0
 10
4762.0159679776661505
 20
532.5992885521475273
 30
0.0
 40
12.8189215252420503
 50
190.4598506506497131
 51
193.4936353654923948
  0
ARC
  5
1E141
  8
0
 10
4749.6345717765725567
 20
529.6239537751341686
 30
0.0
 40
0.0851482921142886
 50
151.4549502882379102
 51
208.5450497117620046
  0
ARC
  5
1E142
  8
0
 10
4750.0837461267074104
 20
528.4630960354336366
 30
0.0
 40
1.351327093507098
 50
75.9392101536143258
 51
104.0607898463857026
  0
ARC
  5
1E143
  8
0
 10
4749.8934857121093955
 20
529.2182507125434086
 30
0.0
 40
0.5725750237256234
 50
103.9512993150110987
 51
117.9186171094417972
  0
ARC
  5
1E144
  8
0
 10
4749.7093759398676411
 20
529.5657005153378805
 30
0.0
 40
0.1793603575491701
 50
117.9186171094417972
 51
146.5207904021494869
  0
ARC
  5
1E145
  8
0
 10
4750.0837461265900856
 20
528.6199936046870107
 30
0.0
 40
1.1735869461537549
 50
74.2030933217529878
 51
105.796906678246998
  0
ARC
  5
1E146
  8
0
 10
4749.8845285860779768
 20
529.3502638362824655
 30
0.0
 40
0.4167250035478373
 50
106.7740437557613973
 51
126.770903197751295
  0
ARC
  5
1E147
  8
0
 10
4749.7300798290416424
 20
529.6325415861813326
 30
0.0
 40
0.1080860904069496
 50
151.5244049952819125
 51
235.9680134544856003
  0
ARC
  5
1E148
  8
0
 10
4750.0837461267074104
 20
528.6700034130371932
 30
0.0
 40
1.111094529004967
 50
76.2502297088247758
 51
103.7497702911751958
  0
ARC
  5
1E149
  8
0
 10
4749.7028827225722125
 20
529.6114928755580422
 30
0.0
 40
0.0718925014158668
 50
136.8485346792010091
 51
223.1514653207989909
  0
ARC
  5
1E14A
  8
0
 10
4749.950872412152421
 20
529.2398579495392141
 30
0.0
 40
0.5260272811343873
 50
104.444512639555299
 51
115.7875560128895955
  0
ARC
  5
1E14B
  8
0
 10
4749.8268732812539383
 20
529.4965047081706189
 30
0.0
 40
0.2409951019345049
 50
115.7875560128895955
 51
137.0652099486150064
  0
ARC
  5
1E14C
  8
0
 10
4749.8495615613846894
 20
529.7658663266970507
 30
0.0
 40
0.2864853992712249
 50
231.0818866580030999
 51
247.0375114434284001
  0
ARC
  5
1E14D
  8
0
 10
4750.0837461267074104
 20
528.8068540212316293
 30
0.0
 40
0.9447466235881073
 50
78.9443522011298739
 51
101.0556477988700976
  0
LINE
  5
1E14E
  8
0
 10
4749.7294154180563055
 20
529.5390051601407322
 30
0.0
 11
4749.7294154180563055
 21
529.5932412702405827
 31
0.0
  0
ARC
  5
1E14F
  8
0
 10
4749.7706304619887305
 20
529.6115132840939168
 30
0.0
 40
0.060900086737532
 50
132.5913588466237911
 51
227.4086411533783973
  0
ARC
  5
1E150
  8
0
 10
4750.0135740252790129
 20
529.1826695339238995
 30
0.0
 40
0.5624584457684945
 50
101.381362276971501
 51
110.9413560894706023
  0
ARC
  5
1E151
  8
0
 10
4749.8934609739208099
 20
529.4849479629630196
 30
0.0
 40
0.2372527658845697
 50
109.9412213461448005
 51
133.7440397139284016
  0
ARC
  5
1E152
  8
0
 10
4750.0837461266755781
 20
528.8414683969612042
 30
0.0
 40
0.8845074929794537
 50
77.7832145969074702
 51
102.2167854030925014
  0
ARC
  5
1E153
  8
0
 10
4749.9942327733397178
 20
529.2641790841197462
 30
0.0
 40
0.4524317774624038
 50
102.4655137162812935
 51
115.0917309339750005
  0
ARC
  5
1E154
  8
0
 10
4749.8842576053593802
 20
529.4991778709411392
 30
0.0
 40
0.1929728033115279
 50
115.109196191934501
 51
134.2493217124151954
  0
ARC
  5
1E155
  8
0
 10
4749.7964892751706429
 20
529.5892767160153198
 30
0.0
 40
0.0671909219937655
 50
134.2493217124151954
 51
176.6173371287551106
  0
ARC
  5
1E156
  8
0
 10
4749.8267335574028039
 20
529.5416797618416922
 30
0.0
 40
0.0973548855487377
 50
181.574267914341192
 51
227.8316644502893951
  0
ARC
  5
1E157
  8
0
 10
4750.0837461267074104
 20
530.216483520792508
 30
0.0
 40
0.8362053198517804
 50
257.8561698393864958
 51
282.1438301606133905
  0
ARC
  5
1E158
  8
0
 10
4750.0117802849526925
 20
529.8585635239272733
 30
0.0
 40
0.4711813276474354
 50
247.6841646435370023
 51
257.2555824721144973
  0
ARC
  5
1E159
  8
0
 10
4749.910818694333102
 20
529.6195825641559622
 30
0.0
 40
0.211779237171133
 50
225.1184800903801886
 51
248.4027911061236011
  0
ARC
  5
1E15A
  8
0
 10
4750.0837461267074104
 20
530.1762029607526756
 30
0.0
 40
0.78855556200054
 50
258.0668424900704849
 51
281.9331575099294014
  0
ARC
  5
1E15B
  8
0
 10
4750.0837461267074104
 20
528.8544158618861957
 30
0.0
 40
0.7692034210569806
 50
75.8419324390883816
 51
104.1580675609116042
  0
ARC
  5
1E15C
  8
0
 10
4749.8198825942272379
 20
529.5056332662575187
 30
0.0
 40
0.0510970974713603
 50
133.3057094608797968
 51
226.6942905391223917
  0
ARC
  5
1E15D
  8
0
 10
4749.9105759203694106
 20
529.4177285938100113
 30
0.0
 40
0.1773632136993092
 50
112.331703706813002
 51
135.1489569677333122
  0
ARC
  5
1E15E
  8
0
 10
4749.9976494703360004
 20
529.2269332402910322
 30
0.0
 40
0.3870176726547621
 50
105.2885338224230054
 51
113.5230818757967057
  0
ARC
  5
1E15F
  8
0
 10
4749.900635118046921
 20
529.5803298738888998
 30
0.0
 40
0.1610177456638906
 50
224.0137861184259123
 51
245.5261417087272093
  0
ARC
  5
1E160
  8
0
 10
4750.0061372531508823
 20
529.8034676492892459
 30
0.0
 40
0.4078296218026786
 50
245.0229394181066027
 51
257.9068343919360018
  0
ARC
  5
1E161
  8
0
 10
4750.0837461375049315
 20
529.9966095721606507
 30
0.0
 40
0.5886514039785873
 50
258.3436596385150779
 51
263.6094136994927908
  0
ARC
  5
1E162
  8
0
 10
4750.0837461375049315
 20
529.9966095721606507
 30
0.0
 40
0.5886514039785873
 50
265.5341583894830819
 51
281.6563403614848085
  0
ARC
  5
1E163
  8
0
 10
4750.0811644171335502
 20
529.9921270960869606
 30
0.0
 40
0.5837420120332314
 50
246.6831777814907127
 51
258.5029451194959051
  0
ARC
  5
1E164
  8
0
 10
4749.9359824652683528
 20
529.6638651454453566
 30
0.0
 40
0.2248495469787134
 50
229.0708962952629122
 51
247.5480437497868138
  0
ARC
  5
1E165
  8
0
 10
4749.8418219671866609
 20
529.5479260325396353
 30
0.0
 40
0.0757214744188493
 50
200.947822531597609
 51
225.4255812997344037
  0
ARC
  5
1E166
  8
0
 10
4750.083746126691949
 20
530.1021986197728211
 30
0.0
 40
0.6300871916320414
 50
245.9988179699475097
 51
294.001182031879182
  0
ARC
  5
1E167
  8
0
 10
4750.0837461267074104
 20
530.0638530640502495
 30
0.0
 40
0.6300871926812414
 50
245.9988180073640933
 51
294.0011819926359067
  0
ARC
  5
1E168
  8
0
 10
4750.0805625735829381
 20
530.0411332422767146
 30
0.0
 40
0.6154534181707154
 50
249.9612243030636876
 51
253.7241802399348956
  0
LINE
  5
1E169
  8
0
 10
4749.9080746001563966
 20
529.4503449477407457
 30
0.0
 11
4749.9085592184419511
 21
529.4500051306770274
 31
0.0
  0
ARC
  5
1E16A
  8
0
 10
4749.892450239963182
 20
529.5871207227269224
 30
0.0
 40
0.1380586279586259
 50
272.601540014329828
 51
276.7006588080059259
  0
ARC
  5
1E16B
  8
0
 10
4750.0806762848405924
 20
530.0344160436773109
 30
0.0
 40
0.6128474333339551
 50
250.7901449733356003
 51
252.7279878257309917
  0
ARC
  5
1E16C
  8
0
 10
4750.0396397059421361
 20
529.684705185340249
 30
0.0
 40
0.2797176169313967
 50
232.4562837056517992
 51
234.9578264364089932
  0
ARC
  5
1E16D
  8
0
 10
4781.024718130383917
 20
-285.4101126301707154
 30
0.0
 40
815.468409400892142
 50
92.1895233099870239
 51
92.1895573847166929
  0
LINE
  5
1E16E
  8
0
 10
4749.8987166988254103
 20
529.4492043848725871
 30
0.0
 11
4749.8987166988254103
 21
529.453157913056657
 31
0.0
  0
LINE
  5
1E16F
  8
0
 10
4749.8790316594349861
 20
529.4556920839274881
 30
0.0
 11
4749.8790316594349861
 21
529.4596109292224355
 31
0.0
  0
ARC
  5
1E170
  8
0
 10
4750.0825657172563297
 20
530.0481692663395279
 30
0.0
 40
0.6227702635988033
 50
255.3778511313782076
 51
259.0015699162099168
  0
ARC
  5
1E171
  8
0
 10
5162.4516801401759949
 20
1206.0141032495280342
 30
0.0
 40
792.4033611424916899
 50
238.6306486531584881
 51
238.6306896929002903
  0
ARC
  5
1E172
  8
0
 10
4749.931358519060268
 20
529.5851488948530914
 30
0.0
 40
0.152200193436232
 50
278.705313784704515
 51
282.4754188612843109
  0
ARC
  5
1E173
  8
0
 10
4750.0826275479703327
 20
530.0413639104999675
 30
0.0
 40
0.6200663913030431
 50
256.1988954132605159
 51
258.0647873226016031
  0
ARC
  5
1E174
  8
0
 10
4750.0664970187053768
 20
529.6560096972524434
 30
0.0
 40
0.2537219958349866
 50
236.0678958837401069
 51
238.706809332556702
  0
ARC
  5
1E175
  8
0
 10
4655.9546276098162707
 20
1154.5519825421040423
 30
0.0
 40
632.1301484394853105
 50
278.549075312781099
 51
278.5491197317933256
  0
LINE
  5
1E176
  8
0
 10
4749.9543943981561824
 20
529.434702069840796
 30
0.0
 11
4749.9543943981561824
 21
529.4387310707993493
 31
0.0
  0
LINE
  5
1E177
  8
0
 10
4749.9347093587566633
 20
529.4391990336406479
 30
0.0
 11
4749.9347093587566633
 21
529.4432053843811445
 31
0.0
  0
ARC
  5
1E178
  8
0
 10
4749.8249807132979186
 20
529.6098865887703369
 30
0.0
 40
0.123937706321232
 50
264.6902156344718833
 51
269.2479385924091844
  0
ARC
  5
1E179
  8
0
 10
4750.0770987464966311
 20
530.0386532087893556
 30
0.0
 40
0.6081584392061729
 50
245.3398765940995077
 51
246.5476989171314983
  0
ARC
  5
1E17A
  8
0
 10
4749.8898359638378679
 20
529.5199977136054486
 30
0.0
 40
0.0673944534086022
 50
215.6336324904262938
 51
222.27525469575599
  0
ARC
  5
1E17B
  8
0
 10
4750.0781714515496787
 20
530.034795529224084
 30
0.0
 40
0.6086788034819764
 50
246.9619178984598875
 51
248.2272872086209929
  0
ARC
  5
1E17C
  8
0
 10
3983.1808751947828569
 20
-429.6574151439857019
 30
0.0
 40
1227.8883235103010065
 50
51.3631195614172427
 51
51.3631485112726622
  0
ARC
  5
1E17D
  8
0
 10
4749.8527766044780947
 20
529.5958944600827181
 30
0.0
 40
0.1267435825646421
 50
265.5936703050099936
 51
270.0474277972776918
  0
ARC
  5
1E17E
  8
0
 10
4750.0772561175072042
 20
530.0255618797001489
 30
0.0
 40
0.6033523986913933
 50
245.1136943626505911
 51
247.1578969281414118
  0
ARC
  5
1E17F
  8
0
 10
4750.017535034510729
 20
529.719987605953861
 30
0.0
 40
0.3100824039342416
 50
228.855088574776687
 51
231.2279103364832054
  0
LINE
  5
1E180
  8
0
 10
4749.8430389994573488
 20
529.4695254972407383
 30
0.0
 11
4749.8430389994573488
 21
529.473366445740794
 31
0.0
  0
LINE
  5
1E181
  8
0
 10
4749.8233539601005759
 20
529.4782339967350708
 30
0.0
 11
4749.8233539601005759
 21
529.4859595589413175
 31
0.0
  0
ARC
  5
1E182
  8
0
 10
4750.0834818464563796
 20
530.053026032340199
 30
0.0
 40
0.627713437699459
 50
260.6064033381011882
 51
264.1433479955941834
  0
ARC
  5
1E183
  8
0
 10
3007.3339214488910329
 20
-2812.6553648814719963
 30
0.0
 40
3769.1481712670351953
 50
62.4607983884394571
 51
62.4608066966164373
  0
ARC
  5
1E184
  8
0
 10
4749.9690017649936635
 20
529.5891291176415052
 30
0.0
 40
0.1686606821823192
 50
284.0937157871576915
 51
287.5696877903619111
  0
ARC
  5
1E185
  8
0
 10
4750.0835110187426835
 20
530.0461577741175461
 30
0.0
 40
0.6249424558351043
 50
261.4303218507099018
 51
263.2514022242243072
  0
ARC
  5
1E186
  8
0
 10
4750.0960804123324124
 20
529.6319311934316829
 30
0.0
 40
0.2295223612242119
 50
239.7764434510399099
 51
242.5810998403966039
  0
ARC
  5
1E187
  8
0
 10
5957.8269098607115666
 20
-4280.6699822519731242
 30
0.0
 40
4959.4343824590032455
 50
104.095869218564701
 51
104.0958749911516037
  0
LINE
  5
1E188
  8
0
 10
4749.99038705807925
 20
529.4281925638869097
 30
0.0
 11
4749.99038705807925
 21
529.4322543188694681
 31
0.0
  0
LINE
  5
1E189
  8
0
 10
4750.010072097416014
 20
529.4255453363274455
 30
0.0
 11
4750.010072097416014
 21
529.4296199298561305
 31
0.0
  0
ARC
  5
1E18A
  8
0
 10
4750.0837350793563019
 20
530.0555585982400544
 30
0.0
 40
0.6302589606993577
 50
265.7207662784035733
 51
269.2156748168291074
  0
ARC
  5
1E18B
  8
0
 10
-1466.4283608089820063
 20
-13798.0199185652109009
 30
0.0
 40
15617.9577264976906008
 50
66.5445652316891909
 51
66.5445671697198833
  0
ARC
  5
1E18C
  8
0
 10
4750.0050565558340168
 20
529.5984836781117338
 30
0.0
 40
0.1871373977351365
 50
288.9246543785275776
 51
292.1430080979690729
  0
ARC
  5
1E18D
  8
0
 10
4750.0837382823538064
 20
530.0485407856084521
 30
0.0
 40
0.6273369168734679
 50
266.5571394776690113
 51
268.356854870923712
  0
ARC
  5
1E18E
  8
0
 10
4750.1283444981272623
 20
529.6130986136189449
 30
0.0
 40
0.2077505564773234
 50
243.6772407207336926
 51
246.6684841158391066
  0
ARC
  5
1E18F
  8
0
 10
4260.937217189481089
 20
1948.6721591776290552
 30
0.0
 40
1501.1578770574380997
 50
289.0149285975612088
 51
289.0149481618947789
  0
LINE
  5
1E190
  8
0
 10
4750.0657497966903975
 20
529.4214618259425151
 30
0.0
 11
4750.0657497966903975
 21
529.425556306855924
 31
0.0
  0
LINE
  5
1E191
  8
0
 10
4750.0460647573581809
 20
529.4223360964000449
 30
0.0
 11
4750.0460647573581809
 21
529.4264264146869436
 31
0.0
  0
ARC
  5
1E192
  8
0
 10
4750.010712152456108
 20
529.5917661388076567
 30
0.0
 40
0.1805326270666071
 50
287.188034762772304
 51
290.4890209913069157
  0
ARC
  5
1E193
  8
0
 10
4750.1262908577391499
 20
529.5864606803362449
 30
0.0
 40
0.1783719354216199
 50
249.5813898699447861
 51
252.9205971147289063
  0
LINE
  5
1E194
  8
0
 10
4750.0739036069553549
 20
529.4159551868407334
 30
0.0
 11
4750.0739036069553549
 21
529.4226541359407747
 31
0.0
  0
ARC
  5
1E195
  8
0
 10
4750.0425979882165848
 20
529.5608545614090872
 30
0.0
 40
0.1514012143894986
 50
278.1498796686570927
 51
281.9332835347162813
  0
ARC
  5
1E196
  8
0
 10
4750.0943298461043014
 20
529.5567638845307101
 30
0.0
 40
0.1488906893161991
 50
258.2702815974383839
 51
262.114752854491428
  0
LINE
  5
1E197
  8
0
 10
4750.0739036069553549
 20
529.4092809835407252
 30
0.0
 11
4750.0739036069553549
 21
529.4127252734407421
 31
0.0
  0
ARC
  5
1E198
  8
0
 10
4750.0837371005682144
 20
530.0398026281120565
 30
0.0
 40
0.622840711765575
 50
266.5323645514828854
 51
268.3450986994504888
  0
ARC
  5
1E199
  8
0
 10
4750.1204573991299185
 20
529.5787529346290512
 30
0.0
 40
0.1705440141493147
 50
251.2897224181110118
 51
254.7476726186465044
  0
ARC
  5
1E19A
  8
0
 10
4750.0383509285293258
 20
529.5652194825246397
 30
0.0
 40
0.1555279923877959
 50
280.1465655885126012
 51
283.854160905942706
  0
ARC
  5
1E19B
  8
0
 10
4750.083737974637188
 20
530.025798591524449
 30
0.0
 40
0.6139382752186523
 50
266.4819374083837147
 51
268.3210133010338154
  0
ARC
  5
1E19C
  8
0
 10
4750.0901490480400753
 20
529.5767660982767211
 30
0.0
 40
0.1695791845460366
 50
251.4577591995036983
 51
254.9321412937540003
  0
ARC
  5
1E19D
  8
0
 10
4750.0080724953213576
 20
529.5711370465761547
 30
0.0
 40
0.1576802386190364
 50
280.2838118586341807
 51
283.942320586083099
  0
LINE
  5
1E19E
  8
0
 10
4750.065749796684031
 20
529.4121238965658449
 30
0.0
 11
4750.065749796684031
 21
529.4172217023651683
 31
0.0
  0
LINE
  5
1E19F
  8
0
 10
4750.046064757356362
 20
529.4130172810406521
 30
0.0
 11
4750.046064757356362
 21
529.4181022607407385
 31
0.0
  0
ARC
  5
1E1A0
  8
0
 10
4750.0593237002767637
 20
529.5503940298789303
 30
0.0
 40
0.1418580253141777
 50
260.6276885272283721
 51
264.5243561341802092
  0
ARC
  5
1E1A1
  8
0
 10
4750.0353425434022938
 20
529.547274022006377
 30
0.0
 40
0.1368471785628654
 50
270.3683168209993823
 51
274.493829723479223
  0
ARC
  5
1E1A2
  8
0
 10
4750.0837365306188076
 20
530.0167195371134312
 30
0.0
 40
0.6070420387362652
 50
266.4420562245737756
 51
268.3020701534088062
  0
ARC
  5
1E1A3
  8
0
 10
4750.0900415830783459
 20
529.5514822477142616
 30
0.0
 40
0.1436076513627657
 50
260.2613745444671736
 51
264.2253406754174989
  0
ARC
  5
1E1A4
  8
0
 10
4750.0656097280170798
 20
529.5432473525557953
 30
0.0
 40
0.1350135418717104
 50
270.0594410674992787
 51
274.2401865082662198
  0
ARC
  5
1E1A5
  8
0
 10
4750.0837365549668903
 20
530.0021446891421419
 30
0.0
 40
0.5941831104286305
 50
268.0947065484359086
 51
268.2653111913016915
  0
ARC
  5
1E1A6
  8
0
 10
4750.0836661792318409
 20
530.0038792172515514
 30
0.0
 40
0.595763893100212
 50
263.6937561655121272
 51
265.5952924094409013
  0
LINE
  5
1E1A7
  8
0
 10
4750.0379109470595722
 20
529.409874945338629
 30
0.0
 11
4750.0379109470595722
 21
529.4097453538589662
 31
0.0
  0
LINE
  5
1E1A8
  8
0
 10
4750.0182259076646005
 20
529.4117202967081539
 30
0.0
 11
4750.0182259076646005
 21
529.4116159184450225
 31
0.0
  0
ARC
  5
1E1A9
  8
0
 10
4750.0017697039384075
 20
529.5562218303233522
 30
0.0
 40
0.1410427191966159
 50
272.6876622353303787
 51
276.7002641092036015
  0
ARC
  5
1E1AA
  8
0
 10
4750.0836710122530349
 20
530.0274404078968473
 30
0.0
 40
0.614791261501122
 50
263.8892324284342976
 51
265.7314202063162156
  0
ARC
  5
1E1AB
  8
0
 10
4750.0846913356153891
 20
529.5698123897778942
 30
0.0
 40
0.1623439419203713
 50
253.2524065950343015
 51
256.8483939589233955
  0
ARC
  5
1E1AC
  8
0
 10
4750.0317145486260415
 20
529.5503810667663629
 30
0.0
 40
0.1395791404837438
 50
272.5443930511922872
 51
276.5983840467879986
  0
ARC
  5
1E1AD
  8
0
 10
4750.0836699902338296
 20
530.013141555441166
 30
0.0
 40
0.6039380471970625
 50
263.7790852418826262
 51
265.654661794450476
  0
ARC
  5
1E1AE
  8
0
 10
4750.0537361246542787
 20
529.5686230562311039
 30
0.0
 40
0.1598572055456762
 50
253.5183767378557036
 51
257.1654134361584738
  0
LINE
  5
1E1AF
  8
0
 10
4750.0379109470559342
 20
529.4109395338407467
 30
0.0
 11
4750.0379109470559342
 21
529.4143545153407331
 31
0.0
  0
LINE
  5
1E1B0
  8
0
 10
4750.0182259077109848
 20
529.4127598127848842
 30
0.0
 11
4750.0182259077109848
 21
529.4161424171346653
 31
0.0
  0
LINE
  5
1E1B1
  8
0
 10
4750.0657497967558811
 20
529.4082338833406993
 30
0.0
 11
4750.0657497967558811
 21
529.4099440315065976
 31
0.0
  0
LINE
  5
1E1B2
  8
0
 10
4750.0460647573154347
 20
529.4091654565268072
 30
0.0
 11
4750.0460647573154347
 21
529.4108475421433013
 31
0.0
  0
ARC
  5
1E1B3
  8
0
 10
4749.9737745041766175
 20
529.5831790817048841
 30
0.0
 40
0.1633421012932534
 50
282.2325332633740231
 51
285.7914610026351738
  0
ARC
  5
1E1B4
  8
0
 10
4750.0836740885961262
 20
530.0501072738786661
 30
0.0
 40
0.6275278272846041
 50
264.0134347180992904
 51
265.8179312170429966
  0
ARC
  5
1E1B5
  8
0
 10
4750.1207569177131518
 20
529.6035596485148744
 30
0.0
 40
0.1975228721934847
 50
245.2017285149194095
 51
248.3093626343689948
  0
ARC
  5
1E1B6
  8
0
 10
4750.0034380125425741
 20
529.5768501471549143
 30
0.0
 40
0.1629683459946338
 50
282.2121156674267013
 51
285.778952499730508
  0
ARC
  5
1E1B7
  8
0
 10
4750.0836765540580018
 20
530.036375427578264
 30
0.0
 40
0.6204959031890241
 50
263.9451093123284977
 51
265.7702228127735111
  0
ARC
  5
1E1B8
  8
0
 10
4750.0902391048666686
 20
529.6015448575290065
 30
0.0
 40
0.1959186437109179
 50
245.3039378822564061
 51
248.4343638086104136
  0
LINE
  5
1E1B9
  8
0
 10
4750.0379109470559342
 20
529.4175695815407607
 30
0.0
 11
4750.0379109470559342
 21
529.4242503342406962
 31
0.0
  0
LINE
  5
1E1BA
  8
0
 10
4750.0182259076900664
 20
529.4193410858854349
 30
0.0
 11
4750.0182259076900664
 21
529.4260017462371479
 31
0.0
  0
ARC
  5
1E1BB
  8
0
 10
4750.0835023558338435
 20
530.0373877094289128
 30
0.0
 40
0.6204137646914606
 50
261.3681010278335179
 51
263.2027151248111068
  0
ARC
  5
1E1BC
  8
0
 10
4750.0832207954927071
 20
529.5928797501479721
 30
0.0
 40
0.1864897200647574
 50
246.9060592074550016
 51
250.155898748757096
  0
ARC
  5
1E1BD
  8
0
 10
4749.9979740184162438
 20
529.5604717777977157
 30
0.0
 40
0.1446812417659416
 50
274.796608038230886
 51
278.7224337336107851
  0
ARC
  5
1E1BE
  8
0
 10
4750.083500647888286
 20
530.0233633774054169
 30
0.0
 40
0.611490842773562
 50
261.241322470744592
 51
263.1032114711990744
  0
ARC
  5
1E1BF
  8
0
 10
4750.0521524226533074
 20
529.5921674538918751
 30
0.0
 40
0.1838497461729119
 50
247.0771471064824993
 51
250.3693377846639976
  0
ARC
  5
1E1C0
  8
0
 10
4749.9685208351911569
 20
529.5665677979758357
 30
0.0
 40
0.1442335373146583
 50
274.7818827309134235
 51
278.7198285260200805
  0
LINE
  5
1E1C1
  8
0
 10
4750.0100720974551223
 20
529.4162972370407942
 30
0.0
 11
4750.0100720974551223
 21
529.4213347599406916
 31
0.0
  0
LINE
  5
1E1C2
  8
0
 10
4749.9903870580037619
 20
529.4190034596621217
 30
0.0
 11
4749.9903870580037619
 21
529.4240013868486585
 31
0.0
  0
ARC
  5
1E1C3
  8
0
 10
4749.9931492590767448
 20
529.5476314844987655
 30
0.0
 40
0.130758179769713
 50
264.4682581695955719
 51
268.7895653338939042
  0
ARC
  5
1E1C4
  8
0
 10
4750.0834894169456675
 20
530.0142439383408828
 30
0.0
 40
0.6045534413523854
 50
261.1410875687989801
 51
263.0247502611882737
  0
ARC
  5
1E1C5
  8
0
 10
4750.0486755738193096
 20
529.5625622966617811
 30
0.0
 40
0.1533362092681963
 50
255.4184884281187067
 51
259.1891141964484859
  0
ARC
  5
1E1C6
  8
0
 10
4750.0228976481330392
 20
529.5420290020682614
 30
0.0
 40
0.1301156461570389
 50
264.9110390825532022
 51
268.686321969409903
  0
ARC
  5
1E1C7
  8
0
 10
4750.0172247895043256
 20
529.5626800368163458
 30
0.0
 40
0.1497592648052167
 50
255.822415726037093
 51
258.7802668444589926
  0
LINE
  5
1E1C8
  8
0
 10
4750.0100720974596697
 20
529.4125867890182917
 30
0.0
 11
4750.0100720974596697
 21
529.4141649763164423
 31
0.0
  0
LINE
  5
1E1C9
  8
0
 10
4749.9903870580355942
 20
529.4154086106279919
 30
0.0
 11
4749.9903870580355942
 21
529.4169024830439412
 31
0.0
  0
ARC
  5
1E1CA
  8
0
 10
4750.0831541228326387
 20
530.0238080211418037
 30
0.0
 40
0.6111212176548336
 50
258.617853909032192
 51
260.4946024003933189
  0
ARC
  5
1E1CB
  8
0
 10
4750.0458821966976757
 20
529.5850053721732138
 30
0.0
 40
0.1758509211086622
 50
248.7801014554484027
 51
252.1830162907396016
  0
ARC
  5
1E1CC
  8
0
 10
4749.989801549861113
 20
529.5499828345888318
 30
0.0
 40
0.1324138824705708
 50
266.7233932696609031
 51
270.9841073360183259
  0
ARC
  5
1E1CD
  8
0
 10
4750.0831324679984391
 20
530.0094260618325279
 30
0.0
 40
0.6001827260288783
 50
258.4096707383424132
 51
260.321809076398722
  0
ARC
  5
1E1CE
  8
0
 10
4750.0139716098237841
 20
529.5848473908978349
 30
0.0
 40
0.171268099644161
 50
249.0397977824106874
 51
252.5273264792438965
  0
ARC
  5
1E1CF
  8
0
 10
4749.9604062821308617
 20
529.557374946272148
 30
0.0
 40
0.1326863394784977
 50
266.6729087292728195
 51
270.9249532687650799
  0
LINE
  5
1E1D0
  8
0
 10
4749.9822332477915552
 20
529.4177854174939739
 30
0.0
 11
4749.9822332477915552
 21
529.4210774680267377
 31
0.0
  0
LINE
  5
1E1D1
  8
0
 10
4749.9625482083501993
 20
529.4214815568006998
 30
0.0
 11
4749.9625482083501993
 21
529.4247058962420169
 31
0.0
  0
ARC
  5
1E1D2
  8
0
 10
4750.0831779928239484
 20
530.0465467769793122
 30
0.0
 40
0.6239319347237892
 50
258.8523464900104045
 51
260.6893024009738724
  0
ARC
  5
1E1D3
  8
0
 10
4750.0880871169238162
 20
529.6235118161301898
 30
0.0
 40
0.2198396406380965
 50
241.2162629079184057
 51
244.1043454486413964
  0
ARC
  5
1E1D4
  8
0
 10
4749.9645081062208192
 20
529.5720401427246316
 30
0.0
 40
0.1488688355805692
 50
276.8381726973399282
 51
280.6716779975038776
  0
ARC
  5
1E1D5
  8
0
 10
4750.0831626451472403
 20
530.032716816959919
 30
0.0
 40
0.6168002791895431
 50
258.7232264063114826
 51
260.5821194253147155
  0
ARC
  5
1E1D6
  8
0
 10
4750.0560501541931444
 20
529.6215136937853458
 30
0.0
 40
0.215077024080245
 50
241.2819506608668974
 51
244.2314383751391915
  0
ARC
  5
1E1D7
  8
0
 10
4749.9354401803657311
 20
529.5797275439726945
 30
0.0
 40
0.1478468813245757
 50
276.7062837151398185
 51
280.5650681560105113
  0
LINE
  5
1E1D8
  8
0
 10
4749.9822332477915552
 20
529.4242303001334449
 30
0.0
 11
4749.9822332477915552
 21
529.4308348170211502
 31
0.0
  0
LINE
  5
1E1D9
  8
0
 10
4749.9625482084229589
 20
529.4278244777768805
 30
0.0
 11
4749.9625482084229589
 21
529.4343870639274883
 31
0.0
  0
ARC
  5
1E1DA
  8
0
 10
4750.0826150004677402
 20
530.0326152498023475
 30
0.0
 40
0.6155580610013459
 50
256.0969954787703955
 51
257.9772670123571743
  0
ARC
  5
1E1DB
  8
0
 10
4750.0476695435390866
 20
529.6119595200932508
 30
0.0
 40
0.203976085505434
 50
242.7879667953149863
 51
245.8559960238721942
  0
ARC
  5
1E1DC
  8
0
 10
4749.9570325167924238
 20
529.5606659683739963
 30
0.0
 40
0.1350310954123902
 50
268.8805342892185877
 51
273.0583907956986991
  0
ARC
  5
1E1DD
  8
0
 10
4750.08257823191434
 20
530.0184693297337617
 30
0.0
 40
0.6065090524459582
 50
255.8888799272000938
 51
257.7987018106782102
  0
ARC
  5
1E1DE
  8
0
 10
4750.015886280644736
 20
529.6130195029161314
 30
0.0
 40
0.1999751198701405
 50
242.9251676704066085
 51
246.0502608972653036
  0
ARC
  5
1E1DF
  8
0
 10
4749.9280006462122401
 20
529.5687538647512156
 30
0.0
 40
0.1338314681640335
 50
268.6582353077477023
 51
272.8733307831515731
  0
LINE
  5
1E1E0
  8
0
 10
4749.9543943981561824
 20
529.4256606460406829
 30
0.0
 11
4749.9543943981561824
 21
529.4305594354407276
 31
0.0
  0
LINE
  5
1E1E1
  8
0
 10
4749.9347093587666677
 20
529.4302618603409201
 30
0.0
 11
4749.9347093587666677
 21
529.435090649792528
 31
0.0
  0
ARC
  5
1E1E2
  8
0
 10
4749.9512584957810759
 20
529.5542135988096106
 30
0.0
 40
0.1270017821685168
 50
258.0062257178033747
 51
262.5127052890160826
  0
ARC
  5
1E1E3
  8
0
 10
4750.0825552918076937
 20
530.0093528574602715
 30
0.0
 40
0.5995723866631946
 50
255.7244412497632879
 51
257.6575725102526917
  0
ARC
  5
1E1E4
  8
0
 10
4750.0084516138149411
 20
529.5794759526263533
 30
0.0
 40
0.1649473659452476
 50
250.8693084709923937
 51
254.4515366513782908
  0
ARC
  5
1E1E5
  8
0
 10
4749.9805661997070274
 20
529.5468133312507462
 30
0.0
 40
0.1272999969768376
 50
259.7490139875018258
 51
262.6301342846120974
  0
ARC
  5
1E1E6
  8
0
 10
4749.9758454881566649
 20
529.5802379370326207
 30
0.0
 40
0.1586663025967489
 50
251.2587563854970085
 51
253.7327367816808987
  0
LINE
  5
1E1E7
  8
0
 10
4749.9347093587239215
 20
529.4270557267195727
 30
0.0
 11
4749.9347093587239215
 21
529.4282946616490335
 31
0.0
  0
LINE
  5
1E1E8
  8
0
 10
4749.9543943981561824
 20
529.4223165144890118
 30
0.0
 11
4749.9543943981561824
 21
529.423638052975889
 31
0.0
  0
ARC
  5
1E1E9
  8
0
 10
4749.9190590584221354
 20
529.5649336256789184
 30
0.0
 40
0.126842401245755
 50
259.9976528450570186
 51
264.4858213936332163
  0
ARC
  5
1E1EA
  8
0
 10
4750.0817451207967679
 20
530.0178422728745318
 30
0.0
 40
0.6049893883723954
 50
253.1986702398903901
 51
255.1365549350468882
  0
ARC
  5
1E1EB
  8
0
 10
4750.0082809637360697
 20
529.6046994429142387
 30
0.0
 40
0.1900705922401975
 50
244.5340890524277881
 51
247.7783559017669859
  0
ARC
  5
1E1EC
  8
0
 10
4749.9480072241558446
 20
529.5558975156237693
 30
0.0
 40
0.1276805686139694
 50
260.3278347932138104
 51
264.7832660798511029
  0
ARC
  5
1E1ED
  8
0
 10
4750.0816602317072466
 20
530.0033186197777013
 30
0.0
 40
0.5938982454154785
 50
252.883880866122098
 51
254.8608748098469903
  0
ARC
  5
1E1EE
  8
0
 10
4749.9758389175867705
 20
529.6071920576839602
 30
0.0
 40
0.1848186791041671
 50
244.7592345935744049
 51
248.0888735451426896
  0
LINE
  5
1E1EF
  8
0
 10
4749.9265555484889774
 20
529.4300318999748924
 30
0.0
 11
4749.9265555484889774
 21
529.4330958691252818
 31
0.0
  0
LINE
  5
1E1F0
  8
0
 10
4749.9068705090421645
 20
529.4357239767808778
 30
0.0
 11
4749.9068705090421645
 21
529.4386781940449964
 31
0.0
  0
ARC
  5
1E1F1
  8
0
 10
4749.9393984138350788
 20
529.5583106737292383
 30
0.0
 40
0.1273671724073049
 50
252.9881305409755043
 51
255.9878122576112105
  0
ARC
  5
1E1F2
  8
0
 10
4749.96872783017443
 20
529.5996136754416739
 30
0.0
 40
0.175515710032057
 50
246.4913121925013968
 51
249.9518080498407073
  0
ARC
  5
1E1F3
  8
0
 10
4750.0804760107712355
 20
530.0022037537909227
 30
0.0
 40
0.5921245042363915
 50
250.1105704587922105
 51
252.1238001570540064
  0
ARC
  5
1E1F4
  8
0
 10
4749.910529255336769
 20
529.5677790762550785
 30
0.0
 40
0.1263684951059829
 50
250.9047586835334869
 51
255.566748170329987
  0
ARC
  5
1E1F5
  8
0
 10
4749.9366910879007264
 20
529.606327668541212
 30
0.0
 40
0.1717820553499338
 50
246.8617492533630013
 51
249.0461694272819102
  0
LINE
  5
1E1F6
  8
0
 10
4749.8790316594559044
 20
529.4445146028407407
 30
0.0
 11
4749.8790316594559044
 21
529.445398938940798
 31
0.0
  0
ARC
  5
1E1F7
  8
0
 10
4750.0802344065868965
 20
529.9870454538504418
 30
0.0
 40
0.5786382892190496
 50
249.6522201146823079
 51
250.6806645259572974
  0
LINE
  5
1E1F8
  8
0
 10
4749.8987166987562887
 20
529.4376152112406544
 30
0.0
 11
4749.8987166987562887
 21
529.4386658393407288
 31
0.0
  0
ARC
  5
1E1F9
  8
0
 10
4749.9330002281985799
 20
529.5966511711477551
 30
0.0
 40
0.1614253444427784
 50
249.8668176246899009
 51
250.4684879827171926
  0
ARC
  5
1E1FA
  8
0
 10
4749.8959265421326563
 20
529.5828074446951632
 30
0.0
 40
0.1351950430458566
 50
270.4667994963446063
 51
274.6431433089637721
  0
ARC
  5
1E1FB
  8
0
 10
4750.0818254279329267
 20
530.0406937708884243
 30
0.0
 40
0.6179228525866327
 50
253.5526638171527907
 51
255.4469011131288028
  0
ARC
  5
1E1FC
  8
0
 10
4750.0570103981008288
 20
529.6467163098634501
 30
0.0
 40
0.2422461931779142
 50
237.4169338239460103
 51
240.1393968866734951
  0
ARC
  5
1E1FD
  8
0
 10
4749.9245932673429706
 20
529.5725718195102445
 30
0.0
 40
0.1364525186753609
 50
270.8239811375094064
 51
274.9629850537248217
  0
ARC
  5
1E1FE
  8
0
 10
4750.0817756243577605
 20
530.0267934532378149
 30
0.0
 40
0.6107147921993871
 50
253.357801132208607
 51
255.2761050625323094
  0
ARC
  5
1E1FF
  8
0
 10
4750.0240315764003753
 20
529.6463658528113001
 30
0.0
 40
0.2358623791877179
 50
237.4208083693578999
 51
240.2157854451444905
  0
LINE
  5
1E200
  8
0
 10
4749.9068705091140146
 20
529.4416603418237628
 30
0.0
 11
4749.9068705091140146
 21
529.4480560838234169
 31
0.0
  0
LINE
  5
1E201
  8
0
 10
4749.9265555484907964
 20
529.4361334109479458
 30
0.0
 11
4749.9265555484907964
 21
529.4425968587519264
 31
0.0
  0
ARC
  5
1E202
  8
0
 10
4749.8872808333253488
 20
529.5778053154215286
 30
0.0
 40
0.1263602679813689
 50
261.7683597507676723
 51
266.2568992318841765
  0
ARC
  5
1E203
  8
0
 10
4750.0806396871648758
 20
530.0256296444827058
 30
0.0
 40
0.6082962065012929
 50
250.6443648036413947
 51
252.5982618637872008
  0
ARC
  5
1E204
  8
0
 10
4750.0149516732853954
 20
529.6374881298528408
 30
0.0
 40
0.2247112444915412
 50
238.8511143451138992
 51
241.7406782833382124
  0
ARC
  5
1E205
  8
0
 10
4749.9158665996792479
 20
529.5671844077672858
 30
0.0
 40
0.1278340519987767
 50
262.2900931205472261
 51
266.7230135723845024
  0
ARC
  5
1E206
  8
0
 10
4750.0805313673181445
 20
530.0113561112940488
 30
0.0
 40
0.5991047101347303
 50
250.3462786915555114
 51
252.333423071485214
  0
ARC
  5
1E207
  8
0
 10
4749.9815268605862002
 20
529.6389755189861717
 30
0.0
 40
0.2174876159042146
 50
238.9005788261945042
 51
241.8832894429494047
  0
LINE
  5
1E208
  8
0
 10
4749.8790316594813703
 20
529.4471537349719483
 30
0.0
 11
4749.8790316594813703
 21
529.4517146002317531
 31
0.0
  0
LINE
  5
1E209
  8
0
 10
4749.8987166987562887
 20
529.4405059733406915
 30
0.0
 11
4749.8987166987562887
 21
529.4451743911406538
 31
0.0
  0
ARC
  5
1E20A
  8
0
 10
4749.8559083888540044
 20
529.5926690046858312
 30
0.0
 40
0.1253120100571448
 50
263.3286091916418172
 51
267.8434103233374231
  0
ARC
  5
1E20B
  8
0
 10
4750.0791900353024175
 20
530.0327399270594242
 30
0.0
 40
0.6095410076099812
 50
248.0345517826561093
 51
250.0163158480698087
  0
ARC
  5
1E20C
  8
0
 10
4750.0271314825358786
 20
529.6727104861331554
 30
0.0
 40
0.2640146921483263
 50
233.7125321274220084
 51
236.3198139078650968
  0
ARC
  5
1E20D
  8
0
 10
4749.8841244507129886
 20
529.5805822240075713
 30
0.0
 40
0.1276159030902432
 50
264.0419341958883024
 51
268.4714862641174022
  0
ARC
  5
1E20E
  8
0
 10
4750.0790735636574027
 20
530.0187503375616416
 30
0.0
 40
0.6022270516434861
 50
247.765591572390008
 51
249.774877405777687
  0
ARC
  5
1E20F
  8
0
 10
4749.9951083283112894
 20
529.6769786096250527
 30
0.0
 40
0.259283130237145
 50
233.6289501505144983
 51
236.2857304739819995
  0
LINE
  5
1E210
  8
0
 10
4749.8511928097932469
 20
529.4613027761266721
 30
0.0
 11
4749.8511928097932469
 21
529.4674457513257266
 31
0.0
  0
LINE
  5
1E211
  8
0
 10
4749.8708778491563862
 20
529.4536556851408022
 30
0.0
 11
4749.8708778491563862
 21
529.459899396840683
 31
0.0
  0
ARC
  5
1E212
  8
0
 10
4750.0789999738472034
 20
530.0097466425186212
 30
0.0
 40
0.5964380317218475
 50
247.5457208903634125
 51
249.577399123994212
  0
ARC
  5
1E213
  8
0
 10
4749.972421857871268
 20
529.6297318678384727
 30
0.0
 40
0.2057388873595447
 50
240.4253127297195078
 51
243.5307259440394034
  0
ARC
  5
1E214
  8
0
 10
4749.9070552762550506
 20
529.5683682096622533
 30
0.0
 40
0.1256002265044585
 50
253.2595701408579885
 51
257.8968422047275908
  0
ARC
  5
1E215
  8
0
 10
4750.0788049014399803
 20
529.9950829145026319
 30
0.0
 40
0.5851784595580377
 50
247.1100823900358137
 51
249.1867912403934042
  0
ARC
  5
1E216
  8
0
 10
4749.9397184835379448
 20
529.6355429366220733
 30
0.0
 40
0.2001945273930092
 50
240.5697897199490001
 51
243.7557762200536047
  0
ARC
  5
1E217
  8
0
 10
4749.8786460744058786
 20
529.5798841241143009
 30
0.0
 40
0.1244228322922739
 50
252.5573923733425943
 51
257.2530855179040827
  0
ARC
  5
1E218
  8
0
 10
4750.0771401736756161
 20
530.0166498987705381
 30
0.0
 40
0.5986552290442
 50
244.9172247189387974
 51
246.9804578316218908
  0
ARC
  5
1E219
  8
0
 10
4750.0063938683751985
 20
529.7004429332413338
 30
0.0
 40
0.2860168641661098
 50
235.1704362007534996
 51
237.539003264858394
  0
ARC
  5
1E21A
  8
0
 10
4749.8752914757333201
 20
529.5809173131447096
 30
0.0
 40
0.1238475337176438
 50
254.9049664471120025
 51
259.5749476337755937
  0
ARC
  5
1E21B
  8
0
 10
4750.0768154099805543
 20
530.0020318964558328
 30
0.0
 40
0.5890634692932168
 50
244.5147530639360127
 51
246.6178996276915996
  0
ARC
  5
1E21C
  8
0
 10
4750.6903919903588758
 20
530.782508827145648
 30
0.0
 40
1.572794369620006
 50
236.1148255274501935
 51
236.5456554340628088
  0
ARC
  5
1E21D
  8
0
 10
4749.8472303516646207
 20
529.5940850150708457
 30
0.0
 40
0.121994259007921
 50
253.9546851717576885
 51
258.7133685073133051
  0
LINE
  5
1E21E
  8
0
 10
4749.8233539601751545
 20
529.4702865962245824
 30
0.0
 11
4749.8233539601751545
 21
529.4744500821915381
 31
0.0
  0
LINE
  5
1E21F
  8
0
 10
4749.8430389994891812
 20
529.4613431128169623
 30
0.0
 11
4749.8430389994891812
 21
529.4656646689188619
 31
0.0
  0
LINE
  5
1E220
  8
0
 10
4749.8708778491836711
 20
529.4480909853358526
 30
0.0
 11
4749.8708778491836711
 21
529.4507980698250549
 31
0.0
  0
LINE
  5
1E221
  8
0
 10
4749.8511928097441341
 20
529.4559849964545037
 30
0.0
 11
4749.8511928097441341
 21
529.4585277915457482
 31
0.0
  0
LINE
  5
1E222
  8
0
 10
4749.8781242573559211
 20
529.5066068736747411
 30
0.0
 11
4749.8781242573559211
 21
529.4864605685407923
 31
0.0
  0
LINE
  5
1E223
  8
0
 10
4749.8781242573559211
 20
529.4864605685407923
 30
0.0
 11
4749.8439464015573321
 21
529.4864605685407923
 31
0.0
  0
LINE
  5
1E224
  8
0
 10
4749.8439464015573321
 20
529.4864605685407923
 30
0.0
 11
4749.8439464015573321
 21
529.4976568786407825
 31
0.0
  0
LINE
  5
1E225
  8
0
 10
4749.899624100856272
 20
529.4996133851299192
 30
0.0
 11
4749.899624100856272
 21
529.4864605685407923
 31
0.0
  0
LINE
  5
1E226
  8
0
 10
4749.899624100856272
 20
529.4864605685407923
 30
0.0
 11
4749.93380195665668
 21
529.4864605685407923
 31
0.0
  0
LINE
  5
1E227
  8
0
 10
4749.93380195665668
 20
529.4864605685407923
 30
0.0
 11
4749.93380195665668
 21
529.4902128054136483
 31
0.0
  0
ARC
  5
1E228
  8
0
 10
4750.074024538546837
 20
529.0753518910471485
 30
0.0
 40
0.4809131435795627
 50
118.5822158195119016
 51
120.8446297698291971
  0
ARC
  5
1E229
  8
0
 10
4750.7901314544433262
 20
528.705012400402552
 30
0.0
 40
1.234322252569418
 50
139.5252112033967933
 51
140.0461927881860902
  0
ARC
  5
1E22A
  8
0
 10
4750.0763943002821179
 20
529.0756660141787506
 30
0.0
 40
0.4859001020566996
 50
116.0746480737991959
 51
117.6114302790901007
  0
LINE
  5
1E22B
  8
0
 10
4749.8708778491563862
 20
529.5091581691775673
 30
0.0
 11
4749.8708778491563862
 21
529.4864605685407923
 31
0.0
  0
LINE
  5
1E22C
  8
0
 10
4749.8511928097559576
 20
529.5062275055406644
 30
0.0
 11
4749.8511928097559576
 21
529.4864605685407923
 31
0.0
  0
LINE
  5
1E22D
  8
0
 10
4749.9068705090567164
 20
529.4974466850040926
 30
0.0
 11
4749.9068705090567164
 21
529.4864605685407923
 31
0.0
  0
LINE
  5
1E22E
  8
0
 10
4749.9265555484562356
 20
529.4920338779901385
 30
0.0
 11
4749.9265555484562356
 21
529.4864605685407923
 31
0.0
  0
ARC
  5
1E22F
  8
0
 10
4749.8849460499695851
 20
529.5034698194890552
 30
0.0
 40
0.0594730896371733
 50
192.7929616719310957
 51
194.8324993117155088
  0
ARC
  5
1E230
  8
0
 10
4750.0741781672059005
 20
529.0774403298795505
 30
0.0
 40
0.4812232978912089
 50
118.7060313998795067
 51
120.9139968377013048
  0
ARC
  5
1E231
  8
0
 10
4750.7900318367674117
 20
528.7080424556817206
 30
0.0
 40
1.234192377129351
 50
139.4045270488921915
 51
140.1118312027894035
  0
ARC
  5
1E232
  8
0
 10
4749.8088146939971921
 20
529.174507317646885
 30
0.0
 40
0.3395136239851519
 50
82.5423125129627948
 51
84.2145341518006205
  0
ARC
  5
1E233
  8
0
 10
4750.0739248600666542
 20
529.0906563845321671
 30
0.0
 40
0.4807124983526792
 50
118.7049494375604013
 51
121.134683494180095
  0
ARC
  5
1E234
  8
0
 10
4750.074182505236422
 20
530.0535730681091309
 30
0.0
 40
0.6049814602080045
 50
245.5055345617826106
 51
245.7153534059700064
  0
ARC
  5
1E235
  8
0
 10
4749.8018756878573186
 20
529.6366697038414486
 30
0.0
 40
0.1353456475007925
 50
274.931843052532372
 51
279.1309837207039095
  0
ARC
  5
1E236
  8
0
 10
4750.0942081015136864
 20
529.7711935977318944
 30
0.0
 40
0.3890372422806629
 50
223.8201994708223026
 51
225.8757652215792859
  0
ARC
  5
1E237
  8
0
 10
4750.0767576429516339
 20
530.0462610753810395
 30
0.0
 40
0.6095047790977605
 50
245.4332295155869019
 51
245.8042967483056032
  0
LINE
  5
1E238
  8
0
 10
4749.8233539601560551
 20
529.491930263240647
 30
0.0
 11
4749.8233539601560551
 21
529.5030391380294077
 31
0.0
  0
LINE
  5
1E239
  8
0
 10
4749.8430389994573488
 20
529.4995191703407045
 30
0.0
 11
4749.8430389994573488
 21
529.5122915650407549
 31
0.0
  0
ARC
  5
1E23A
  8
0
 10
4749.9098279063418886
 20
529.5061667102805814
 30
0.0
 40
0.0845528853342777
 50
177.2596815519239897
 51
182.7403198289343038
  0
ARC
  5
1E23B
  8
0
 10
4750.0740072717353542
 20
529.0985972526052592
 30
0.0
 40
0.480878341672612
 50
118.7720486606434065
 51
121.1342188785176006
  0
ARC
  5
1E23C
  8
0
 10
4750.7910584577748523
 20
528.7250910693622927
 30
0.0
 40
1.235532828871299
 50
140.0005232480029917
 51
140.233964040828198
  0
ARC
  5
1E23D
  8
0
 10
4749.8091522384356722
 20
529.1804259232902723
 30
0.0
 40
0.3365227356269884
 50
82.8234949424991242
 51
84.5096166615638253
  0
ARC
  5
1E23E
  8
0
 10
4750.0759912782077663
 20
529.0845297817377286
 30
0.0
 40
0.4850230945725159
 50
117.279110800282794
 51
117.6118898163882989
  0
LINE
  5
1E23F
  8
0
 10
4749.8511928098268982
 20
529.5143123440290083
 30
0.0
 11
4749.8511928098268982
 21
529.5165973647109467
 31
0.0
  0
ARC
  5
1E240
  8
0
 10
4749.9496685861849983
 20
529.5019930306699507
 30
0.0
 40
0.1246646482828047
 50
168.6202996440640902
 51
169.8648285260950104
  0
ARC
  5
1E241
  8
0
 10
4750.0733107319028932
 20
529.1125471088178074
 30
0.0
 40
0.4795103465487028
 50
120.5292467754793932
 51
120.9157509943400015
  0
ARC
  5
1E242
  8
0
 10
4750.0767632853421674
 20
530.0799031759984246
 30
0.0
 40
0.6095184685035314
 50
245.4332345830339932
 51
245.8042934755656859
  0
ARC
  5
1E243
  8
0
 10
4749.7747281284373457
 20
529.6736127139737391
 30
0.0
 40
0.1558335966009281
 50
284.4110361251326822
 51
288.1820262366946963
  0
ARC
  5
1E244
  8
0
 10
4750.1865295469888224
 20
529.8303547141905483
 30
0.0
 40
0.4835336293039371
 50
219.5164517311679049
 51
221.3154172826552042
  0
ARC
  5
1E245
  8
0
 10
4750.0767375224522766
 20
530.0672931103664496
 30
0.0
 40
0.6111688268810407
 50
245.5065954597031066
 51
245.7142901301843949
  0
LINE
  5
1E246
  8
0
 10
4749.8233539601733355
 20
529.5111239766837343
 30
0.0
 11
4749.8233539601733355
 21
529.5255598912327741
 31
0.0
  0
ARC
  5
1E247
  8
0
 10
4749.7714206993250627
 20
529.6585275532731885
 30
0.0
 40
0.1335468195987141
 50
276.126175063518815
 51
280.3941783037814162
  0
ARC
  5
1E248
  8
0
 10
4750.0752094434810715
 20
530.0663681698665641
 30
0.0
 40
0.6074217203027449
 50
242.5831069769022861
 51
244.6558750129590862
  0
ARC
  5
1E249
  8
0
 10
4750.1682497676856656
 20
529.8178742812303881
 30
0.0
 40
0.4635984214071146
 50
220.3996833383654064
 51
222.2420692333541865
  0
ARC
  5
1E24A
  8
0
 10
4749.7981841255441395
 20
529.6423317208328854
 30
0.0
 40
0.1387426607332736
 50
277.0447489109802177
 51
281.162094451788505
  0
ARC
  5
1E24B
  8
0
 10
4750.0751313622640737
 20
530.053438343671246
 30
0.0
 40
0.6072460182126407
 50
242.5828069319921951
 51
244.6561747748829134
  0
ARC
  5
1E24C
  8
0
 10
4750.1382705021123911
 20
529.8217431143249314
 30
0.0
 40
0.4603706437510833
 50
220.0128665982902874
 51
221.8820681481603003
  0
LINE
  5
1E24D
  8
0
 10
4749.7955151104661127
 20
529.5143998678962589
 30
0.0
 11
4749.7955151104661127
 21
529.5271722626355313
 31
0.0
  0
LINE
  5
1E24E
  8
0
 10
4749.8152001498128811
 20
529.5046364746743848
 30
0.0
 11
4749.8152001498128811
 21
529.5174088694905095
 31
0.0
  0
ARC
  5
1E24F
  8
0
 10
4750.0750338753241522
 20
530.045021020716149
 30
0.0
 40
0.6059452517708984
 50
242.5293768382645112
 51
244.608110098595489
  0
ARC
  5
1E250
  8
0
 10
4750.0772953511759624
 20
529.7581284957033176
 30
0.0
 40
0.3695436050721646
 50
224.8268658993725069
 51
226.9523778565327063
  0
ARC
  5
1E251
  8
0
 10
4749.8218597205386686
 20
529.613618148634373
 30
0.0
 40
0.1255875081304353
 50
266.9603319125367875
 51
271.4522867616090025
  0
ARC
  5
1E252
  8
0
 10
4750.074778840741601
 20
530.0313076933706498
 30
0.0
 40
0.6019460911341854
 50
242.358695083262802
 51
244.4541996889103928
  0
ARC
  5
1E253
  8
0
 10
4750.0480659221611859
 20
529.7654559531614495
 30
0.0
 40
0.3678061807123187
 50
224.4876842616891111
 51
226.6351987431370958
  0
ARC
  5
1E254
  8
0
 10
4749.7945008156520998
 20
529.6292631244084532
 30
0.0
 40
0.1218697135100056
 50
265.8458632079588142
 51
270.4768656917099747
  0
LINE
  5
1E255
  8
0
 10
4749.7955151105443292
 20
529.4980620974561134
 30
0.0
 11
4749.7955151105443292
 21
529.5073976318284394
 31
0.0
  0
LINE
  5
1E256
  8
0
 10
4749.8152001498556274
 20
529.4882073344407445
 30
0.0
 11
4749.8152001498556274
 21
529.4976125048407312
 31
0.0
  0
ARC
  5
1E257
  8
0
 10
4750.2349235161673278
 20
529.8769944792574051
 30
0.0
 40
0.5559904883029472
 50
216.5279438918501
 51
217.7849098365811926
  0
ARC
  5
1E258
  8
0
 10
4750.0748724798586409
 20
530.0736384058461681
 30
0.0
 40
0.6055827236061897
 50
242.5287544503127037
 51
244.6087322713997878
  0
ARC
  5
1E259
  8
0
 10
4749.7698022264912652
 20
529.68146223925919
 30
0.0
 40
0.1614229084654534
 50
286.3339833034572166
 51
290.0115423737510127
  0
ARC
  5
1E25A
  8
0
 10
4750.2646978048505844
 20
529.8752155466371505
 30
0.0
 40
0.5591230549941202
 50
216.4926342901028988
 51
218.1561611482950127
  0
ARC
  5
1E25B
  8
0
 10
4750.0750830182287245
 20
530.0864021625143323
 30
0.0
 40
0.6026254710730207
 50
242.3598767909820992
 51
244.4530187265254142
  0
LINE
  5
1E25C
  8
0
 10
4749.7955151104797551
 20
529.5363397037224331
 30
0.0
 11
4749.7955151104797551
 21
529.5525489585874084
 31
0.0
  0
LINE
  5
1E25D
  8
0
 10
4749.8152001498492609
 20
529.5265545766594641
 30
0.0
 11
4749.8152001498492609
 21
529.542694195783497
 31
0.0
  0
LINE
  5
1E25E
  8
0
 10
4749.7955151104551987
 20
529.5525489586005961
 30
0.0
 11
4749.7952046266809703
 21
529.552440041604882
 31
0.0
  0
ARC
  5
1E25F
  8
0
 10
4749.7406391427666676
 20
529.7205018570929269
 30
0.0
 40
0.1862935442302085
 50
293.0272703614783154
 51
296.359542835433615
  0
ARC
  5
1E260
  8
0
 10
4750.07735075346136
 20
530.1011198911106703
 30
0.0
 40
0.6035862768604254
 50
245.114090378227786
 51
247.1575007656365983
  0
ARC
  5
1E261
  8
0
 10
4750.3179108909016577
 20
529.8901260777831794
 30
0.0
 40
0.5871161336903191
 50
216.019095151445697
 51
217.6218524948326944
  0
ARC
  5
1E262
  8
0
 10
3974.9985354471791652
 20
2084.4273920867021843
 30
0.0
 40
1737.2679127153930949
 50
296.488529113884681
 51
296.488546971430992
  0
ARC
  5
1E263
  8
0
 10
4750.0782912311133259
 20
530.0970288861153676
 30
0.0
 40
0.6089930411633935
 50
246.962244556985894
 51
248.2269609126522028
  0
ARC
  5
1E264
  8
0
 10
4749.8898358927799563
 20
529.4912690373982969
 30
0.0
 40
0.0673943623284873
 50
137.7247406547051014
 51
144.3663718045951896
  0
ARC
  5
1E265
  8
0
 10
4750.077102044961066
 20
530.0884598983063825
 30
0.0
 40
0.6081665263891419
 50
245.339884450776907
 51
246.5476907161501003
  0
ARC
  5
1E266
  8
0
 10
4750.2896327022472178
 20
529.8912813441623939
 30
0.0
 40
0.5863549259604205
 50
215.7080225989124074
 51
217.3243502129153057
  0
LINE
  5
1E267
  8
0
 10
4749.8233539601560551
 20
529.5357588640406448
 30
0.0
 11
4749.8233539601560551
 21
529.5535780912407517
 31
0.0
  0
LINE
  5
1E268
  8
0
 10
4749.8399693458950424
 20
529.5366047581444491
 30
0.0
 11
4749.8491593245043987
 21
529.5366047581444491
 31
0.0
  0
LINE
  5
1E269
  8
0
 10
4749.8430389994573488
 20
529.5366047582407418
 30
0.0
 11
4749.8430389994573488
 21
529.5448695917407349
 31
0.0
  0
ARC
  5
1E26A
  8
0
 10
4750.3877896509129641
 20
529.9429319558456655
 30
0.0
 40
0.6787433970083839
 50
213.2836630435128882
 51
213.7376631059107979
  0
ARC
  5
1E26B
  8
0
 10
4750.0770083588604393
 20
530.1078683166479095
 30
0.0
 40
0.5983318484079052
 50
244.9166669916216108
 51
246.9810153445629908
  0
ARC
  5
1E26C
  8
0
 10
4749.701745744308937
 20
529.7915884602224423
 30
0.0
 40
0.2737002764048007
 50
301.0799403998444177
 51
303.5176923760719774
  0
ARC
  5
1E26D
  8
0
 10
4750.4264363666407007
 20
529.9504447175308997
 30
0.0
 40
0.6919310039821704
 50
212.5263937651851904
 51
214.0121336694321883
  0
ARC
  5
1E26E
  8
0
 10
4750.077589307413291
 20
530.1208378410855175
 30
0.0
 40
0.5909744854078
 50
246.2079464544723066
 51
246.6162635504086893
  0
LINE
  5
1E26F
  8
0
 10
4749.8233539601123994
 20
529.5659638538361378
 30
0.0
 11
4749.8233539601123994
 21
529.5721631729135197
 31
0.0
  0
LINE
  5
1E270
  8
0
 10
4749.852396900819258
 20
529.5314811200277063
 30
0.0
 11
4749.852396900819258
 21
529.5323522952371604
 31
0.0
  0
ARC
  5
1E271
  8
0
 10
4750.3408184984491527
 20
529.9045737355180563
 30
0.0
 40
0.6115837110895035
 50
215.2461794630561087
 51
216.8138504063309995
  0
ARC
  5
1E272
  8
0
 10
4750.0791400136904485
 20
530.1032659775521552
 30
0.0
 40
0.6094012815174517
 50
248.0343244332277095
 51
250.016542931229111
  0
ARC
  5
1E273
  8
0
 10
4749.756590202321604
 20
529.7328815194703111
 30
0.0
 40
0.232373209100732
 50
299.4608005852675205
 51
302.2886230926528128
  0
ARC
  5
1E274
  8
0
 10
4750.3664124531587731
 20
529.9030732239425561
 30
0.0
 40
0.6085361415030208
 50
215.4812059814071858
 51
217.0479231051976114
  0
ARC
  5
1E275
  8
0
 10
4750.0791765488838791
 20
530.1152167633988483
 30
0.0
 40
0.6025114071680661
 50
247.766065577898388
 51
249.7744030353854896
  0
ARC
  5
1E276
  8
0
 10
4749.730558949114311
 20
529.7486015127856263
 30
0.0
 40
0.2259883801755358
 50
299.3571710489263751
 51
302.2629456809655153
  0
LINE
  5
1E277
  8
0
 10
4749.8708778491391058
 20
529.530555935094867
 30
0.0
 11
4749.8708778491391058
 21
529.5498570129281006
 31
0.0
  0
LINE
  5
1E278
  8
0
 10
4749.8511928098287171
 20
529.5381022896153809
 30
0.0
 11
4749.8511928098287171
 21
529.5575041039637654
 31
0.0
  0
LINE
  5
1E279
  8
0
 10
4749.8430389994828147
 20
529.557178440499456
 30
0.0
 11
4749.8430389994828147
 21
529.5784016739661411
 31
0.0
  0
ARC
  5
1E27A
  8
0
 10
4750.0792197235723506
 20
530.1340612786231077
 30
0.0
 40
0.5863190858236096
 50
248.2635784153657141
 51
249.1857947317236039
  0
ARC
  5
1E27B
  8
0
 10
4750.4787067089582706
 20
529.9661175595422264
 30
0.0
 40
0.716896176402755
 50
212.0201404249075949
 51
213.4743927264975127
  0
ARC
  5
1E27C
  8
0
 10
4749.7028996212538914
 20
529.7928087132387418
 30
0.0
 40
0.2845189776875345
 50
306.1849553037952205
 51
308.681255294568075
  0
ARC
  5
1E27D
  8
0
 10
4750.0789856242217866
 20
530.122081096448369
 30
0.0
 40
0.5963987710951829
 50
247.545653757223107
 51
249.5774657527157103
  0
ARC
  5
1E27E
  8
0
 10
4750.4496040816211462
 20
529.9635097863560986
 30
0.0
 40
0.7157090468387624
 50
212.1994080809861885
 51
213.268435504116411
  0
LINE
  5
1E27F
  8
0
 10
4749.851192809764143
 20
529.5708987963901109
 30
0.0
 11
4749.851192809764143
 21
529.5851693712452288
 31
0.0
  0
LINE
  5
1E280
  8
0
 10
4749.8708778491163685
 20
529.563169074696134
 30
0.0
 11
4749.8708778491163685
 21
529.5860067797896136
 31
0.0
  0
ARC
  5
1E281
  8
0
 10
4750.0806178026123234
 20
530.1286706211603814
 30
0.0
 40
0.5993748192794623
 50
250.3467265083370137
 51
252.3329752944594873
  0
ARC
  5
1E282
  8
0
 10
4750.4174094666823294
 20
529.9193041792078702
 30
0.0
 40
0.6323746976018862
 50
214.8921646934761895
 51
216.4220145395684938
  0
ARC
  5
1E283
  8
0
 10
4749.7394953907187301
 20
529.7659884271114379
 30
0.0
 40
0.2791595174329199
 50
304.775304897121373
 51
307.2732739959544119
  0
ARC
  5
1E284
  8
0
 10
4750.0806231010401461
 20
530.1170934943604607
 30
0.0
 40
0.608243609226383
 50
250.6442803147685083
 51
252.5983463526603998
  0
ARC
  5
1E285
  8
0
 10
4750.3920824184770026
 20
529.9194363051833534
 30
0.0
 40
0.6362023973875762
 50
214.7247868580454053
 51
216.2517105830463038
  0
ARC
  5
1E286
  8
0
 10
4749.7129201850020763
 20
529.7816097969842986
 30
0.0
 40
0.2735958614022593
 50
304.8316513474402996
 51
307.3831197284927725
  0
LINE
  5
1E287
  8
0
 10
4749.8790316594559044
 20
529.5432283718406552
 30
0.0
 11
4749.8790316594559044
 21
529.5642122959724247
 31
0.0
  0
LINE
  5
1E288
  8
0
 10
4749.8987166987562887
 20
529.5366881627406883
 30
0.0
 11
4749.8987166987562887
 21
529.5575645343407132
 31
0.0
  0
LINE
  5
1E289
  8
0
 10
4749.8696737580694389
 20
529.5248816188086494
 30
0.0
 11
4749.8691891397611471
 21
529.5254919675262499
 31
0.0
  0
ARC
  5
1E28A
  8
0
 10
4749.7646314944568076
 20
529.7226196413380421
 30
0.0
 40
0.2231403615969642
 50
297.9417347757001266
 51
300.8426774500998135
  0
ARC
  5
1E28B
  8
0
 10
4750.0807505344846504
 20
530.1099854223282364
 30
0.0
 40
0.6130846038275087
 50
250.7905196909240999
 51
252.7276128224636977
  0
ARC
  5
1E28C
  8
0
 10
4750.3135563107553025
 20
529.8555780054396109
 30
0.0
 40
0.5307282267982193
 50
218.5888136968069944
 51
220.2620157008963986
  0
ARC
  5
1E28D
  8
0
 10
6149.4816721746046824
 20
-1816.9151922364640086
 30
0.0
 40
2732.1288721358350813
 50
120.8147967922052004
 51
120.8148086257770046
  0
ARC
  5
1E28E
  8
0
 10
4750.0807816990527499
 20
530.1037442154504333
 30
0.0
 40
0.6161562046572948
 50
249.9633710472652979
 51
253.7220334274431082
  0
LINE
  5
1E28F
  8
0
 10
4749.8696737580694389
 20
529.5248816188086494
 30
0.0
 11
4749.8696737580694389
 21
529.5257497761243712
 31
0.0
  0
LINE
  5
1E290
  8
0
 10
4749.9080746001727675
 20
529.5122877702793858
 30
0.0
 11
4749.9080746001727675
 21
529.5131498624602955
 31
0.0
  0
ARC
  5
1E291
  8
0
 10
4749.7492728293236723
 20
529.7549282421408634
 30
0.0
 40
0.2682441528796401
 50
303.4235209637072899
 51
305.9809197359816153
  0
ARC
  5
1E292
  8
0
 10
4750.0818285635614302
 20
530.123183328310688
 30
0.0
 40
0.6109106030709346
 50
253.3581084818297882
 51
255.2757974994198094
  0
ARC
  5
1E293
  8
0
 10
4750.3629489535596804
 20
529.8721689272219919
 30
0.0
 40
0.5531062100971642
 50
217.9090888438165052
 51
219.5389819751619882
  0
ARC
  5
1E294
  8
0
 10
4749.7773295091155887
 20
529.7395633213177462
 30
0.0
 40
0.2710804172159344
 50
303.4003773924110874
 51
305.9298805973539856
  0
ARC
  5
1E295
  8
0
 10
4750.0817996127861988
 20
530.1112572201361672
 30
0.0
 40
0.6178262634649512
 50
253.5525156320559006
 51
255.4470490965869942
  0
ARC
  5
1E296
  8
0
 10
4750.3371022410574369
 20
529.8721534168123526
 30
0.0
 40
0.5567941616865557
 50
217.7797551900125939
 51
219.4035357629230134
  0
LINE
  5
1E297
  8
0
 10
4749.9068705091058291
 20
529.5187126222189136
 30
0.0
 11
4749.9068705091058291
 21
529.5378616696258405
 31
0.0
  0
LINE
  5
1E298
  8
0
 10
4749.9265555484080323
 20
529.5132533971145676
 30
0.0
 11
4749.9265555484080323
 21
529.5323347388468846
 31
0.0
  0
LINE
  5
1E299
  8
0
 10
4749.924866839056449
 20
529.5080683490407409
 30
0.0
 11
4749.925351457418401
 21
529.5075123229780729
 31
0.0
  0
LINE
  5
1E29A
  8
0
 10
4749.925351457418401
 20
529.5075123229780729
 30
0.0
 11
4749.925351457418401
 21
529.508387149203827
 31
0.0
  0
LINE
  5
1E29B
  8
0
 10
4749.924866839056449
 20
529.5080683490407409
 30
0.0
 11
4749.9347093587566633
 21
529.5145431282406889
 31
0.0
  0
ARC
  5
1E29C
  8
0
 10
4750.0826785620183728
 20
530.1106083632028003
 30
0.0
 40
0.6232789516555635
 50
255.379330346010704
 51
259.0000906510687742
  0
LINE
  5
1E29D
  8
0
 10
4749.9637522994216852
 20
529.4987806132259038
 30
0.0
 11
4749.9642369177217915
 21
529.4991140342546032
 31
0.0
  0
LINE
  5
1E29E
  8
0
 10
4749.9642369177217915
 20
529.4991140342546032
 30
0.0
 11
4749.9543943980361291
 21
529.510046164360233
 31
0.0
  0
LINE
  5
1E29F
  8
0
 10
4749.963752299456246
 20
529.4987806132406831
 30
0.0
 11
4749.963752299456246
 21
529.4996523019035521
 31
0.0
  0
ARC
  5
1E2A0
  8
0
 10
4750.0826604815520113
 20
530.1168521544884698
 30
0.0
 40
0.6202142354347292
 50
256.1991175307559274
 51
258.0645646079536846
  0
ARC
  5
1E2A1
  8
0
 10
4750.0825989752784153
 20
530.1240594084913482
 30
0.0
 40
0.6154866370167957
 50
256.0968864880517231
 51
257.9773762364339973
  0
ARC
  5
1E2A2
  8
0
 10
4749.7539710318533253
 20
529.7774699483227323
 30
0.0
 40
0.3246490739514838
 50
308.1231574064299252
 51
310.3662566730155845
  0
ARC
  5
1E2A3
  8
0
 10
4750.4124735837276603
 20
529.8902376619857932
 30
0.0
 40
0.5749831447194687
 50
217.1855088462997116
 51
218.7792465682269096
  0
ARC
  5
1E2A4
  8
0
 10
4750.0826151361416123
 20
530.1356857794650068
 30
0.0
 40
0.6066711741493722
 50
255.8891352151129865
 51
257.7984466898950018
  0
ARC
  5
1E2A5
  8
0
 10
4749.7262589837800988
 20
529.7913570126268041
 30
0.0
 40
0.3209445694488657
 50
308.2302286421270878
 51
310.5031814026190773
  0
ARC
  5
1E2A6
  8
0
 10
4750.386738318836251
 20
529.8887194291060041
 30
0.0
 40
0.5791868952249267
 50
217.1129013350276011
 51
218.697801429697904
  0
LINE
  5
1E2A7
  8
0
 10
4749.9347093587566633
 20
529.5266044213406076
 30
0.0
 11
4749.9347093587566633
 21
529.5473204214097223
 31
0.0
  0
LINE
  5
1E2A8
  8
0
 10
4749.954394398144359
 20
529.5220732070314398
 30
0.0
 11
4749.954394398144359
 21
529.5427192071564377
 31
0.0
  0
ARC
  5
1E2A9
  8
0
 10
4749.7651750649583846
 20
529.7660275014385434
 30
0.0
 40
0.3122834906973766
 50
306.9067226472810148
 51
309.2001957012955131
  0
ARC
  5
1E2AA
  8
0
 10
4750.0831834592863743
 20
530.1290321239380319
 30
0.0
 40
0.6169161280345703
 50
258.7234006588213902
 51
260.5819445662833118
  0
ARC
  5
1E2AB
  8
0
 10
4750.3635400993025542
 20
529.8439058948232514
 30
0.0
 40
0.5000305155030544
 50
220.3089610204835935
 51
222.022386709286792
  0
ARC
  5
1E2AC
  8
0
 10
4749.7932505452436089
 20
529.753718115041238
 30
0.0
 40
0.3151710649117915
 50
306.8426480534257053
 51
309.1127578143402843
  0
ARC
  5
1E2AD
  8
0
 10
4750.0831764600288807
 20
530.1171948211815561
 30
0.0
 40
0.6239233045432701
 50
258.8523337844280832
 51
260.6893151065481788
  0
ARC
  5
1E2AE
  8
0
 10
4750.3374665516339519
 20
529.8421876760213536
 30
0.0
 40
0.5042121484178401
 50
220.2623481418420113
 51
221.9633569790802028
  0
LINE
  5
1E2AF
  8
0
 10
4749.9625482084020405
 20
529.5050436022756912
 30
0.0
 11
4749.9625482084020405
 21
529.524025805563042
 31
0.0
  0
LINE
  5
1E2B0
  8
0
 10
4749.9822332477369855
 20
529.5014913553671931
 30
0.0
 11
4749.9822332477369855
 21
529.5204316278668557
 31
0.0
  0
ARC
  5
1E2B1
  8
0
 10
4749.6872908724162698
 20
529.8186312570850305
 30
0.0
 40
0.3289924695336142
 50
309.6066509916004179
 51
311.8690645902472056
  0
ARC
  5
1E2B2
  8
0
 10
4750.0817246923070343
 20
530.1414573340090328
 30
0.0
 40
0.5941302635028842
 50
252.8842667823552972
 51
254.8604885943852025
  0
ARC
  5
1E2B3
  8
0
 10
4750.4686165946777692
 20
529.9369768060186061
 30
0.0
 40
0.6557535078771759
 50
214.24659704106449
 51
215.7461054071000888
  0
ARC
  5
1E2B4
  8
0
 10
4749.7146792538542286
 20
529.8030321164811767
 30
0.0
 40
0.3335137453852789
 50
309.44112888744678
 51
311.6667253479482156
  0
ARC
  5
1E2B5
  8
0
 10
4750.08173298688871
 20
530.1301704781524222
 30
0.0
 40
0.6049449083923825
 50
253.1985986887223987
 51
255.1366258836665963
  0
ARC
  5
1E2B6
  8
0
 10
4750.4435108755405963
 20
529.9357859778317561
 30
0.0
 40
0.6603069528176611
 50
214.1450296878070105
 51
215.6380999269273957
  0
LINE
  5
1E2B7
  8
0
 10
4749.9068705090567164
 20
529.5510491989407456
 30
0.0
 11
4749.9068705090567164
 21
529.5736397712219059
 31
0.0
  0
LINE
  5
1E2B8
  8
0
 10
4749.9265555484125798
 20
529.5454668739408817
 30
0.0
 11
4749.9265555484125798
 21
529.5679476944071666
 31
0.0
  0
ARC
  5
1E2B9
  8
0
 10
4750.0806322669950532
 20
530.146981772257277
 30
0.0
 40
0.5798676685311123
 50
250.9168472070527116
 51
251.7164951221473927
  0
ARC
  5
1E2BA
  8
0
 10
4750.531265829653421
 20
529.9831798651689496
 30
0.0
 40
0.7414352063367359
 50
211.4449837280191105
 51
212.8739721953444928
  0
ARC
  5
1E2BB
  8
0
 10
4749.6753036966174477
 20
529.8305441277345835
 30
0.0
 40
0.3417794874500242
 50
310.8193231310841043
 51
313.0372528232053924
  0
ARC
  5
1E2BC
  8
0
 10
4750.0804700279195458
 20
530.135414499556191
 30
0.0
 40
0.5921060199013312
 50
250.1105390079407869
 51
252.1238315593394077
  0
ARC
  5
1E2BD
  8
0
 10
4750.5042829114636334
 20
529.9806094278189903
 30
0.0
 40
0.743322849156774
 50
211.4819435396993015
 51
212.7374967459805077
  0
LINE
  5
1E2BE
  8
0
 10
4749.8987166987562887
 20
529.5718940774406747
 30
0.0
 11
4749.8987166987562887
 21
529.5963882388407455
 31
0.0
  0
LINE
  5
1E2BF
  8
0
 10
4749.8790316594559044
 20
529.5786271770407438
 30
0.0
 11
4749.8790316594559044
 21
529.595325007149313
 31
0.0
  0
ARC
  5
1E2C0
  8
0
 10
4750.555662669476078
 20
529.9967708501242214
 30
0.0
 40
0.7662406786254771
 50
211.0803079794087864
 51
212.143189478020588
  0
ARC
  5
1E2C1
  8
0
 10
4750.0815547888560104
 20
530.1478691582384499
 30
0.0
 40
0.585435574697709
 50
252.6394654676209939
 51
254.6473768055817004
  0
ARC
  5
1E2C2
  8
0
 10
4749.641007307007385
 20
529.8697721434127743
 30
0.0
 40
0.4044622779094233
 50
314.9099638620571113
 51
316.9140301062664093
  0
ARC
  5
1E2C3
  8
0
 10
4750.5827101277582187
 20
530.000633546661561
 30
0.0
 40
0.7638641256018767
 50
210.9640367934649134
 51
212.2090839896445118
  0
LINE
  5
1E2C4
  8
0
 10
4749.9265555484917058
 20
529.5833250522482558
 30
0.0
 11
4749.9265555484917058
 21
529.6073866617141448
 31
0.0
  0
LINE
  5
1E2C5
  8
0
 10
4749.9068705091231095
 20
529.5891024676277539
 30
0.0
 11
4749.9068705091231095
 21
529.6030071515741611
 31
0.0
  0
ARC
  5
1E2C6
  8
0
 10
4750.5996463766687157
 20
530.0095502319741172
 30
0.0
 40
0.7797263943787596
 50
210.9695712851219866
 51
211.4843892324738022
  0
ARC
  5
1E2C7
  8
0
 10
4750.0824184953744407
 20
530.1598399838519526
 30
0.0
 40
0.5767498849458881
 50
255.1608661327094012
 51
257.1749349814518837
  0
ARC
  5
1E2C8
  8
0
 10
4749.5975180890891352
 20
529.9123603231583957
 30
0.0
 40
0.4759318886661387
 50
318.5771645148187758
 51
320.4013231710192144
  0
ARC
  5
1E2C9
  8
0
 10
4750.6263577702211478
 20
530.0143671957846436
 30
0.0
 40
0.776355519718182
 50
211.0604170744944099
 51
211.4761276992254011
  0
LINE
  5
1E2CA
  8
0
 10
4749.9543943980415861
 20
529.5974786584685035
 30
0.0
 11
4749.9543943980415861
 21
529.6126651835041912
 31
0.0
  0
LINE
  5
1E2CB
  8
0
 10
4749.9347093587639392
 20
529.6023254631918462
 30
0.0
 11
4749.9347093587639392
 21
529.6090428857423831
 31
0.0
  0
ARC
  5
1E2CC
  8
0
 10
4749.653512908465018
 20
529.8587750412378909
 30
0.0
 40
0.3919224846310534
 50
313.8177171722707044
 51
315.8467948585878844
  0
ARC
  5
1E2CD
  8
0
 10
4750.0825415419567435
 20
530.1535460201713477
 30
0.0
 40
0.5867060950813557
 50
255.4058979847636977
 51
257.3838712958207111
  0
ARC
  5
1E2CE
  8
0
 10
4750.5201218939582759
 20
529.9560359995424506
 30
0.0
 40
0.6787453731030298
 50
213.5410652093059127
 51
215.0162862087094879
  0
ARC
  5
1E2CF
  8
0
 10
4749.6832761703790311
 20
529.8418305345034014
 30
0.0
 40
0.3933315566034444
 50
313.5736749064528794
 51
315.5866969737006116
  0
ARC
  5
1E2D0
  8
0
 10
4750.082553318524333
 20
530.1425727486710002
 30
0.0
 40
0.5995638109342371
 50
255.724427309845197
 51
257.6575862174029226
  0
ARC
  5
1E2D1
  8
0
 10
4750.4941454301770136
 20
529.9528437616794463
 30
0.0
 40
0.6827157058047667
 50
213.5043114249043867
 51
214.9724677573082943
  0
LINE
  5
1E2D2
  8
0
 10
4749.9543943980570475
 20
529.5568662910604871
 30
0.0
 11
4749.9543943980570475
 21
529.5810057582420995
 31
0.0
  0
LINE
  5
1E2D3
  8
0
 10
4749.934709358800319
 20
529.5615228997846771
 30
0.0
 11
4749.934709358800319
 21
529.5857699308292013
 31
0.0
  0
ARC
  5
1E2D4
  8
0
 10
4750.0831091074978758
 20
530.1648960757012219
 30
0.0
 40
0.5770008056522139
 50
257.9395205208693937
 51
259.9313548131444236
  0
ARC
  5
1E2D5
  8
0
 10
4750.5720288925267596
 20
529.9764411434803151
 30
0.0
 40
0.7014272783888225
 50
212.7699352056766031
 51
214.226694417503893
  0
ARC
  5
1E2D6
  8
0
 10
4749.6410973658075818
 20
529.885803116785155
 30
0.0
 40
0.4642592945878693
 50
317.2899828789597905
 51
319.112518047110882
  0
ARC
  5
1E2D7
  8
0
 10
4750.0830895271601548
 20
530.1540811792749537
 30
0.0
 40
0.5918365314957461
 50
258.2481517731152962
 51
260.1882027041651781
  0
ARC
  5
1E2D8
  8
0
 10
4750.5450712463825766
 20
529.9712685494722564
 30
0.0
 40
0.7047263385992533
 50
212.800580405534788
 51
214.2494986376098041
  0
ARC
  5
1E2D9
  8
0
 10
4749.6116810815556164
 20
529.9011463499878118
 30
0.0
 40
0.4619709683499938
 50
317.57787389509582
 51
319.4201724256462853
  0
LINE
  5
1E2DA
  8
0
 10
4749.9822332477233431
 20
529.5709015406855542
 30
0.0
 11
4749.9822332477233431
 21
529.596781658846453
 31
0.0
  0
LINE
  5
1E2DB
  8
0
 10
4749.9625482083556562
 20
529.5746501907407264
 30
0.0
 11
4749.9625482083556562
 21
529.6006310676407338
 31
0.0
  0
ARC
  5
1E2DC
  8
0
 10
4750.5985689762601396
 20
529.9924215415577464
 30
0.0
 40
0.7290039251421102
 50
212.0305327550441064
 51
213.4606948159002968
  0
ARC
  5
1E2DD
  8
0
 10
4750.0834538908547984
 20
530.1649808662349415
 30
0.0
 40
0.5819957697941427
 50
260.7983387085735103
 51
262.7564975064169062
  0
ARC
  5
1E2DE
  8
0
 10
4749.5926305678431163
 20
529.9297918288145866
 30
0.0
 40
0.5397520226512557
 50
320.6597458550627948
 51
322.3381265216929137
  0
ARC
  5
1E2DF
  8
0
 10
4750.6244507109186088
 20
529.998155176052137
 30
0.0
 40
0.723870804838655
 50
211.9250360042971124
 51
213.3692027900995924
  0
ARC
  5
1E2E0
  8
0
 10
4750.0834684918236235
 20
530.1754625413735766
 30
0.0
 40
0.5648854903404579
 50
260.6465785165077023
 51
262.5343685459415042
  0
ARC
  5
1E2E1
  8
0
 10
4749.5621326369273447
 20
529.9448434326981214
 30
0.0
 40
0.5385473641367275
 50
320.9800545574425996
 51
322.6203791866743131
  0
LINE
  5
1E2E2
  8
0
 10
4749.9903870580928924
 20
529.5904744339837862
 30
0.0
 11
4749.9903870580928924
 21
529.6179327168573536
 31
0.0
  0
LINE
  5
1E2E3
  8
0
 10
4750.0100720974605792
 20
529.5876298564872968
 30
0.0
 11
4750.0100720974605792
 21
529.6153655975399488
 31
0.0
  0
ARC
  5
1E2E4
  8
0
 10
4750.6476352295585457
 20
530.011671488577349
 30
0.0
 40
0.7471491149657843
 50
211.5981976135900879
 51
212.6040194581728997
  0
ARC
  5
1E2E5
  8
0
 10
4750.0836530925562329
 20
530.175072598241627
 30
0.0
 40
0.5697564669008467
 50
263.4059726929135081
 51
265.3951281896966066
  0
ARC
  5
1E2E6
  8
0
 10
4749.5370112110413174
 20
529.9743070972934902
 30
0.0
 40
0.6210483131570392
 50
323.7591555017081077
 51
325.3244923119028726
  0
LINE
  5
1E2E7
  8
0
 10
4750.0477534668198132
 20
529.6209753050128484
 30
0.0
 11
4750.04664558515924
 21
529.622724037769558
 31
0.0
  0
LINE
  5
1E2E8
  8
0
 10
4750.03791094709959
 20
529.6071552735328396
 30
0.0
 11
4750.03791094709959
 21
529.6222524588780516
 31
0.0
  0
LINE
  5
1E2E9
  8
0
 10
4750.0182259077309936
 20
529.6090852175860846
 30
0.0
 11
4750.0182259077309936
 21
529.6208237196029813
 31
0.0
  0
ARC
  5
1E2EA
  8
0
 10
4750.083737315207145
 20
530.1780443344956666
 30
0.0
 40
0.5674820737786338
 50
266.1935940683632111
 51
268.1835874684298915
  0
ARC
  5
1E2EB
  8
0
 10
4750.6138996376430441
 20
529.9767580619314913
 30
0.0
 40
0.6590590676838037
 50
213.7246021214660061
 51
215.236094511607206
  0
ARC
  5
1E2EC
  8
0
 10
4749.5872966907818409
 20
529.9484117267544434
 30
0.0
 40
0.6018831058492417
 50
322.6483571230481857
 51
324.2211636838760001
  0
ARC
  5
1E2ED
  8
0
 10
4750.0837378223286578
 20
530.1677001454531819
 30
0.0
 40
0.584730743107031
 50
266.3059856790237063
 51
268.2371363449215096
  0
ARC
  5
1E2EE
  8
0
 10
4750.5860775227347403
 20
529.9680646386517537
 30
0.0
 40
0.6625540941176246
 50
213.9112784829455904
 51
215.4079848272006927
  0
ARC
  5
1E2EF
  8
0
 10
4749.5559753309626103
 20
529.9616404999420638
 30
0.0
 40
0.6021346680416437
 50
322.8990491945685903
 51
324.4807097894620256
  0
LINE
  5
1E2F0
  8
0
 10
4750.065749796680393
 20
529.5832461499711599
 30
0.0
 11
4750.065749796680393
 21
529.6108474081663644
 31
0.0
  0
LINE
  5
1E2F1
  8
0
 10
4750.046064757356362
 20
529.5841842655406708
 30
0.0
 11
4750.046064757356362
 21
529.6118140964782697
 31
0.0
  0
ARC
  5
1E2F2
  8
0
 10
4749.5123559976800607
 20
529.9947566405246562
 30
0.0
 40
0.666855885971263
 50
325.8247006936909997
 51
326.1620248258009838
  0
ARC
  5
1E2F3
  8
0
 10
4750.6394252201625932
 20
529.9929602600907401
 30
0.0
 40
0.6855797283275357
 50
212.9403240918009033
 51
214.4235832218689097
  0
LINE
  5
1E2F4
  8
0
 10
4750.0739036069553549
 20
529.6053975310408077
 30
0.0
 11
4750.0739036069553549
 21
529.6235563093202927
 31
0.0
  0
ARC
  5
1E2F5
  8
0
 10
4750.083670510639422
 20
530.1686899796366106
 30
0.0
 40
0.5808372813702686
 50
263.5305821741105774
 51
265.481437456758897
  0
ARC
  5
1E2F6
  8
0
 10
4750.5627996043813255
 20
529.9530108078281501
 30
0.0
 40
0.638383388482801
 50
214.6928166819535022
 51
216.2157893483939972
  0
ARC
  5
1E2F7
  8
0
 10
4749.6403052231571564
 20
529.9035134785714263
 30
0.0
 40
0.5228638383709342
 50
319.502858690302503
 51
321.1931109049809834
  0
ARC
  5
1E2F8
  8
0
 10
4750.0836613516830766
 20
530.1579131751243494
 30
0.0
 40
0.5957121609594813
 50
263.6936734472097896
 51
265.5953748359482915
  0
ARC
  5
1E2F9
  8
0
 10
4750.5368166416938038
 20
529.946938416028047
 30
0.0
 40
0.6435825080562309
 50
214.8068651813325118
 51
216.3136238100179014
  0
ARC
  5
1E2FA
  8
0
 10
4749.6098636561782769
 20
529.9170888036079532
 30
0.0
 40
0.5222397303434269
 50
319.7380157697700156
 51
321.4389173320902273
  0
LINE
  5
1E2FB
  8
0
 10
4750.0182259076791524
 20
529.5658057681589526
 30
0.0
 11
4750.0182259076791524
 21
529.5915513902380098
 31
0.0
  0
LINE
  5
1E2FC
  8
0
 10
4750.0379109470486583
 20
529.5639604168313781
 30
0.0
 11
4750.0379109470486583
 21
529.589658020441334
 31
0.0
  0
ARC
  5
1E2FD
  8
0
 10
4750.0834923247639381
 20
530.1584792601682921
 30
0.0
 40
0.5917317669720106
 50
260.9472513381783187
 51
262.8725505039708992
  0
ARC
  5
1E2FE
  8
0
 10
4750.512286062664316
 20
529.930672752554301
 30
0.0
 40
0.6175380487441269
 50
215.5851255439675072
 51
217.1256756341076084
  0
ARC
  5
1E2FF
  8
0
 10
4749.6859846786546768
 20
529.8594715114747942
 30
0.0
 40
0.4499172351725729
 50
316.0814639343832937
 51
317.9194202064040837
  0
ARC
  5
1E300
  8
0
 10
4750.0834760229790845
 20
530.1473758499995483
 30
0.0
 40
0.6044562012703704
 50
261.1409358824074047
 51
263.024901636791185
  0
ARC
  5
1E301
  8
0
 10
4750.4861594251824499
 20
529.9258920578206471
 30
0.0
 40
0.622082648911086
 50
215.6317879607663883
 51
217.1596231055162036
  0
ARC
  5
1E302
  8
0
 10
4749.6564624296997863
 20
529.8732798812179681
 30
0.0
 40
0.4483340181265767
 50
316.2910003625480044
 51
318.1429674129773275
  0
LINE
  5
1E303
  8
0
 10
4749.990387058081069
 20
529.550130721205278
 30
0.0
 11
4749.990387058081069
 21
529.5741181617371467
 31
0.0
  0
LINE
  5
1E304
  8
0
 10
4750.0100720974505748
 20
529.5473932145004028
 30
0.0
 11
4750.0100720974505748
 21
529.5713200362221187
 31
0.0
  0
ARC
  5
1E305
  8
0
 10
4750.0831553361340411
 20
530.1474636509473157
 30
0.0
 40
0.6003066318778282
 50
258.4098681458590931
 51
260.3216117713876088
  0
ARC
  5
1E306
  8
0
 10
4750.4677087600512095
 20
529.913912731780897
 30
0.0
 40
0.6033257545184778
 50
216.4220220436469049
 51
217.968242253255795
  0
ARC
  5
1E307
  8
0
 10
4749.7252521944537875
 20
529.8157660106371623
 30
0.0
 40
0.3817623001956501
 50
312.3101969238800848
 51
314.3408950814027776
  0
ARC
  5
1E308
  8
0
 10
4750.0831309953546224
 20
530.1360535464352779
 30
0.0
 40
0.6109936415945594
 50
258.6176578277695057
 51
260.4947982189353866
  0
ARC
  5
1E309
  8
0
 10
4750.4368236308755513
 20
529.9069682114483157
 30
0.0
 40
0.601462183167087
 50
216.3992356267586104
 51
217.9509619958818121
  0
ARC
  5
1E30A
  8
0
 10
4749.6953300742898136
 20
529.8310854138959485
 30
0.0
 40
0.381077334169531
 50
312.4844012166025209
 51
314.5247741126427172
  0
LINE
  5
1E30B
  8
0
 10
4749.9822332477642703
 20
529.5334484729419273
 30
0.0
 11
4749.9822332477642703
 21
529.5557012118254079
 31
0.0
  0
LINE
  5
1E30C
  8
0
 10
4749.962548208395674
 20
529.5370769011828997
 30
0.0
 11
4749.9625482083947645
 21
529.5593973511007562
 31
0.0
  0
ARC
  5
1E30D
  8
0
 10
4750.083507048591855
 20
530.1404685027459891
 30
0.0
 40
0.6115378386832909
 50
261.2413940948363802
 51
263.1031399942183953
  0
ARC
  5
1E30E
  8
0
 10
4750.4112737327677678
 20
529.8636260923242389
 30
0.0
 40
0.5196549041406799
 50
219.4613058361711069
 51
221.1391978663833981
  0
ARC
  5
1E30F
  8
0
 10
4749.767022239409016
 20
529.7914855334182676
 30
0.0
 40
0.3697456047877242
 50
311.0975838465063816
 51
313.1541211744241195
  0
ARC
  5
1E310
  8
0
 10
4750.0834912815562348
 20
530.1288197285376782
 30
0.0
 40
0.6203312760969956
 50
261.3679790066898931
 51
263.2028370798207106
  0
ARC
  5
1E311
  8
0
 10
4750.3854348444801872
 20
529.8604761490126975
 30
0.0
 40
0.5244624281964096
 50
219.4652586938148886
 51
221.1278948858376054
  0
ARC
  5
1E312
  8
0
 10
4749.7368740700439957
 20
529.8052936533687216
 30
0.0
 40
0.3698033357086498
 50
311.2174865788999227
 51
313.2776662395692142
  0
LINE
  5
1E313
  8
0
 10
4749.9903870580083094
 20
529.5155151584735904
 30
0.0
 11
4749.9903870580083094
 21
529.5360620207364946
 31
0.0
  0
LINE
  5
1E314
  8
0
 10
4750.0100720973769057
 20
529.5128485315659645
 30
0.0
 11
4750.0100720973769057
 21
529.5333557981502963
 31
0.0
  0
ARC
  5
1E315
  8
0
 10
4750.0835139141972832
 20
530.1215233979876302
 30
0.0
 40
0.6249641763022746
 50
261.4303534769107955
 51
263.25137055860489
  0
ARC
  5
1E316
  8
0
 10
4750.3222110444567079
 20
529.7988430684406467
 30
0.0
 40
0.4315171983000516
 50
223.6680514313019046
 51
225.5294008848165959
  0
LINE
  5
1E317
  8
0
 10
4750.0199146171107714
 20
529.4909080713335925
 30
0.0
 11
4750.0194299987788327
 21
529.4905318919536512
 31
0.0
  0
LINE
  5
1E318
  8
0
 10
4750.0194299987788327
 20
529.4905318919536512
 30
0.0
 11
4750.0194299987788327
 21
529.4913845658619493
 31
0.0
  0
ARC
  5
1E319
  8
0
 10
4750.0835225701202944
 20
530.1152730412026131
 30
0.0
 40
0.6280201917660503
 50
260.6072673446067256
 51
264.1424838506010815
  0
LINE
  5
1E31A
  8
0
 10
4749.9810291567000604
 20
529.4956727979235893
 30
0.0
 11
4749.9805445383435654
 21
529.4961799844594452
 31
0.0
  0
LINE
  5
1E31B
  8
0
 10
4749.9810291567000604
 20
529.4956727979235893
 30
0.0
 11
4749.9810291567000604
 21
529.4965278384291878
 31
0.0
  0
ARC
  5
1E31C
  8
0
 10
4749.8040960313783216
 20
529.742513564727119
 30
0.0
 40
0.3030087595737153
 50
305.6139888246366922
 51
307.937686971596122
  0
ARC
  5
1E31D
  8
0
 10
4749.7782504690703718
 20
529.7812796569106695
 30
0.0
 40
0.3580565507460091
 50
309.9955308552296174
 51
312.0837831167041259
  0
ARC
  5
1E31E
  8
0
 10
4750.083678635661272
 20
530.1325998836439339
 30
0.0
 40
0.620519121999115
 50
263.9451434400095877
 51
265.7701886453141924
  0
ARC
  5
1E31F
  8
0
 10
4750.3677712908511239
 20
529.8185404979354871
 30
0.0
 40
0.4491017128923895
 50
222.7359308635697914
 51
224.555338250612607
  0
ARC
  5
1E320
  8
0
 10
4749.8081256609957563
 20
529.7695299382421581
 30
0.0
 40
0.3580769552837016
 50
309.9202251523004747
 51
312.0059333836962878
  0
ARC
  5
1E321
  8
0
 10
4750.0836721871719419
 20
530.1207424053191062
 30
0.0
 40
0.6275063387607928
 50
264.013403534907809
 51
265.8179618271030904
  0
ARC
  5
1E322
  8
0
 10
4750.3415300883843884
 20
529.8149712796980566
 30
0.0
 40
0.453705583013479
 50
222.7536317245414921
 51
224.5543010507921906
  0
LINE
  5
1E323
  8
0
 10
4750.0182259077264462
 20
529.4966582846336678
 30
0.0
 11
4750.0182259077264462
 21
529.5155424137333284
 31
0.0
  0
LINE
  5
1E324
  8
0
 10
4750.0379109470559342
 20
529.494906872540696
 30
0.0
 11
4750.0379109470559342
 21
529.513770909333175
 31
0.0
  0
ARC
  5
1E325
  8
0
 10
4750.0837388928202927
 20
530.1238985964846506
 30
0.0
 40
0.6273506450692889
 50
266.5571590516144056
 51
268.3568350641830875
  0
ARC
  5
1E326
  8
0
 10
4750.3319333671597633
 20
529.7752847603453574
 30
0.0
 40
0.385232601706323
 50
226.2931816225373893
 51
228.2855303758863101
  0
LINE
  5
1E327
  8
0
 10
4750.0755923164124397
 20
529.4877201187102855
 30
0.0
 11
4750.0751076980577636
 21
529.4873015113146266
 31
0.0
  0
LINE
  5
1E328
  8
0
 10
4750.0751076980577636
 20
529.4873015113146266
 30
0.0
 11
4750.0751076980577636
 21
529.4881528514464435
 31
0.0
  0
ARC
  5
1E329
  8
0
 10
4749.8195343118641176
 20
529.7589596850936005
 30
0.0
 40
0.345807774302569
 50
308.8007348468278792
 51
310.9254286986422926
  0
LINE
  5
1E32A
  8
0
 10
4750.0362222377088983
 20
529.4894613371194509
 30
0.0
 11
4750.0367068560317421
 21
529.4889994687273429
 31
0.0
  0
LINE
  5
1E32B
  8
0
 10
4750.0367068560317421
 20
529.4889994687273429
 30
0.0
 11
4750.0367068560317421
 21
529.4898517089432062
 31
0.0
  0
ARC
  5
1E32C
  8
0
 10
4750.0837394659811252
 20
530.1176006062001989
 30
0.0
 40
0.6303581969254186
 50
265.7210413744421089
 51
269.2153995436078162
  0
ARC
  5
1E32D
  8
0
 10
4750.0837380722550733
 20
530.1609501129424871
 30
0.0
 40
0.5942155377017448
 50
266.3650048084249988
 51
268.2652595121230092
  0
ARC
  5
1E32E
  8
0
 10
4750.5075591161930788
 20
529.907504486333778
 30
0.0
 40
0.5577939347330345
 50
217.6210452742095072
 51
219.247519288275214
  0
ARC
  5
1E32F
  8
0
 10
4749.6873296352487159
 20
529.8789385582042542
 30
0.0
 40
0.5059059390545984
 50
318.4178573164073214
 51
320.1263630625768997
  0
ARC
  5
1E330
  8
0
 10
4750.0837383921161745
 20
530.1499883514979956
 30
0.0
 40
0.6070826523329438
 50
266.4421185308495978
 51
268.3020080179495039
  0
ARC
  5
1E331
  8
0
 10
4750.4815028210286982
 20
529.9010755806540374
 30
0.0
 40
0.5630765177047059
 50
217.7397186353234986
 51
219.3470778822253067
  0
ARC
  5
1E332
  8
0
 10
4749.6569034978192576
 20
529.8910481591860844
 30
0.0
 40
0.5058179668386572
 50
318.5827174019725021
 51
320.2973650892250816
  0
LINE
  5
1E333
  8
0
 10
4750.046064757356362
 20
529.5440757802407461
 30
0.0
 11
4750.046064757356362
 21
529.567930023408735
 31
0.0
  0
LINE
  5
1E334
  8
0
 10
4750.0657497967085874
 20
529.5431722695789176
 30
0.0
 11
4750.0657497967085874
 21
529.5670069109534097
 31
0.0
  0
ARC
  5
1E335
  8
0
 10
4750.0836758403556814
 20
530.151120606838731
 30
0.0
 40
0.6040015656980139
 50
263.7791837961783017
 51
265.6545630927809043
  0
ARC
  5
1E336
  8
0
 10
4750.4592388527662479
 20
529.8848186636184892
 30
0.0
 40
0.5388771352859738
 50
218.5685642080341893
 51
220.21759457834969
  0
ARC
  5
1E337
  8
0
 10
4749.7303148148639593
 20
529.8350157972788566
 30
0.0
 40
0.4354977330089917
 50
314.9354238823819969
 51
316.7950930516130938
  0
ARC
  5
1E338
  8
0
 10
4750.0836672001796614
 20
530.1397694309703184
 30
0.0
 40
0.6147491123885404
 50
263.8891691889120921
 51
265.7314832771924102
  0
ARC
  5
1E339
  8
0
 10
4750.4314595850428304
 20
529.8784956178328684
 30
0.0
 40
0.5415252620350143
 50
218.6232080131439091
 51
220.2624412853730007
  0
ARC
  5
1E33A
  8
0
 10
4749.7007518437558247
 20
529.8472360336438669
 30
0.0
 40
0.4344397171285829
 50
315.0814285221854902
 51
316.9507049718197891
  0
LINE
  5
1E33B
  8
0
 10
4750.0182259077291747
 20
529.5285134220631562
 30
0.0
 11
4750.0182259077291747
 21
529.5506756071220025
 31
0.0
  0
LINE
  5
1E33C
  8
0
 10
4750.0379109470559342
 20
529.5267255202408023
 30
0.0
 11
4750.0379109470559342
 21
529.5488553281558097
 31
0.0
  0
ARC
  5
1E33D
  8
0
 10
4750.0837385821751013
 20
530.142870504105872
 30
0.0
 40
0.6139516387917689
 50
266.4819572754764749
 51
268.3209931424560182
  0
ARC
  5
1E33E
  8
0
 10
4750.4134731722524521
 20
529.8397563407697817
 30
0.0
 40
0.4662270720887992
 50
221.770070230692113
 51
223.5550155683712887
  0
ARC
  5
1E33F
  8
0
 10
4749.7765225852854201
 20
529.8100494114062258
 30
0.0
 40
0.4176631043873643
 50
313.8274793162298124
 51
315.729722542611114
  0
ARC
  5
1E340
  8
0
 10
4750.0837388049949368
 20
530.1313544658900128
 30
0.0
 40
0.6228788112894919
 50
266.5324198458180831
 51
268.3450431047368738
  0
ARC
  5
1E341
  8
0
 10
4750.3856701324702954
 20
529.8330522463644456
 30
0.0
 40
0.4689805916126985
 50
221.8303957689232107
 51
223.6030422139212988
  0
ARC
  5
1E342
  8
0
 10
4749.7446973428286583
 20
529.8229138726084102
 30
0.0
 40
0.4202099839407124
 50
313.9284905167003217
 51
315.822382482690216
  0
LINE
  5
1E343
  8
0
 10
4750.0460647573645474
 20
529.5096160323920458
 30
0.0
 11
4750.0460647573645474
 21
529.530075842168344
 31
0.0
  0
LINE
  5
1E344
  8
0
 10
4750.0657497967349627
 20
529.5087354739856664
 30
0.0
 11
4750.0657497967349627
 21
529.5291824576413546
 31
0.0
  0
ARC
  5
1E345
  8
0
 10
4750.0837461267074104
 20
528.7724892026885755
 30
0.0
 40
0.8584992902520376
 50
80.6013161124435271
 51
99.3986838875564871
  0
ARC
  5
1E346
  8
0
 10
4750.0474186076453407
 20
529.0117821203241419
 30
0.0
 40
0.6164947585037472
 50
99.6995690046731369
 51
105.060970858973505
  0
ARC
  5
1E347
  8
0
 10
4749.9975516856720787
 20
529.1970989675213559
 30
0.0
 40
0.4245858119637738
 50
105.060970858973505
 51
114.8322541788696043
  0
ARC
  5
1E348
  8
0
 10
4749.8905818651928712
 20
529.4254117863567899
 30
0.0
 40
0.1724633005030564
 50
114.4347249541163052
 51
137.4877028269270056
  0
ARC
  5
1E349
  8
0
 10
4749.8022310301475954
 20
529.5056332375828561
 30
0.0
 40
0.0531305727926943
 50
136.8739613756420965
 51
223.1260386243579035
  0
ARC
  5
1E34A
  8
0
 10
4749.8499566865793895
 20
529.5403828297654627
 30
0.0
 40
0.1119541089057028
 50
219.406130945025609
 51
229.7566646262824861
  0
ARC
  5
1E34B
  8
0
 10
4749.7644269059255748
 20
529.6559849486293388
 30
0.0
 40
0.1475361882888895
 50
219.407913336986212
 51
229.9985654228123906
  0
ARC
  5
1E34C
  8
0
 10
4749.7006444252765505
 20
529.6554767241126456
 30
0.0
 40
0.1583000876996283
 50
207.1399445113206923
 51
228.3827415446596945
  0
ARC
  5
1E34D
  8
0
 10
4749.799353563303157
 20
529.7665880725368197
 30
0.0
 40
0.3069245327907532
 50
228.3827415446596945
 51
246.4676851893426885
  0
ARC
  5
1E34E
  8
0
 10
4749.9477008807689344
 20
530.0806785455985164
 30
0.0
 40
0.6542097060734572
 50
245.5389184337942936
 51
256.0283877083018069
  0
ARC
  5
1E34F
  8
0
 10
4750.0837461267074104
 20
528.2856893194535814
 30
0.0
 40
0.7083812774870407
 50
85.8119302562920723
 51
94.1880697437079277
  0
ARC
  5
1E350
  8
0
 10
4750.0434001473286116
 20
528.8287572738247491
 30
0.0
 40
0.1638180048020243
 50
93.9860165783191661
 51
104.0730860850704005
  0
ARC
  5
1E351
  8
0
 10
4750.0082297324506726
 20
528.9690554568866219
 30
0.0
 40
0.0191786662626566
 50
104.0730860850704005
 51
128.2317838718267069
  0
ARC
  5
1E352
  8
0
 10
4749.9984297790570054
 20
528.9815920231976634
 30
0.0
 40
0.0032669311026024
 50
129.2873570938614876
 51
230.7126429061383988
  0
ARC
  5
1E353
  8
0
 10
4750.0140269090115908
 20
528.9992903524388339
 30
0.0
 40
0.0268552810630207
 50
228.8666206968927952
 51
248.7166160649238122
  0
LINE
  5
1E354
  8
0
 10
4750.0035662594564201
 20
528.9876585012406167
 30
0.0
 11
4750.0045896426563559
 21
528.9684286723406785
 31
0.0
  0
ARC
  5
1E355
  8
0
 10
4750.0837461267074104
 20
528.5934149339275336
 30
0.0
 40
0.3796326321325055
 50
84.303882237634113
 51
95.696117762365887
  0
ARC
  5
1E356
  8
0
 10
4750.0607837744710196
 20
528.8190169687743492
 30
0.0
 40
0.1528661706013949
 50
95.5246628536265519
 51
104.318743711861103
  0
ARC
  5
1E357
  8
0
 10
4750.0306602188065881
 20
528.9370350644624068
 30
0.0
 40
0.0310642842626708
 50
104.318743711861103
 51
121.8664207401887012
  0
ARC
  5
1E358
  8
0
 10
4750.0164741984581269
 20
528.9598923401739512
 30
0.0
 40
0.0041626964309688
 50
122.1329618510434045
 51
164.9844851144262066
  0
LINE
  5
1E359
  8
0
 10
4750.0124536343555519
 20
528.9609708140407065
 30
0.0
 11
4750.155038619055631
 21
528.9609708140407065
 31
0.0
  0
ARC
  5
1E35A
  8
0
 10
4750.0124538130512519
 20
528.9688460525932214
 30
0.0
 40
0.0078752385544616
 50
183.0380459368118125
 51
269.9986999102915775
  0
ARC
  5
1E35B
  8
0
 10
4750.409410221473081
 20
529.6198307998754444
 30
0.0
 40
1.112703176462855
 50
78.6313270471666783
 51
87.5789154724166679
  0
ARC
  5
1E35C
  8
0
 10
4750.5735776086567057
 20
530.4597427335249904
 30
0.0
 40
0.2569516830111799
 50
58.1999541191712311
 51
77.6014731157823263
  0
ARC
  5
1E35D
  8
0
 10
4750.647343860962792
 20
530.5836109406052401
 30
0.0
 40
0.1128349419708234
 50
10.51087133254779
 51
56.8898657761687687
  0
LINE
  5
1E35E
  8
0
 10
4750.7582854678557851
 20
530.6041945260407147
 30
0.0
 11
4750.909757613657348
 21
529.5581402501405819
 31
0.0
  0
ARC
  5
1E35F
  8
0
 10
4750.8125986622480923
 20
529.5459495689754021
 30
0.0
 40
0.0979207564619874
 50
0.3314499106669329
 51
7.1516151901670133
  0
ARC
  5
1E360
  8
0
 10
4748.4111833961469529
 20
530.5890121639982908
 30
0.0
 40
2.367554080472853
 50
352.3064932441947121
 51
357.3663600444501753
  0
ARC
  5
1E361
  8
0
 10
4738.1515242757450324
 20
532.5992885521475273
 30
0.0
 40
12.8189215252420503
 50
346.5063646345075199
 51
349.5401493493503153
  0
ARC
  5
1E362
  8
0
 10
4750.5329204768377167
 20
529.6239537751341686
 30
0.0
 40
0.0851482921142886
 50
331.4549502882380239
 51
28.5450497117620294
  0
ARC
  5
1E363
  8
0
 10
4750.2740065413026969
 20
529.2182507125434086
 30
0.0
 40
0.5725750237256234
 50
62.0813828905582525
 51
76.0487006849888587
  0
ARC
  5
1E364
  8
0
 10
4750.4581163135426323
 20
529.5657005153378805
 30
0.0
 40
0.1793603575491701
 50
33.4792095978505415
 51
62.0813828905582525
  0
ARC
  5
1E365
  8
0
 10
4750.2829636673332061
 20
529.3502638362824655
 30
0.0
 40
0.4167250035478373
 50
53.2290968022487121
 51
73.2259562442385743
  0
ARC
  5
1E366
  8
0
 10
4750.43741242437045
 20
529.6325415861813326
 30
0.0
 40
0.1080860904069496
 50
304.0319865455144281
 51
28.4755950047180804
  0
ARC
  5
1E367
  8
0
 10
4750.4646095308398799
 20
529.6114928755580422
 30
0.0
 40
0.0718925014158668
 50
316.8485346792010091
 51
43.1514653207989625
  0
ARC
  5
1E368
  8
0
 10
4750.2166198412596714
 20
529.2398579495392141
 30
0.0
 40
0.5260272811343873
 50
64.2124439871103903
 51
75.5554873604446584
  0
ARC
  5
1E369
  8
0
 10
4750.3406189721590636
 20
529.4965047081706189
 30
0.0
 40
0.2409951019345049
 50
42.9347900513849581
 51
64.2124439871103903
  0
ARC
  5
1E36A
  8
0
 10
4750.3179306920283125
 20
529.7658663266970507
 30
0.0
 40
0.2864853992712249
 50
292.9624885565715999
 51
308.9181133419969001
  0
LINE
  5
1E36B
  8
0
 10
4750.4380768353566964
 20
529.5390051601407322
 30
0.0
 11
4750.4380768353566964
 21
529.5932412702405827
 31
0.0
  0
ARC
  5
1E36C
  8
0
 10
4750.3968617914233619
 20
529.6115132840939168
 30
0.0
 40
0.060900086737532
 50
312.5913588466215742
 51
47.4086411533762089
  0
ARC
  5
1E36D
  8
0
 10
4750.153918228133989
 20
529.1826695339238995
 30
0.0
 40
0.5624584457684945
 50
69.058643910529355
 51
78.6186377230284421
  0
ARC
  5
1E36E
  8
0
 10
4750.2740312794912825
 20
529.4849479629630196
 30
0.0
 40
0.2372527658845697
 50
46.2559602860716126
 51
70.0587786538551569
  0
ARC
  5
1E36F
  8
0
 10
4750.1732594800723746
 20
529.2641790841197462
 30
0.0
 40
0.4524317774624038
 50
64.9082690660249852
 51
77.5344862837186639
  0
ARC
  5
1E370
  8
0
 10
4750.2832346480536216
 20
529.4991778709411392
 30
0.0
 40
0.1929728033115279
 50
45.7506782875847477
 51
64.890803808065499
  0
ARC
  5
1E371
  8
0
 10
4750.3710029782423589
 20
529.5892767160153198
 30
0.0
 40
0.0671909219937655
 50
3.3826628712448561
 51
45.7506782875847477
  0
ARC
  5
1E372
  8
0
 10
4750.3407586960092885
 20
529.5416797618416922
 30
0.0
 40
0.0973548855487377
 50
312.1683355497104913
 51
358.4257320856586944
  0
ARC
  5
1E373
  8
0
 10
4750.1557119684593999
 20
529.8585635239272733
 30
0.0
 40
0.4711813276474354
 50
282.7444175278853891
 51
292.3158353564630261
  0
ARC
  5
1E374
  8
0
 10
4750.2566735590789904
 20
529.6195825641559622
 30
0.0
 40
0.211779237171133
 50
291.5972088938764273
 51
314.8815199096197261
  0
ARC
  5
1E375
  8
0
 10
4750.3476096591848545
 20
529.5056332662575187
 30
0.0
 40
0.0510970974713603
 50
313.3057094608776083
 51
46.6942905391201677
  0
ARC
  5
1E376
  8
0
 10
4750.2569163330454103
 20
529.4177285938100113
 30
0.0
 40
0.1773632136993092
 50
44.8510430322666522
 51
67.6682962931869412
  0
ARC
  5
1E377
  8
0
 10
4750.1698427830751825
 20
529.2269332402910322
 30
0.0
 40
0.3870176726547621
 50
66.4769181242033227
 51
74.7114661775770088
  0
ARC
  5
1E378
  8
0
 10
4750.2668571353660809
 20
529.5803298738888998
 30
0.0
 40
0.1610177456638906
 50
294.4738582912727907
 51
315.9862138815740877
  0
ARC
  5
1E379
  8
0
 10
4750.1613550002603006
 20
529.8034676492892459
 30
0.0
 40
0.4078296218026786
 50
282.0931656080639982
 51
294.9770605818933973
  0
ARC
  5
1E37A
  8
0
 10
4750.0837461159062514
 20
529.9966095721606507
 30
0.0
 40
0.5886514039785873
 50
276.3905863005072092
 51
281.6563403614848085
  0
ARC
  5
1E37B
  8
0
 10
4750.0863278362776327
 20
529.9921270960869606
 30
0.0
 40
0.5837420120332314
 50
281.4970548805042085
 51
293.316822218509401
  0
ARC
  5
1E37C
  8
0
 10
4750.2315097881428301
 20
529.6638651454453566
 30
0.0
 40
0.2248495469787134
 50
292.4519562502131862
 51
310.9291037047370878
  0
ARC
  5
1E37D
  8
0
 10
4750.3256702862236125
 20
529.5479260325396353
 30
0.0
 40
0.0757214744188493
 50
314.5744187002655963
 51
339.0521774684024194
  0
ARC
  5
1E37E
  8
0
 10
4750.0869296798291543
 20
530.0411332422767146
 30
0.0
 40
0.6154534181707154
 50
286.275819760065076
 51
290.038775696936284
  0
LINE
  5
1E37F
  8
0
 10
4750.2594176532556958
 20
529.4503449477407457
 30
0.0
 11
4750.2589330349692318
 21
529.4500051306770274
 31
0.0
  0
ARC
  5
1E380
  8
0
 10
4750.2750420134489104
 20
529.5871207227269224
 30
0.0
 40
0.1380586279586259
 50
263.2993411919940741
 51
267.398459985670172
  0
ARC
  5
1E381
  8
0
 10
4750.0868159685705905
 20
530.0344160436773109
 30
0.0
 40
0.6128474333339551
 50
287.2720121742689798
 51
289.2098550266645134
  0
ARC
  5
1E382
  8
0
 10
4750.1278525474699563
 20
529.684705185340249
 30
0.0
 40
0.2797176169313967
 50
305.0421735635910068
 51
307.5437162943483145
  0
ARC
  5
1E383
  8
0
 10
4719.1427741230281754
 20
-285.4101126301707154
 30
0.0
 40
815.468409400892142
 50
87.8104426152833071
 51
87.8104766900129903
  0
LINE
  5
1E384
  8
0
 10
4750.2687755545857726
 20
529.4492043848725871
 30
0.0
 11
4750.2687755545857726
 21
529.453157913056657
 31
0.0
  0
LINE
  5
1E385
  8
0
 10
4750.2884605939780158
 20
529.4556920839274881
 30
0.0
 11
4750.2884605939780158
 21
529.4596109292224355
 31
0.0
  0
ARC
  5
1E386
  8
0
 10
4750.0849265361557627
 20
530.0481692663395279
 30
0.0
 40
0.6227702635988033
 50
280.9984300837900832
 51
284.6221488686218208
  0
ARC
  5
1E387
  8
0
 10
4337.7158121132379165
 20
1206.0141032495280342
 30
0.0
 40
792.4033611424916899
 50
301.3693103070996813
 51
301.3693513468414835
  0
ARC
  5
1E388
  8
0
 10
4750.2361337343518244
 20
529.5851488948530914
 30
0.0
 40
0.152200193436232
 50
257.5245811387155754
 51
261.294686215295485
  0
ARC
  5
1E389
  8
0
 10
4750.0848647054408502
 20
530.0413639104999675
 30
0.0
 40
0.6200663913030431
 50
281.9352126773983969
 51
283.8011045867394841
  0
ARC
  5
1E38A
  8
0
 10
4750.1009952347067156
 20
529.6560096972524434
 30
0.0
 40
0.2537219958349866
 50
301.2931906674431843
 51
303.9321041162597794
  0
ARC
  5
1E38B
  8
0
 10
4844.2128646435967312
 20
1154.5519825421040423
 30
0.0
 40
632.1301484394853105
 50
261.4508802682066744
 51
261.4509246872187873
  0
LINE
  5
1E38C
  8
0
 10
4750.2130978552550005
 20
529.434702069840796
 30
0.0
 11
4750.2130978552550005
 21
529.4387310707993493
 31
0.0
  0
LINE
  5
1E38D
  8
0
 10
4750.2327828946563386
 20
529.4391990336406479
 30
0.0
 11
4750.2327828946563386
 21
529.4432053843811445
 31
0.0
  0
ARC
  5
1E38E
  8
0
 10
4750.3425115401141738
 20
529.6098865887703369
 30
0.0
 40
0.123937706321232
 50
270.7520614075908156
 51
275.3097843655281167
  0
ARC
  5
1E38F
  8
0
 10
4750.0903935069163708
 20
530.0386532087893556
 30
0.0
 40
0.6081584392061729
 50
293.4523010828684733
 51
294.6601234059003787
  0
ARC
  5
1E390
  8
0
 10
4750.2776562895742245
 20
529.5199977136054486
 30
0.0
 40
0.0673944534086022
 50
317.7247453042439815
 51
324.3663675095735925
  0
ARC
  5
1E391
  8
0
 10
4750.0893208018633231
 20
530.034795529224084
 30
0.0
 40
0.6086788034819764
 50
291.7727127913789786
 51
293.0380821015401125
  0
ARC
  5
1E392
  8
0
 10
5516.9866170586310545
 20
-429.6574151439857019
 30
0.0
 40
1227.8883235103010065
 50
128.6368514887273022
 51
128.6368804385826934
  0
ARC
  5
1E393
  8
0
 10
4750.3147156489339977
 20
529.5958944600827181
 30
0.0
 40
0.1267435825646421
 50
269.9525722027223082
 51
274.4063296949900064
  0
ARC
  5
1E394
  8
0
 10
4750.0902361359048882
 20
530.0255618797001489
 30
0.0
 40
0.6033523986913933
 50
292.8421030718586167
 51
294.8863056373494942
  0
ARC
  5
1E395
  8
0
 10
4750.1499572189004539
 20
529.719987605953861
 30
0.0
 40
0.3100824039342416
 50
308.7720896635167946
 51
311.1449114252231993
  0
LINE
  5
1E396
  8
0
 10
4750.3244532539565625
 20
529.4695254972407383
 30
0.0
 11
4750.3244532539565625
 21
529.473366445740794
 31
0.0
  0
LINE
  5
1E397
  8
0
 10
4750.344138293312426
 20
529.4782339967350708
 30
0.0
 11
4750.344138293312426
 21
529.4859595589413175
 31
0.0
  0
ARC
  5
1E398
  8
0
 10
4750.0840104069566223
 20
530.053026032340199
 30
0.0
 40
0.627713437699459
 50
275.8566520044058166
 51
279.3935966618988118
  0
ARC
  5
1E399
  8
0
 10
6492.8335708045224237
 20
-2812.6553648814719963
 30
0.0
 40
3769.1481712670351953
 50
117.5391933033835983
 51
117.5392016115605003
  0
ARC
  5
1E39A
  8
0
 10
4750.1984904884184289
 20
529.5891291176415052
 30
0.0
 40
0.1686606821823192
 50
252.4303122096380037
 51
255.9062842128423938
  0
ARC
  5
1E39B
  8
0
 10
4750.0839812346694089
 20
530.0461577741175461
 30
0.0
 40
0.6249424558351043
 50
276.7485977757756928
 51
278.5696781492895866
  0
ARC
  5
1E39C
  8
0
 10
4750.0714118410824085
 20
529.6319311934316829
 30
0.0
 40
0.2295223612242119
 50
297.4189001596034245
 51
300.2235565489601186
  0
ARC
  5
1E39D
  8
0
 10
3542.3405823927000711
 20
-4280.6699822519731242
 30
0.0
 40
4959.4343824590032455
 50
75.9041250088483679
 51
75.9041307814352848
  0
LINE
  5
1E39E
  8
0
 10
4750.1771051953337519
 20
529.4281925638869097
 30
0.0
 11
4750.1771051953337519
 21
529.4322543188694681
 31
0.0
  0
LINE
  5
1E39F
  8
0
 10
4750.1574201559951689
 20
529.4255453363274455
 30
0.0
 11
4750.1574201559951689
 21
529.4296199298561305
 31
0.0
  0
ARC
  5
1E3A0
  8
0
 10
4750.0837571740557905
 20
530.0555585982400544
 30
0.0
 40
0.6302589606993577
 50
270.7843251831708926
 51
274.2792337215964267
  0
ARC
  5
1E3A1
  8
0
 10
10966.5958530623902334
 20
-13798.0199185652109009
 30
0.0
 40
15617.9577264976906008
 50
113.4554328302801025
 51
113.4554347683107949
  0
ARC
  5
1E3A2
  8
0
 10
4750.1624356978436481
 20
529.5984836788501298
 30
0.0
 40
0.1871373985195115
 50
247.856991911655598
 51
251.0753456181105889
  0
ARC
  5
1E3A3
  8
0
 10
4750.0837539710591955
 20
530.0485407856084521
 30
0.0
 40
0.6273369168734679
 50
271.643145129076288
 51
273.4428605223309887
  0
ARC
  5
1E3A4
  8
0
 10
4750.0391477552857395
 20
529.6130986136189449
 30
0.0
 40
0.2077505564773234
 50
293.3315158841609218
 51
296.3227592792662222
  0
ARC
  5
1E3A5
  8
0
 10
5239.2302750639310034
 20
1948.6721591776290552
 30
0.0
 40
1501.1578770574380997
 50
250.9850518381053064
 51
250.9850714024387912
  0
LINE
  5
1E3A6
  8
0
 10
4750.1017424567226044
 20
529.4214618259425151
 30
0.0
 11
4750.1017424567226044
 21
529.425556306855924
 31
0.0
  0
LINE
  5
1E3A7
  8
0
 10
4750.121427496053002
 20
529.4223360964000449
 30
0.0
 11
4750.121427496053002
 21
529.4264264146869436
 31
0.0
  0
ARC
  5
1E3A8
  8
0
 10
4750.1567801009568939
 20
529.5917661388076567
 30
0.0
 40
0.1805326270666071
 50
249.5109790086931127
 51
252.811965237227696
  0
ARC
  5
1E3A9
  8
0
 10
4750.0412013956729425
 20
529.5864606803362449
 30
0.0
 40
0.1783719354216199
 50
287.0794028852710085
 51
290.4186101300551854
  0
LINE
  5
1E3AA
  8
0
 10
4750.093588646455828
 20
529.4159551868407334
 30
0.0
 11
4750.093588646455828
 21
529.4226541359407747
 31
0.0
  0
ARC
  5
1E3AB
  8
0
 10
4750.1248942651936886
 20
529.5608545614090872
 30
0.0
 40
0.1514012143894986
 50
258.0667164652837755
 51
261.8501203313427936
  0
ARC
  5
1E3AC
  8
0
 10
4750.0731624073068815
 20
529.5567638845307101
 30
0.0
 40
0.1488906893161991
 50
277.885247145508572
 51
281.7297184025616161
  0
LINE
  5
1E3AD
  8
0
 10
4750.093588646455828
 20
529.4092809835407252
 30
0.0
 11
4750.093588646455828
 21
529.4127252734407421
 31
0.0
  0
ARC
  5
1E3AE
  8
0
 10
4750.0837551528447875
 20
530.0398026281120565
 30
0.0
 40
0.622840711765575
 50
271.6549013005495112
 51
273.4676354485171146
  0
ARC
  5
1E3AF
  8
0
 10
4750.0470348542821739
 20
529.5787529346290512
 30
0.0
 40
0.1705440141493147
 50
285.2523273813534956
 51
288.7102775818888745
  0
ARC
  5
1E3B0
  8
0
 10
4750.1291413248827666
 20
529.5652194825246397
 30
0.0
 40
0.1555279923877959
 50
256.1458390940574077
 51
259.8534344114873988
  0
ARC
  5
1E3B1
  8
0
 10
4750.0837542787739949
 20
530.025798591524449
 30
0.0
 40
0.6139382752186523
 50
271.6789866989661277
 51
273.5180625916162853
  0
ARC
  5
1E3B2
  8
0
 10
4750.0773432053711076
 20
529.5767660982767211
 30
0.0
 40
0.1695791845460366
 50
285.0678587062459997
 51
288.5422408004963017
  0
ARC
  5
1E3B3
  8
0
 10
4750.1594197580925538
 20
529.5711370465761547
 30
0.0
 40
0.1576802386190364
 50
256.057679413916901
 51
259.7161881413658193
  0
LINE
  5
1E3B4
  8
0
 10
4750.1017424567280614
 20
529.4121238965658449
 30
0.0
 11
4750.1017424567280614
 21
529.4172217023651683
 31
0.0
  0
LINE
  5
1E3B5
  8
0
 10
4750.1214274960566399
 20
529.4130172810406521
 30
0.0
 11
4750.1214274960566399
 21
529.4181022607407385
 31
0.0
  0
ARC
  5
1E3B6
  8
0
 10
4750.1081685531353287
 20
529.5503940298789303
 30
0.0
 40
0.1418580253141777
 50
275.4756438658197908
 51
279.3723114727716279
  0
ARC
  5
1E3B7
  8
0
 10
4750.1321497100097986
 20
529.547274022006377
 30
0.0
 40
0.1368471785628654
 50
265.506170276520777
 51
269.6316831790006177
  0
ARC
  5
1E3B8
  8
0
 10
4750.0837557227923753
 20
530.0167195371134312
 30
0.0
 40
0.6070420387362652
 50
271.6979298465913075
 51
273.5579437754262244
  0
ARC
  5
1E3B9
  8
0
 10
4750.0774506703337465
 20
529.5514822477142616
 30
0.0
 40
0.1436076513627657
 50
275.7746593245825011
 51
279.7386254555328264
  0
ARC
  5
1E3BA
  8
0
 10
4750.1018825253950126
 20
529.5432473525557953
 30
0.0
 40
0.1350135418717104
 50
265.7598134917337802
 51
269.9405589325007213
  0
ARC
  5
1E3BB
  8
0
 10
4750.0837556984461116
 20
530.0021446891421419
 30
0.0
 40
0.5941831104286305
 50
271.7346888086983085
 51
271.9052934515639777
  0
ARC
  5
1E3BC
  8
0
 10
4750.0838260741802515
 20
530.0038792172515514
 30
0.0
 40
0.595763893100212
 50
274.4047075905590987
 51
276.3062438344878728
  0
LINE
  5
1E3BD
  8
0
 10
4750.1295813063516107
 20
529.409874945338629
 30
0.0
 11
4750.1295813063516107
 21
529.4097453538589662
 31
0.0
  0
LINE
  5
1E3BE
  8
0
 10
4750.1492663457465824
 20
529.4117202967081539
 30
0.0
 11
4750.1492663457465824
 21
529.4116159184450225
 31
0.0
  0
ARC
  5
1E3BF
  8
0
 10
4750.1657225494736849
 20
529.5562218303233522
 30
0.0
 40
0.1410427191966159
 50
263.2997358907963985
 51
267.3123377646696213
  0
ARC
  5
1E3C0
  8
0
 10
4750.083821241159967
 20
530.0274404078968473
 30
0.0
 40
0.614791261501122
 50
274.2685797936838981
 51
276.1107675715657024
  0
ARC
  5
1E3C1
  8
0
 10
4750.0828009177967033
 20
529.5698123897778942
 30
0.0
 40
0.1623439419203713
 50
283.1516060410767182
 51
286.7475934049656985
  0
ARC
  5
1E3C2
  8
0
 10
4750.1357777047869604
 20
529.5503810667663629
 30
0.0
 40
0.1395791404837438
 50
263.4016159532118877
 51
267.4556069488077128
  0
ARC
  5
1E3C3
  8
0
 10
4750.0838222631791723
 20
530.013141555441166
 30
0.0
 40
0.6039380471970625
 50
274.3453382055494103
 51
276.2209147581173738
  0
ARC
  5
1E3C4
  8
0
 10
4750.1137561287578137
 20
529.5686230562311039
 30
0.0
 40
0.1598572055456762
 50
282.8345865638415262
 51
286.4816232621441827
  0
LINE
  5
1E3C5
  8
0
 10
4750.1295813063561582
 20
529.4109395338407467
 30
0.0
 11
4750.1295813063561582
 21
529.4143545153407331
 31
0.0
  0
LINE
  5
1E3C6
  8
0
 10
4750.1492663457011076
 20
529.4127598127848842
 30
0.0
 11
4750.1492663457011076
 21
529.4161424171346653
 31
0.0
  0
LINE
  5
1E3C7
  8
0
 10
4750.1017424566562113
 20
529.4082338833406993
 30
0.0
 11
4750.1017424566562113
 21
529.4099440315065976
 31
0.0
  0
LINE
  5
1E3C8
  8
0
 10
4750.1214274960993862
 20
529.4091654565268072
 30
0.0
 11
4750.1214274960993862
 21
529.4108475421433013
 31
0.0
  0
ARC
  5
1E3C9
  8
0
 10
4750.1937177492363844
 20
529.5831790817048841
 30
0.0
 40
0.1633421012932534
 50
254.2085389973647978
 51
257.7674667366259769
  0
ARC
  5
1E3CA
  8
0
 10
4750.0838181648159662
 20
530.0501072738786661
 30
0.0
 40
0.6275278272846041
 50
274.1820687829568897
 51
275.9865652819007096
  0
ARC
  5
1E3CB
  8
0
 10
4750.0467353356989406
 20
529.6035596485148744
 30
0.0
 40
0.1975228721934847
 50
291.6906373656308915
 51
294.7982714850805905
  0
ARC
  5
1E3CC
  8
0
 10
4750.1640542408676993
 20
529.5768501471549143
 30
0.0
 40
0.1629683459946338
 50
254.221047500269492
 51
257.7878843325732987
  0
ARC
  5
1E3CD
  8
0
 10
4750.0838156993550001
 20
530.036375427578264
 30
0.0
 40
0.6204959031890241
 50
274.2297771872264889
 51
276.0548906876715023
  0
ARC
  5
1E3CE
  8
0
 10
4750.0772531485454238
 20
529.6015448575290065
 30
0.0
 40
0.1959186437109179
 50
291.5656361913896149
 51
294.6960621177435087
  0
LINE
  5
1E3CF
  8
0
 10
4750.1295813063561582
 20
529.4175695815407607
 30
0.0
 11
4750.1295813063561582
 21
529.4242503342406962
 31
0.0
  0
LINE
  5
1E3D0
  8
0
 10
4750.1492663457211165
 20
529.4193410858854349
 30
0.0
 11
4750.1492663457211165
 21
529.4260017462371479
 31
0.0
  0
ARC
  5
1E3D1
  8
0
 10
4750.0839898975782489
 20
530.0373877094289128
 30
0.0
 40
0.6204137646914606
 50
276.7972848751887796
 51
278.6318989721664821
  0
ARC
  5
1E3D2
  8
0
 10
4750.0842714579175663
 20
529.5928797501479721
 30
0.0
 40
0.1864897200647574
 50
289.8441012512428756
 51
293.0939407925450269
  0
ARC
  5
1E3D3
  8
0
 10
4750.1695182349958486
 20
529.5604717777977157
 30
0.0
 40
0.1446812417659416
 50
261.2775662663891012
 51
265.203391961769114
  0
ARC
  5
1E3D4
  8
0
 10
4750.0839916055228969
 20
530.0233633774054169
 30
0.0
 40
0.611490842773562
 50
276.8967885288009256
 51
278.758677529255408
  0
ARC
  5
1E3D5
  8
0
 10
4750.1153398307596945
 20
529.5921674538918751
 30
0.0
 40
0.1838497461729119
 50
289.630662215335974
 51
292.9228528935174154
  0
ARC
  5
1E3D6
  8
0
 10
4750.198971418220026
 20
529.5665677979758357
 30
0.0
 40
0.1442335373146583
 50
261.2801714739799195
 51
265.2181172690865765
  0
LINE
  5
1E3D7
  8
0
 10
4750.1574201559560606
 20
529.4162972370407942
 30
0.0
 11
4750.1574201559560606
 21
529.4213347599406916
 31
0.0
  0
LINE
  5
1E3D8
  8
0
 10
4750.1771051954083305
 20
529.4190034596621217
 30
0.0
 11
4750.1771051954083305
 21
529.4240013868486585
 31
0.0
  0
ARC
  5
1E3D9
  8
0
 10
4750.1743429943353476
 20
529.5476314844987655
 30
0.0
 40
0.130758179769713
 50
271.2104346661060958
 51
275.5317418304044281
  0
ARC
  5
1E3DA
  8
0
 10
4750.0840028364664249
 20
530.0142439383408828
 30
0.0
 40
0.6045534413523854
 50
276.9752497388117263
 51
278.8589124312009062
  0
ARC
  5
1E3DB
  8
0
 10
4750.1188166795927827
 20
529.5625622966617811
 30
0.0
 40
0.1533362092681963
 50
280.8108858035514004
 51
284.5815115718813217
  0
ARC
  5
1E3DC
  8
0
 10
4750.1445946052799627
 20
529.5420290020682614
 30
0.0
 40
0.1301156461570389
 50
271.3136780305902107
 51
275.0889609174467978
  0
ARC
  5
1E3DD
  8
0
 10
4750.1502674639077668
 20
529.5626800368163458
 30
0.0
 40
0.1497592648052167
 50
281.2197331555410074
 51
284.1775842739630207
  0
LINE
  5
1E3DE
  8
0
 10
4750.1574201559533321
 20
529.4125867890182917
 30
0.0
 11
4750.1574201559533321
 21
529.4141649763164423
 31
0.0
  0
LINE
  5
1E3DF
  8
0
 10
4750.1771051953755887
 20
529.4154086106279919
 30
0.0
 11
4750.1771051953755887
 21
529.4169024830439412
 31
0.0
  0
ARC
  5
1E3E0
  8
0
 10
4750.0843381305776347
 20
530.0238080211418037
 30
0.0
 40
0.6111212176548336
 50
279.5053975996066811
 51
281.382146090967808
  0
ARC
  5
1E3E1
  8
0
 10
4750.1216100567125977
 20
529.5850053721732138
 30
0.0
 40
0.1758509211086622
 50
287.8169837092603984
 51
291.2198985445515973
  0
ARC
  5
1E3E2
  8
0
 10
4750.1776907035509794
 20
529.5499828345888318
 30
0.0
 40
0.1324138824705708
 50
269.0158926639816741
 51
273.2766067303390969
  0
ARC
  5
1E3E3
  8
0
 10
4750.0843597854136533
 20
530.0094260618325279
 30
0.0
 40
0.6001827260288783
 50
279.6781909236013917
 51
281.5903292616575868
  0
ARC
  5
1E3E4
  8
0
 10
4750.1535206435883083
 20
529.5848473908978349
 30
0.0
 40
0.171268099644161
 50
287.472673520756075
 51
290.9602022175893126
  0
ARC
  5
1E3E5
  8
0
 10
4750.2070859712821402
 20
529.557374946272148
 30
0.0
 40
0.1326863394784977
 50
269.0750467312349201
 51
273.3270912707271805
  0
LINE
  5
1E3E6
  8
0
 10
4750.1852590056214467
 20
529.4177854174939739
 30
0.0
 11
4750.1852590056214467
 21
529.4210774680267377
 31
0.0
  0
LINE
  5
1E3E7
  8
0
 10
4750.2049440450618931
 20
529.4214815568006998
 30
0.0
 11
4750.2049440450618931
 21
529.4247058962420169
 31
0.0
  0
ARC
  5
1E3E8
  8
0
 10
4750.0843142605890534
 20
530.0465467769793122
 30
0.0
 40
0.6239319347237892
 50
279.3106975990261276
 51
281.1476535099895955
  0
ARC
  5
1E3E9
  8
0
 10
4750.0794051364882762
 20
529.6235118161301898
 30
0.0
 40
0.2198396406380965
 50
295.8956545513585752
 51
298.7837370920815943
  0
ARC
  5
1E3EA
  8
0
 10
4750.2029841471921827
 20
529.5720401427246316
 30
0.0
 40
0.1488688355805692
 50
259.3283220024961224
 51
263.1618273026600718
  0
ARC
  5
1E3EB
  8
0
 10
4750.0843296082657616
 20
530.032716816959919
 30
0.0
 40
0.6168002791895431
 50
279.4178805746852845
 51
281.2767735936885174
  0
ARC
  5
1E3EC
  8
0
 10
4750.1114420992198575
 20
529.6215136937853458
 30
0.0
 40
0.215077024080245
 50
295.7685616248608085
 51
298.7180493391331879
  0
ARC
  5
1E3ED
  8
0
 10
4750.2320520730454518
 20
529.5797275439726945
 30
0.0
 40
0.1478468813245757
 50
259.4349318439896024
 51
263.2937162848601815
  0
LINE
  5
1E3EE
  8
0
 10
4750.1852590056214467
 20
529.4242303001334449
 30
0.0
 11
4750.1852590056214467
 21
529.4308348170211502
 31
0.0
  0
LINE
  5
1E3EF
  8
0
 10
4750.2049440449891335
 20
529.4278244777768805
 30
0.0
 11
4750.2049440449891335
 21
529.4343870639274883
 31
0.0
  0
ARC
  5
1E3F0
  8
0
 10
4750.0848772529443522
 20
530.0326152498023475
 30
0.0
 40
0.6155580610013459
 50
282.0227329876428257
 51
283.9030045212294908
  0
ARC
  5
1E3F1
  8
0
 10
4750.1198227098739153
 20
529.6119595200932508
 30
0.0
 40
0.203976085505434
 50
294.1440039761278058
 51
297.2120332046848716
  0
ARC
  5
1E3F2
  8
0
 10
4750.2104597366196685
 20
529.5606659683739963
 30
0.0
 40
0.1350310954123902
 50
266.9416092043014146
 51
271.1194657107814123
  0
ARC
  5
1E3F3
  8
0
 10
4750.0849140214977524
 20
530.0184693297337617
 30
0.0
 40
0.6065090524459582
 50
282.2012981893216761
 51
284.1111200727999062
  0
ARC
  5
1E3F4
  8
0
 10
4750.1516059727673564
 20
529.6130195029161314
 30
0.0
 40
0.1999751198701405
 50
293.9497391027347248
 51
297.0748323295933915
  0
ARC
  5
1E3F5
  8
0
 10
4750.2394916071989428
 20
529.5687538647512156
 30
0.0
 40
0.1338314681640335
 50
267.1266692168484269
 51
271.3417646922522977
  0
LINE
  5
1E3F6
  8
0
 10
4750.2130978552550005
 20
529.4256606460406829
 30
0.0
 11
4750.2130978552550005
 21
529.4305594354407276
 31
0.0
  0
LINE
  5
1E3F7
  8
0
 10
4750.2327828946454247
 20
529.4302618603409201
 30
0.0
 11
4750.2327828946454247
 21
529.435090649792528
 31
0.0
  0
ARC
  5
1E3F8
  8
0
 10
4750.216233757631926
 20
529.5542135988096106
 30
0.0
 40
0.1270017821685168
 50
277.4872947109839174
 51
281.9937742821966253
  0
ARC
  5
1E3F9
  8
0
 10
4750.0849369616043987
 20
530.0093528574602715
 30
0.0
 40
0.5995723866631946
 50
282.3424274897473083
 51
284.2755587502367121
  0
ARC
  5
1E3FA
  8
0
 10
4750.1590406395980608
 20
529.5794759526263533
 30
0.0
 40
0.1649473659452476
 50
285.5484633486216808
 51
289.13069152900772
  0
ARC
  5
1E3FB
  8
0
 10
4750.1869260537059745
 20
529.5468133312507462
 30
0.0
 40
0.1272999969768376
 50
277.3698657153879026
 51
280.2509860124982879
  0
ARC
  5
1E3FC
  8
0
 10
4750.1916467652536085
 20
529.5802379370326207
 30
0.0
 40
0.1586663025967489
 50
286.2672632183191013
 51
288.7412436145029915
  0
LINE
  5
1E3FD
  8
0
 10
4750.2327828946890804
 20
529.4270557267195727
 30
0.0
 11
4750.2327828946890804
 21
529.4282946616490335
 31
0.0
  0
LINE
  5
1E3FE
  8
0
 10
4750.2130978552550005
 20
529.4223165144890118
 30
0.0
 11
4750.2130978552550005
 21
529.423638052975889
 31
0.0
  0
ARC
  5
1E3FF
  8
0
 10
4750.2484331949908665
 20
529.5649336256789184
 30
0.0
 40
0.126842401245755
 50
275.5141786063667837
 51
280.0023471549429814
  0
ARC
  5
1E400
  8
0
 10
4750.085747132614415
 20
530.0178422728745318
 30
0.0
 40
0.6049893883723954
 50
284.8634450649531118
 51
286.8013297601095815
  0
ARC
  5
1E401
  8
0
 10
4750.1592112896760227
 20
529.6046994429142387
 30
0.0
 40
0.1900705922401975
 50
292.2216440982329004
 51
295.4659109475722971
  0
ARC
  5
1E402
  8
0
 10
4750.2194850292562478
 20
529.5558975156237693
 30
0.0
 40
0.1276805686139694
 50
275.2167339201488971
 51
279.6721652067863033
  0
ARC
  5
1E403
  8
0
 10
4750.0858320217057553
 20
530.0033186197777013
 30
0.0
 40
0.5938982454154785
 50
285.1391251901529813
 51
287.1161191338778167
  0
ARC
  5
1E404
  8
0
 10
4750.1916533358253218
 20
529.6071920576839602
 30
0.0
 40
0.1848186791041671
 50
291.9111264548571967
 51
295.2407654064256235
  0
LINE
  5
1E405
  8
0
 10
4750.2409367049240245
 20
529.4300318999748924
 30
0.0
 11
4750.2409367049240245
 21
529.4330958691252818
 31
0.0
  0
LINE
  5
1E406
  8
0
 10
4750.2606217443690184
 20
529.4357239767808778
 30
0.0
 11
4750.2606217443690184
 21
529.4386781940449964
 31
0.0
  0
ARC
  5
1E407
  8
0
 10
4750.2280938395770136
 20
529.5583106737292383
 30
0.0
 40
0.1273671724073049
 50
284.0121877423887895
 51
287.0118694590245809
  0
ARC
  5
1E408
  8
0
 10
4750.1987644232367529
 20
529.5996136754416739
 30
0.0
 40
0.175515710032057
 50
290.0481919501593211
 51
293.5086878074985748
  0
ARC
  5
1E409
  8
0
 10
4750.0870162426399474
 20
530.0022037537909227
 30
0.0
 40
0.5921245042363915
 50
287.8761998429459936
 51
289.8894295412079032
  0
ARC
  5
1E40A
  8
0
 10
4750.2569629980753234
 20
529.5677790762550785
 30
0.0
 40
0.1263684951059829
 50
284.4332518296699277
 51
289.0952413164665131
  0
ARC
  5
1E40B
  8
0
 10
4750.230801165511366
 20
529.606327668541212
 30
0.0
 40
0.1717820553499338
 50
290.9538305727181751
 51
293.1382507466370271
  0
LINE
  5
1E40C
  8
0
 10
4750.2884605939561879
 20
529.4445146028407407
 30
0.0
 11
4750.2884605939561879
 21
529.445398938940798
 31
0.0
  0
ARC
  5
1E40D
  8
0
 10
4750.0872578468251959
 20
529.9870454538504418
 30
0.0
 40
0.5786382892190496
 50
289.3193354740427026
 51
290.3477798853177205
  0
LINE
  5
1E40E
  8
0
 10
4750.2687755546567132
 20
529.4376152112406544
 30
0.0
 11
4750.2687755546567132
 21
529.4386658393407288
 31
0.0
  0
ARC
  5
1E40F
  8
0
 10
4750.234492025212603
 20
529.5966511711477551
 30
0.0
 40
0.1614253444427784
 50
289.5315120172828074
 51
290.1331823753101276
  0
ARC
  5
1E410
  8
0
 10
4750.2715657112794361
 20
529.5828074446951632
 30
0.0
 40
0.1351950430458566
 50
265.3568566910362279
 51
269.53320050365528
  0
ARC
  5
1E411
  8
0
 10
4750.0856668254782562
 20
530.0406937708884243
 30
0.0
 40
0.6179228525866327
 50
284.5530988868712257
 51
286.4473361828472093
  0
ARC
  5
1E412
  8
0
 10
4750.1104818553112636
 20
529.6467163098634501
 30
0.0
 40
0.2422461931779142
 50
299.8606031133264764
 51
302.5830661760539897
  0
ARC
  5
1E413
  8
0
 10
4750.2428989860700312
 20
529.5725718195102445
 30
0.0
 40
0.1364525186753609
 50
265.0370149462751783
 51
269.1760188624907073
  0
ARC
  5
1E414
  8
0
 10
4750.0857166290543319
 20
530.0267934532378149
 30
0.0
 40
0.6107147921993871
 50
284.7238949374676054
 51
286.6421988677914214
  0
ARC
  5
1E415
  8
0
 10
4750.1434606770117171
 20
529.6463658528113001
 30
0.0
 40
0.2358623791877179
 50
299.7842145548555095
 51
302.5791916306420717
  0
LINE
  5
1E416
  8
0
 10
4750.2606217442980778
 20
529.4416603418237628
 30
0.0
 11
4750.2606217442980778
 21
529.4480560838234169
 31
0.0
  0
LINE
  5
1E417
  8
0
 10
4750.2409367049222055
 20
529.4361334109479458
 30
0.0
 11
4750.2409367049222055
 21
529.4425968587519264
 31
0.0
  0
ARC
  5
1E418
  8
0
 10
4750.2802114200858341
 20
529.5778053154215286
 30
0.0
 40
0.1263602679813689
 50
273.7431007681157098
 51
278.2316402492323277
  0
ARC
  5
1E419
  8
0
 10
4750.0868525662481261
 20
530.0256296444827058
 30
0.0
 40
0.6082962065012929
 50
287.4017381362128276
 51
289.3556351963584916
  0
ARC
  5
1E41A
  8
0
 10
4750.1525405801294255
 20
529.6374881298528408
 30
0.0
 40
0.2247112444915412
 50
298.259321716661816
 51
301.1488856548861008
  0
ARC
  5
1E41B
  8
0
 10
4750.251625653733754
 20
529.5671844077672858
 30
0.0
 40
0.1278340519987767
 50
273.2769864276154976
 51
277.709906879452717
  0
ARC
  5
1E41C
  8
0
 10
4750.0869608860930384
 20
530.0113561112940488
 30
0.0
 40
0.5991047101347303
 50
287.6665769285148144
 51
289.653721308444517
  0
ARC
  5
1E41D
  8
0
 10
4750.1859653928268017
 20
529.6389755189861717
 30
0.0
 40
0.2174876159042146
 50
298.1167105570506237
 51
301.0994211738055242
  0
LINE
  5
1E41E
  8
0
 10
4750.2884605939307221
 20
529.4471537349719483
 30
0.0
 11
4750.2884605939307221
 21
529.4517146002317531
 31
0.0
  0
LINE
  5
1E41F
  8
0
 10
4750.2687755546567132
 20
529.4405059733406915
 30
0.0
 11
4750.2687755546567132
 21
529.4451743911406538
 31
0.0
  0
ARC
  5
1E420
  8
0
 10
4750.311583864558088
 20
529.5926690046858312
 30
0.0
 40
0.1253120100571448
 50
272.1565896766625769
 51
276.6713908083581828
  0
ARC
  5
1E421
  8
0
 10
4750.0883022181087654
 20
530.0327399270594242
 30
0.0
 40
0.6095410076099812
 50
289.9836841519302197
 51
291.9654482173439192
  0
ARC
  5
1E422
  8
0
 10
4750.1403607708762138
 20
529.6727104861331554
 30
0.0
 40
0.2640146921483263
 50
303.6801860921348748
 51
306.28746787257802
  0
ARC
  5
1E423
  8
0
 10
4750.2833678026991038
 20
529.5805822240075713
 30
0.0
 40
0.1276159030902432
 50
271.5285137358825978
 51
275.9580658041115839
  0
ARC
  5
1E424
  8
0
 10
4750.0884186897546897
 20
530.0187503375616416
 30
0.0
 40
0.6022270516434861
 50
290.2251225942222845
 51
292.234408427609992
  0
ARC
  5
1E425
  8
0
 10
4750.1723839250998935
 20
529.6769786096250527
 30
0.0
 40
0.259283130237145
 50
303.7142695260179721
 51
306.3710498494854733
  0
LINE
  5
1E426
  8
0
 10
4750.316299443617936
 20
529.4613027761266721
 30
0.0
 11
4750.316299443617936
 21
529.4674457513257266
 31
0.0
  0
LINE
  5
1E427
  8
0
 10
4750.2966144042557062
 20
529.4536556851408022
 30
0.0
 11
4750.2966144042557062
 21
529.459899396840683
 31
0.0
  0
ARC
  5
1E428
  8
0
 10
4750.088492279564889
 20
530.0097466425186212
 30
0.0
 40
0.5964380317218475
 50
290.422600876005788
 51
292.4542791096365022
  0
ARC
  5
1E429
  8
0
 10
4750.1950703955399149
 20
529.6297318678384727
 30
0.0
 40
0.2057388873595447
 50
296.469274055960625
 51
299.5746872702803785
  0
ARC
  5
1E42A
  8
0
 10
4750.2604369771561323
 20
529.5683682096622533
 30
0.0
 40
0.1256002265044585
 50
282.1031577952722955
 51
286.7404298591420115
  0
ARC
  5
1E42B
  8
0
 10
4750.0886873519712026
 20
529.9950829145026319
 30
0.0
 40
0.5851784595580377
 50
290.8132087596065958
 51
292.8899176099641863
  0
ARC
  5
1E42C
  8
0
 10
4750.2277737698741475
 20
529.6355429366220733
 30
0.0
 40
0.2001945273930092
 50
296.2442237799464237
 51
299.4302102800510283
  0
ARC
  5
1E42D
  8
0
 10
4750.2888461790071233
 20
529.5798841241143009
 30
0.0
 40
0.1244228322922739
 50
282.7469144820959173
 51
287.4426076266573773
  0
ARC
  5
1E42E
  8
0
 10
4750.0903520797355668
 20
530.0166498987705381
 30
0.0
 40
0.5986552290442
 50
293.0195421683768018
 51
295.0827752810611742
  0
ARC
  5
1E42F
  8
0
 10
4750.1610983850378034
 20
529.7004429332413338
 30
0.0
 40
0.2860168641661098
 50
302.4609967351416913
 51
304.8295637992465004
  0
ARC
  5
1E430
  8
0
 10
4750.2922007776787723
 20
529.5809173131447096
 30
0.0
 40
0.1238475337176438
 50
280.4250523662242927
 51
285.0950335528879123
  0
ARC
  5
1E431
  8
0
 10
4750.0906768434324476
 20
530.0020318964558328
 30
0.0
 40
0.5890634692932168
 50
293.3821003723084004
 51
295.485246936063902
  0
ARC
  5
1E432
  8
0
 10
4749.4771002630541261
 20
530.782508827145648
 30
0.0
 40
1.572794369620006
 50
303.4543445659372196
 51
303.8851744725498065
  0
ARC
  5
1E433
  8
0
 10
4750.3202619017465622
 20
529.5940850150708457
 30
0.0
 40
0.121994259007921
 50
281.2866314926865812
 51
286.0453148282422262
  0
LINE
  5
1E434
  8
0
 10
4750.3441382932378474
 20
529.4702865962245824
 30
0.0
 11
4750.3441382932378474
 21
529.4744500821915381
 31
0.0
  0
LINE
  5
1E435
  8
0
 10
4750.3244532539247302
 20
529.4613431128169623
 30
0.0
 11
4750.3244532539247302
 21
529.4656646689188619
 31
0.0
  0
LINE
  5
1E436
  8
0
 10
4750.2966144042284213
 20
529.4480909853358526
 30
0.0
 11
4750.2966144042284213
 21
529.4507980698250549
 31
0.0
  0
LINE
  5
1E437
  8
0
 10
4750.3162994436688678
 20
529.4559849964545037
 30
0.0
 11
4750.3162994436688678
 21
529.4585277915457482
 31
0.0
  0
LINE
  5
1E438
  8
0
 10
4750.2893679960561713
 20
529.5066068736747411
 30
0.0
 11
4750.2893679960561713
 21
529.4864605685407923
 31
0.0
  0
LINE
  5
1E439
  8
0
 10
4750.2893679960561713
 20
529.4864605685407923
 30
0.0
 11
4750.3235458518556698
 21
529.4864605685407923
 31
0.0
  0
LINE
  5
1E43A
  8
0
 10
4750.3235458518556698
 20
529.4864605685407923
 30
0.0
 11
4750.3235458518556698
 21
529.4976568786407825
 31
0.0
  0
LINE
  5
1E43B
  8
0
 10
4750.2678681525558204
 20
529.4996133851299192
 30
0.0
 11
4750.2678681525558204
 21
529.4864605685407923
 31
0.0
  0
LINE
  5
1E43C
  8
0
 10
4750.2678681525558204
 20
529.4864605685407923
 30
0.0
 11
4750.2336902967563219
 21
529.4864605685407923
 31
0.0
  0
LINE
  5
1E43D
  8
0
 10
4750.2336902967563219
 20
529.4864605685407923
 30
0.0
 11
4750.2336902967563219
 21
529.4902128054136483
 31
0.0
  0
ARC
  5
1E43E
  8
0
 10
4750.0934677148652554
 20
529.0753518910471485
 30
0.0
 40
0.4809131435795627
 50
59.1553702301707887
 51
61.4177841804880913
  0
ARC
  5
1E43F
  8
0
 10
4749.3773607989687662
 20
528.705012400402552
 30
0.0
 40
1.234322252569418
 50
39.9538072118139382
 51
40.474788796603157
  0
ARC
  5
1E440
  8
0
 10
4750.091097953130884
 20
529.0756660141787506
 30
0.0
 40
0.4859001020566996
 50
62.3885697209098709
 51
63.9253519262007899
  0
LINE
  5
1E441
  8
0
 10
4750.2966144042557062
 20
529.5091581691775673
 30
0.0
 11
4750.2966144042557062
 21
529.4864605685407923
 31
0.0
  0
LINE
  5
1E442
  8
0
 10
4750.3162994436561348
 20
529.5062275055406644
 30
0.0
 11
4750.3162994436561348
 21
529.4864605685407923
 31
0.0
  0
LINE
  5
1E443
  8
0
 10
4750.2606217443562855
 20
529.4974466850040926
 30
0.0
 11
4750.2606217443562855
 21
529.4864605685407923
 31
0.0
  0
LINE
  5
1E444
  8
0
 10
4750.2409367049558568
 20
529.4920338779901385
 30
0.0
 11
4750.2409367049558568
 21
529.4864605685407923
 31
0.0
  0
ARC
  5
1E445
  8
0
 10
4750.2825462034415978
 20
529.5034698194890552
 30
0.0
 40
0.0594730896371733
 50
345.1675006882845196
 51
347.2070383280689043
  0
ARC
  5
1E446
  8
0
 10
4750.0933140862061919
 20
529.0774403298795505
 30
0.0
 40
0.4812232978912089
 50
59.0860031622986668
 51
61.2939686001204791
  0
ARC
  5
1E447
  8
0
 10
4749.3774604166455902
 20
528.7080424556817206
 30
0.0
 40
1.234192377129351
 50
39.888168797210632
 51
40.5954729511078298
  0
ARC
  5
1E448
  8
0
 10
4750.3586775594149003
 20
529.174507317646885
 30
0.0
 40
0.3395136239851519
 50
95.7854658481993653
 51
97.4576874870372336
  0
ARC
  5
1E449
  8
0
 10
4750.0935673933454382
 20
529.0906563845321671
 30
0.0
 40
0.4807124983526792
 50
58.8653165058198482
 51
61.2950505624395774
  0
ARC
  5
1E44A
  8
0
 10
4750.0933097481765799
 20
530.0535730681091309
 30
0.0
 40
0.6049814602080045
 50
294.2846465940299936
 51
294.4944654382173894
  0
ARC
  5
1E44B
  8
0
 10
4750.3656165655556833
 20
529.6366697038414486
 30
0.0
 40
0.1353456475007925
 50
260.8690162792960905
 51
265.0681569474675143
  0
ARC
  5
1E44C
  8
0
 10
4750.0732841518993155
 20
529.7711935977318944
 30
0.0
 40
0.3890372422806629
 50
314.1242347784207141
 51
316.1798005291777258
  0
ARC
  5
1E44D
  8
0
 10
4750.0907346104586395
 20
530.0462610753810395
 30
0.0
 40
0.6095047790977605
 50
294.1957032516943968
 51
294.5667704844129844
  0
LINE
  5
1E44E
  8
0
 10
4750.3441382932560373
 20
529.491930263240647
 30
0.0
 11
4750.3441382932560373
 21
529.5030391380294077
 31
0.0
  0
LINE
  5
1E44F
  8
0
 10
4750.3244532539565625
 20
529.4995191703407045
 30
0.0
 11
4750.3244532539565625
 21
529.5122915650407549
 31
0.0
  0
ARC
  5
1E450
  8
0
 10
4750.2576643470702038
 20
529.5061667102805814
 30
0.0
 40
0.0845528853342777
 50
357.2596801710657246
 51
2.740318448075993
  0
ARC
  5
1E451
  8
0
 10
4750.0934849816758287
 20
529.0985972526052592
 30
0.0
 40
0.480878341672612
 50
58.8657811214824065
 51
61.2279513393565367
  0
ARC
  5
1E452
  8
0
 10
4749.3764337956372401
 20
528.7250910693622927
 30
0.0
 40
1.235532828871299
 50
39.7660359591717878
 51
39.999476751996923
  0
ARC
  5
1E453
  8
0
 10
4750.3583400149764202
 20
529.1804259232902723
 30
0.0
 40
0.3365227356269884
 50
95.4903833384361747
 51
97.17650505750089
  0
ARC
  5
1E454
  8
0
 10
4750.0915009752043261
 20
529.0845297817377286
 30
0.0
 40
0.4850230945725159
 50
62.3881101836116514
 51
62.7208891997171989
  0
LINE
  5
1E455
  8
0
 10
4750.3162994435851942
 20
529.5143123440290083
 30
0.0
 11
4750.3162994435851942
 21
529.5165973647109467
 31
0.0
  0
ARC
  5
1E456
  8
0
 10
4750.2178236672270941
 20
529.5019930306699507
 30
0.0
 40
0.1246646482828047
 50
10.1351714739050092
 51
11.3797003559358796
  0
ARC
  5
1E457
  8
0
 10
4750.0941815215082897
 20
529.1125471088178074
 30
0.0
 40
0.4795103465487028
 50
59.0842490056600198
 51
59.4707532245205996
  0
ARC
  5
1E458
  8
0
 10
4750.090728968069925
 20
530.0799031759984246
 30
0.0
 40
0.6095184685035314
 50
294.195706524434172
 51
294.5667654169660068
  0
ARC
  5
1E459
  8
0
 10
4750.3927641249756562
 20
529.6736127139737391
 30
0.0
 40
0.1558335966009281
 50
251.81797376330519
 51
255.5889638748672894
  0
ARC
  5
1E45A
  8
0
 10
4749.9809627064223605
 20
529.8303547141905483
 30
0.0
 40
0.4835336293039371
 50
318.6845827173448242
 51
320.4835482688321235
  0
ARC
  5
1E45B
  8
0
 10
4750.0907547309598158
 20
530.0672931103664496
 30
0.0
 40
0.6111688268810407
 50
294.2857098698154914
 51
294.4934045402969218
  0
LINE
  5
1E45C
  8
0
 10
4750.3441382932396664
 20
529.5111239766837343
 30
0.0
 11
4750.3441382932396664
 21
529.5255598912327741
 31
0.0
  0
ARC
  5
1E45D
  8
0
 10
4750.3960715540879391
 20
529.6585275532731885
 30
0.0
 40
0.1335468195987141
 50
259.6058216962186975
 51
263.873824936481185
  0
ARC
  5
1E45E
  8
0
 10
4750.0922828099310209
 20
530.0663681698665641
 30
0.0
 40
0.6074217203027449
 50
295.3441249870408001
 51
297.4168930230977139
  0
ARC
  5
1E45F
  8
0
 10
4749.9992424857273363
 20
529.8178742812303881
 30
0.0
 40
0.4635984214071146
 50
317.7579307666458135
 51
319.6003166616346221
  0
ARC
  5
1E460
  8
0
 10
4750.3693081278688624
 20
529.6423317208328854
 30
0.0
 40
0.1387426607332736
 50
258.837905548211495
 51
262.9552510890197823
  0
ARC
  5
1E461
  8
0
 10
4750.0923608911489282
 20
530.053438343671246
 30
0.0
 40
0.6072460182126407
 50
295.3438252251170866
 51
297.4171930680078049
  0
ARC
  5
1E462
  8
0
 10
4750.0292217512997013
 20
529.8217431143249314
 30
0.0
 40
0.4603706437510833
 50
318.1179318518397281
 51
319.9871334017096842
  0
LINE
  5
1E463
  8
0
 10
4750.3719771429459797
 20
529.5143998678962589
 30
0.0
 11
4750.3719771429459797
 21
529.5271722626355313
 31
0.0
  0
LINE
  5
1E464
  8
0
 10
4750.3522921035983018
 20
529.5046364746743848
 30
0.0
 11
4750.3522921035983018
 21
529.5174088694905095
 31
0.0
  0
ARC
  5
1E465
  8
0
 10
4750.0924583780870307
 20
530.045021020716149
 30
0.0
 40
0.6059452517708984
 50
295.391889901404511
 51
297.4706231617354888
  0
ARC
  5
1E466
  8
0
 10
4750.0901969022370395
 20
529.7581284957033176
 30
0.0
 40
0.3695436050721646
 50
313.0476221434673221
 51
315.1731341006275215
  0
ARC
  5
1E467
  8
0
 10
4750.3456325328716048
 20
529.613618148634373
 30
0.0
 40
0.1255875081304353
 50
268.5477132383909975
 51
273.0396680874632125
  0
ARC
  5
1E468
  8
0
 10
4750.0927134126695819
 20
530.0313076933706498
 30
0.0
 40
0.6019460911341854
 50
295.5458003110895788
 51
297.6413049167372264
  0
ARC
  5
1E469
  8
0
 10
4750.1194263312509065
 20
529.7654559531614495
 30
0.0
 40
0.3678061807123187
 50
313.3648012568627905
 51
315.5123157383109742
  0
ARC
  5
1E46A
  8
0
 10
4750.3729914377590831
 20
529.6292631244084532
 30
0.0
 40
0.1218697135100056
 50
269.5231343082900253
 51
274.1541367920412995
  0
LINE
  5
1E46B
  8
0
 10
4750.3719771428677632
 20
529.4980620974561134
 30
0.0
 11
4750.3719771428677632
 21
529.5073976318284394
 31
0.0
  0
LINE
  5
1E46C
  8
0
 10
4750.3522921035555555
 20
529.4882073344407445
 30
0.0
 11
4750.3522921035555555
 21
529.4976125048407312
 31
0.0
  0
ARC
  5
1E46D
  8
0
 10
4749.9325687372456741
 20
529.8769944792574051
 30
0.0
 40
0.5559904883029472
 50
322.2150901634187221
 51
323.4720561081497863
  0
ARC
  5
1E46E
  8
0
 10
4750.0926197735534515
 20
530.0736384058461681
 30
0.0
 40
0.6055827236061897
 50
295.3912677286002122
 51
297.4712455496871826
  0
ARC
  5
1E46F
  8
0
 10
4750.3976900269226462
 20
529.68146223925919
 30
0.0
 40
0.1614229084654534
 50
249.9884576262489873
 51
253.6660166965426981
  0
ARC
  5
1E470
  8
0
 10
4749.902794448559689
 20
529.8752155466371505
 30
0.0
 40
0.5591230549941202
 50
321.8438388517050157
 51
323.5073657098971012
  0
ARC
  5
1E471
  8
0
 10
4750.0924092351833679
 20
530.0864021625143323
 30
0.0
 40
0.6026254710730207
 50
295.5469812734746142
 51
297.6401232090178723
  0
LINE
  5
1E472
  8
0
 10
4750.3719771429323373
 20
529.5363397037224331
 30
0.0
 11
4750.3719771429323373
 21
529.5525489585874084
 31
0.0
  0
LINE
  5
1E473
  8
0
 10
4750.3522921035628315
 20
529.5265545766594641
 30
0.0
 11
4750.3522921035628315
 21
529.542694195783497
 31
0.0
  0
LINE
  5
1E474
  8
0
 10
4750.3719771429578032
 20
529.5525489586005961
 30
0.0
 11
4750.3722876267302127
 21
529.552440041604882
 31
0.0
  0
ARC
  5
1E475
  8
0
 10
4750.4268531106454247
 20
529.7205018570929269
 30
0.0
 40
0.1862935442302085
 50
243.6404571645664134
 51
246.972729638521713
  0
ARC
  5
1E476
  8
0
 10
4750.0901414999507324
 20
530.1011198911106703
 30
0.0
 40
0.6035862768604254
 50
292.8424992343634017
 51
294.885909621772214
  0
ARC
  5
1E477
  8
0
 10
4749.8495813625104347
 20
529.8901260777831794
 30
0.0
 40
0.5871161336903191
 50
322.3781475051673056
 51
323.9809048485544167
  0
ARC
  5
1E478
  8
0
 10
5525.1689568062338367
 20
2084.4273920867021843
 30
0.0
 40
1737.2679127153930949
 50
243.511453028569008
 51
243.5114708861152906
  0
ARC
  5
1E479
  8
0
 10
4750.089201022299676
 20
530.0970288861153676
 30
0.0
 40
0.6089930411633935
 50
291.7730390873477972
 51
293.0377554430140776
  0
ARC
  5
1E47A
  8
0
 10
4750.2776563606330456
 20
529.4912690373982969
 30
0.0
 40
0.0673943623284873
 50
35.6336281954047394
 51
42.2752593452948702
  0
ARC
  5
1E47B
  8
0
 10
4750.0903902084519359
 20
530.0884598983063825
 30
0.0
 40
0.6081665263891419
 50
293.452309283849786
 51
294.6601155492231214
  0
ARC
  5
1E47C
  8
0
 10
4749.8778595511648746
 20
529.8912813441623939
 30
0.0
 40
0.5863549259604205
 50
322.6756497870846943
 51
324.2919774010875926
  0
LINE
  5
1E47D
  8
0
 10
4750.3441382932560373
 20
529.5357588640406448
 30
0.0
 11
4750.3441382932560373
 21
529.5535780912407517
 31
0.0
  0
LINE
  5
1E47E
  8
0
 10
4750.3275229075161405
 20
529.5366047581444491
 30
0.0
 11
4750.3183329289076937
 21
529.5366047581444491
 31
0.0
  0
LINE
  5
1E47F
  8
0
 10
4750.3244532539565625
 20
529.5366047582407418
 30
0.0
 11
4750.3244532539565625
 21
529.5448695917407349
 31
0.0
  0
ARC
  5
1E480
  8
0
 10
4749.7797026025000378
 20
529.9429319558456655
 30
0.0
 40
0.6787433970083839
 50
326.2623368940891737
 51
326.7163369564871118
  0
ARC
  5
1E481
  8
0
 10
4750.0904838945525626
 20
530.1078683166479095
 30
0.0
 40
0.5983318484079052
 50
293.0189846554370092
 51
295.0833330083784176
  0
ARC
  5
1E482
  8
0
 10
4750.4657465091031554
 20
529.7915884602224423
 30
0.0
 40
0.2737002764048007
 50
236.4823076239279942
 51
238.9200596001556107
  0
ARC
  5
1E483
  8
0
 10
4749.7410558867713917
 20
529.9504447175308997
 30
0.0
 40
0.6919310039821704
 50
325.9878663305677833
 51
327.4736062348147243
  0
ARC
  5
1E484
  8
0
 10
4750.0899029459978919
 20
530.1208378410855175
 30
0.0
 40
0.5909744854078
 50
293.3837364495913107
 51
293.7920535455277218
  0
LINE
  5
1E485
  8
0
 10
4750.344138293299693
 20
529.5659638538361378
 30
0.0
 11
4750.344138293299693
 21
529.5721631729135197
 31
0.0
  0
LINE
  5
1E486
  8
0
 10
4750.3150953525919249
 20
529.5314811200277063
 30
0.0
 11
4750.3150953525919249
 21
529.5323522952371604
 31
0.0
  0
ARC
  5
1E487
  8
0
 10
4749.8266737549647587
 20
529.9045737355180563
 30
0.0
 40
0.6115837110895035
 50
323.1861495936689153
 51
324.7538205369439197
  0
ARC
  5
1E488
  8
0
 10
4750.0883522397207344
 20
530.1032659775521552
 30
0.0
 40
0.6094012815174517
 50
289.9834570687709174
 51
291.9656755667722905
  0
ARC
  5
1E489
  8
0
 10
4750.4109020510895789
 20
529.7328815194703111
 30
0.0
 40
0.232373209100732
 50
237.7113769073471872
 51
240.5391994147325931
  0
ARC
  5
1E48A
  8
0
 10
4749.8010798002551383
 20
529.9030732239425561
 30
0.0
 40
0.6085361415030208
 50
322.9520768948023033
 51
324.5187940185928142
  0
ARC
  5
1E48B
  8
0
 10
4750.0883157045291227
 20
530.1152167633988483
 30
0.0
 40
0.6025114071680661
 50
290.2255969646145104
 51
292.2339344221016972
  0
ARC
  5
1E48C
  8
0
 10
4750.4369333042977814
 20
529.7486015127856263
 30
0.0
 40
0.2259883801755358
 50
237.7370543190345984
 51
240.6428289510735965
  0
LINE
  5
1E48D
  8
0
 10
4750.2966144042729866
 20
529.530555935094867
 30
0.0
 11
4750.2966144042729866
 21
529.5498570129281006
 31
0.0
  0
LINE
  5
1E48E
  8
0
 10
4750.3162994435851942
 20
529.5381022896153809
 30
0.0
 11
4750.3162994435851942
 21
529.5575041039637654
 31
0.0
  0
LINE
  5
1E48F
  8
0
 10
4750.3244532539292777
 20
529.557178440499456
 30
0.0
 11
4750.3244532539292777
 21
529.5784016739661411
 31
0.0
  0
ARC
  5
1E490
  8
0
 10
4750.0882725298415608
 20
530.1340612786231077
 30
0.0
 40
0.5863190858236096
 50
290.8142052682762824
 51
291.7364215846343996
  0
ARC
  5
1E491
  8
0
 10
4749.6887855444538218
 20
529.9661175595422264
 30
0.0
 40
0.716896176402755
 50
326.5256072735024873
 51
327.9798595750924051
  0
ARC
  5
1E492
  8
0
 10
4750.464592632158201
 20
529.7928087132387418
 30
0.0
 40
0.2845189776875345
 50
231.3187447054318966
 51
233.8150446962046942
  0
ARC
  5
1E493
  8
0
 10
4750.0885066291912153
 20
530.122081096448369
 30
0.0
 40
0.5963987710951829
 50
290.4225342472843749
 51
292.4543462427769214
  0
ARC
  5
1E494
  8
0
 10
4749.7178881717918557
 20
529.9635097863560986
 30
0.0
 40
0.7157090468387624
 50
326.7315644958836174
 51
327.8005919190138115
  0
LINE
  5
1E495
  8
0
 10
4750.3162994436479494
 20
529.5708987963901109
 30
0.0
 11
4750.3162994436479494
 21
529.5851693712452288
 31
0.0
  0
LINE
  5
1E496
  8
0
 10
4750.2966144042948144
 20
529.563169074696134
 30
0.0
 11
4750.2966144042948144
 21
529.5860067797896136
 31
0.0
  0
ARC
  5
1E497
  8
0
 10
4750.086874450799769
 20
530.1286706211603814
 30
0.0
 40
0.5993748192794623
 50
287.6670247055404843
 51
289.6532734916630147
  0
ARC
  5
1E498
  8
0
 10
4749.750082786729763
 20
529.9193041792078702
 30
0.0
 40
0.6323746976018862
 50
323.5779854604315915
 51
325.107835306523782
  0
ARC
  5
1E499
  8
0
 10
4750.4279968626933623
 20
529.7659884271114379
 30
0.0
 40
0.2791595174329199
 50
232.7267260040455028
 51
235.2246951028785986
  0
ARC
  5
1E49A
  8
0
 10
4750.0868691523710368
 20
530.1170934943604607
 30
0.0
 40
0.608243609226383
 50
287.4016536473395718
 51
289.3557196852315201
  0
ARC
  5
1E49B
  8
0
 10
4749.7754098349350897
 20
529.9194363051833534
 30
0.0
 40
0.6362023973875762
 50
323.7482894169536962
 51
325.2752131419546231
  0
ARC
  5
1E49C
  8
0
 10
4750.4545720684109256
 20
529.7816097969842986
 30
0.0
 40
0.2735958614022593
 50
232.616880271507199
 51
235.1683486525597004
  0
LINE
  5
1E49D
  8
0
 10
4750.2884605939561879
 20
529.5432283718406552
 30
0.0
 11
4750.2884605939561879
 21
529.5642122959724247
 31
0.0
  0
LINE
  5
1E49E
  8
0
 10
4750.2687755546567132
 20
529.5366881627406883
 30
0.0
 11
4750.2687755546567132
 21
529.5575645343407132
 31
0.0
  0
LINE
  5
1E49F
  8
0
 10
4750.297818495345382
 20
529.5248816188086494
 30
0.0
 11
4750.2983031136527643
 21
529.5254919675262499
 31
0.0
  0
ARC
  5
1E4A0
  8
0
 10
4750.4028607589552848
 20
529.7226196413380421
 30
0.0
 40
0.2231403615969642
 50
239.1573225499001865
 51
242.0582652242999018
  0
ARC
  5
1E4A1
  8
0
 10
4750.086741718925623
 20
530.1099854223282364
 30
0.0
 40
0.6130846038275087
 50
287.2723871775363023
 51
289.2094803090759001
  0
ARC
  5
1E4A2
  8
0
 10
4749.8539359426576993
 20
529.8555780054396109
 30
0.0
 40
0.5307282267982193
 50
319.737984299103573
 51
321.4111863031930056
  0
ARC
  5
1E4A3
  8
0
 10
3350.6858200788078648
 20
-1816.9151922364640086
 30
0.0
 40
2732.1288721358350813
 50
59.1851913742229598
 51
59.1852032077947783
  0
ARC
  5
1E4A4
  8
0
 10
4750.086710554358433
 20
530.1037442154504333
 30
0.0
 40
0.6161562046572948
 50
286.2779665725568066
 51
290.0366289527345884
  0
LINE
  5
1E4A5
  8
0
 10
4750.297818495345382
 20
529.5248816188086494
 30
0.0
 11
4750.297818495345382
 21
529.5257497761243712
 31
0.0
  0
LINE
  5
1E4A6
  8
0
 10
4750.2594176532384154
 20
529.5122877702793858
 30
0.0
 11
4750.2594176532384154
 21
529.5131498624602955
 31
0.0
  0
ARC
  5
1E4A7
  8
0
 10
4750.418219424090239
 20
529.7549282421408634
 30
0.0
 40
0.2682441528796401
 50
234.0190802640184131
 51
236.5764790362927101
  0
ARC
  5
1E4A8
  8
0
 10
4750.0856636898497527
 20
530.123183328310688
 30
0.0
 40
0.6109106030709346
 50
284.7242025005801906
 51
286.6418915181702118
  0
ARC
  5
1E4A9
  8
0
 10
4749.8045432998533215
 20
529.8721689272219919
 30
0.0
 40
0.5531062100971642
 50
320.4610180248379265
 51
322.0909111561833811
  0
ARC
  5
1E4AA
  8
0
 10
4750.3901627442946847
 20
529.7395633213177462
 30
0.0
 40
0.2710804172159344
 50
234.0701194026459007
 51
236.5996226075889126
  0
ARC
  5
1E4AB
  8
0
 10
4750.0856926406258935
 20
530.1112572201361672
 30
0.0
 40
0.6178262634649512
 50
284.5529509034129205
 51
286.4474843679440141
  0
ARC
  5
1E4AC
  8
0
 10
4749.8303900123546555
 20
529.8721534168123526
 30
0.0
 40
0.5567941616865557
 50
320.5964642370769866
 51
322.2202448099873777
  0
LINE
  5
1E4AD
  8
0
 10
4750.2606217443062633
 20
529.5187126222189136
 30
0.0
 11
4750.2606217443062633
 21
529.5378616696258405
 31
0.0
  0
LINE
  5
1E4AE
  8
0
 10
4750.2409367050040601
 20
529.5132533971145676
 30
0.0
 11
4750.2409367050040601
 21
529.5323347388468846
 31
0.0
  0
LINE
  5
1E4AF
  8
0
 10
4750.2426254143556434
 20
529.5080683490407409
 30
0.0
 11
4750.2421407959964199
 21
529.5075123229780729
 31
0.0
  0
LINE
  5
1E4B0
  8
0
 10
4750.2421407959964199
 20
529.5075123229780729
 30
0.0
 11
4750.2421407959964199
 21
529.508387149203827
 31
0.0
  0
LINE
  5
1E4B1
  8
0
 10
4750.2426254143556434
 20
529.5080683490407409
 30
0.0
 11
4750.2327828946563386
 21
529.5145431282406889
 31
0.0
  0
ARC
  5
1E4B2
  8
0
 10
4750.0848136913928101
 20
530.1106083632028003
 30
0.0
 40
0.6232789516555635
 50
280.9999093489312258
 51
284.620669653989296
  0
LINE
  5
1E4B3
  8
0
 10
4750.2037399539913167
 20
529.4987806132259038
 30
0.0
 11
4750.2032553356912103
 21
529.4991140342546032
 31
0.0
  0
LINE
  5
1E4B4
  8
0
 10
4750.2032553356912103
 20
529.4991140342546032
 30
0.0
 11
4750.2130978553768728
 21
529.510046164360233
 31
0.0
  0
LINE
  5
1E4B5
  8
0
 10
4750.2037399539558464
 20
529.4987806132406831
 30
0.0
 11
4750.2037399539558464
 21
529.4996523019035521
 31
0.0
  0
ARC
  5
1E4B6
  8
0
 10
4750.0848317718609906
 20
530.1168521544884698
 30
0.0
 40
0.6202142354347292
 50
281.9354353920463154
 51
283.8008824692440726
  0
ARC
  5
1E4B7
  8
0
 10
4750.0848932781336771
 20
530.1240594084913482
 30
0.0
 40
0.6154866370167957
 50
282.0226237635660027
 51
283.9031135119482769
  0
ARC
  5
1E4B8
  8
0
 10
4750.4135212215587671
 20
529.7774699483227323
 30
0.0
 40
0.3246490739514838
 50
229.6337433269843871
 51
231.8768425935701032
  0
ARC
  5
1E4B9
  8
0
 10
4749.7550186696853416
 20
529.8902376619857932
 30
0.0
 40
0.5749831447194687
 50
321.2207534317731188
 51
322.8144911537002031
  0
ARC
  5
1E4BA
  8
0
 10
4750.0848771172695706
 20
530.1356857794650068
 30
0.0
 40
0.6066711741493722
 50
282.2015533101048845
 51
284.1108647848869282
  0
ARC
  5
1E4BB
  8
0
 10
4750.4412332696319936
 20
529.7913570126268041
 30
0.0
 40
0.3209445694488657
 50
229.4968185973808943
 51
231.7697713578729122
  0
ARC
  5
1E4BC
  8
0
 10
4749.7807539345749319
 20
529.8887194291060041
 30
0.0
 40
0.5791868952249267
 50
321.3021985703019823
 51
322.8870986649724273
  0
LINE
  5
1E4BD
  8
0
 10
4750.2327828946563386
 20
529.5266044213406076
 30
0.0
 11
4750.2327828946563386
 21
529.5473204214097223
 31
0.0
  0
LINE
  5
1E4BE
  8
0
 10
4750.2130978552677334
 20
529.5220732070314398
 30
0.0
 11
4750.2130978552677334
 21
529.5427192071564377
 31
0.0
  0
ARC
  5
1E4BF
  8
0
 10
4750.4023171884546173
 20
529.7660275014385434
 30
0.0
 40
0.3122834906973766
 50
230.7998042987044869
 51
233.0932773527190136
  0
ARC
  5
1E4C0
  8
0
 10
4750.0843087941284466
 20
530.1290321239380319
 30
0.0
 40
0.6169161280345703
 50
279.4180554337166882
 51
281.2765993411784962
  0
ARC
  5
1E4C1
  8
0
 10
4749.8039521541086287
 20
529.8439058948232514
 30
0.0
 40
0.5000305155030544
 50
317.9776132907131228
 51
319.6910389795164065
  0
ARC
  5
1E4C2
  8
0
 10
4750.374241708167574
 20
529.753718115041238
 30
0.0
 40
0.3151710649117915
 50
230.8872421856596873
 51
233.1573519465742095
  0
ARC
  5
1E4C3
  8
0
 10
4750.0843157933841212
 20
530.1171948211815561
 30
0.0
 40
0.6239233045432701
 50
279.3106848934518212
 51
281.1476662155719168
  0
ARC
  5
1E4C4
  8
0
 10
4749.8300257017781405
 20
529.8421876760213536
 30
0.0
 40
0.5042121484178401
 50
318.0366430209198256
 51
319.7376518581580171
  0
LINE
  5
1E4C5
  8
0
 10
4750.2049440450100519
 20
529.5050436022756912
 30
0.0
 11
4750.2049440450100519
 21
529.524025805563042
 31
0.0
  0
LINE
  5
1E4C6
  8
0
 10
4750.1852590056760164
 20
529.5014913553671931
 30
0.0
 11
4750.1852590056760164
 21
529.5204316278668557
 31
0.0
  0
ARC
  5
1E4C7
  8
0
 10
4750.480201380996732
 20
529.8186312570850305
 30
0.0
 40
0.3289924695336142
 50
228.1309354097527944
 51
230.3933490083996105
  0
ARC
  5
1E4C8
  8
0
 10
4750.0857675611050581
 20
530.1414573340090328
 30
0.0
 40
0.5941302635028842
 50
285.1395114056148827
 51
287.1157332176446175
  0
ARC
  5
1E4C9
  8
0
 10
4749.6988756587361422
 20
529.9369768060186061
 30
0.0
 40
0.6557535078771759
 50
324.2538945928998828
 51
325.75340295893551
  0
ARC
  5
1E4CA
  8
0
 10
4750.4528129995569543
 20
529.8030321164811767
 30
0.0
 40
0.3335137453852789
 50
228.3332746520516991
 51
230.5588711125531063
  0
ARC
  5
1E4CB
  8
0
 10
4750.0857592665215634
 20
530.1301704781524222
 30
0.0
 40
0.6049449083923825
 50
284.8633741163333752
 51
286.8014013112775729
  0
ARC
  5
1E4CC
  8
0
 10
4749.7239813778705866
 20
529.9357859778317561
 30
0.0
 40
0.6603069528176611
 50
324.3619000730724906
 51
325.8549703121929042
  0
LINE
  5
1E4CD
  8
0
 10
4750.2606217443562855
 20
529.5510491989407456
 30
0.0
 11
4750.2606217443562855
 21
529.5736397712219059
 31
0.0
  0
LINE
  5
1E4CE
  8
0
 10
4750.2409367049976936
 20
529.5454668739408817
 30
0.0
 11
4750.2409367049976936
 21
529.5679476944071666
 31
0.0
  0
ARC
  5
1E4CF
  8
0
 10
4750.0868599864161297
 20
530.146981772257277
 30
0.0
 40
0.5798676685311123
 50
288.2835048778526925
 51
289.0831527929473168
  0
ARC
  5
1E4D0
  8
0
 10
4749.6362264237586714
 20
529.9831798651689496
 30
0.0
 40
0.7414352063367359
 50
327.1260278046555072
 51
328.5550162719808895
  0
ARC
  5
1E4D1
  8
0
 10
4750.4921885567937352
 20
529.8305441277345835
 30
0.0
 40
0.3417794874500242
 50
226.962747176794494
 51
229.1806768689158957
  0
ARC
  5
1E4D2
  8
0
 10
4750.0870222254916371
 20
530.135414499556191
 30
0.0
 40
0.5921060199013312
 50
287.8761684406605923
 51
289.8894609920591847
  0
ARC
  5
1E4D3
  8
0
 10
4749.6632093419493685
 20
529.9806094278189903
 30
0.0
 40
0.743322849156774
 50
327.2625032540195207
 51
328.5180564603007269
  0
LINE
  5
1E4D4
  8
0
 10
4750.2687755546567132
 20
529.5718940774406747
 30
0.0
 11
4750.2687755546567132
 21
529.5963882388407455
 31
0.0
  0
LINE
  5
1E4D5
  8
0
 10
4750.2884605939561879
 20
529.5786271770407438
 30
0.0
 11
4750.2884605939561879
 21
529.595325007149313
 31
0.0
  0
ARC
  5
1E4D6
  8
0
 10
4749.6118295839369239
 20
529.9967708501242214
 30
0.0
 40
0.7662406786254771
 50
327.8568105219795257
 51
328.9196920205911852
  0
ARC
  5
1E4D7
  8
0
 10
4750.085937464556082
 20
530.1478691582384499
 30
0.0
 40
0.585435574697709
 50
285.3526231944182996
 51
287.3605345323790061
  0
ARC
  5
1E4D8
  8
0
 10
4750.5264849464037979
 20
529.8697721434127743
 30
0.0
 40
0.4044622779094233
 50
223.0859698937335907
 51
225.0900361379428887
  0
ARC
  5
1E4D9
  8
0
 10
4749.5847821256538737
 20
530.000633546661561
 30
0.0
 40
0.7638641256018767
 50
327.7909160103554882
 51
329.0359632065350866
  0
LINE
  5
1E4DA
  8
0
 10
4750.2409367049203865
 20
529.5833250522482558
 30
0.0
 11
4750.2409367049203865
 21
529.6073866617141448
 31
0.0
  0
LINE
  5
1E4DB
  8
0
 10
4750.2606217442898924
 20
529.5891024676277539
 30
0.0
 11
4750.2606217442898924
 21
529.6030071515741611
 31
0.0
  0
ARC
  5
1E4DC
  8
0
 10
4749.5678458767433767
 20
530.0095502319741172
 30
0.0
 40
0.7797263943787596
 50
328.5156107675261978
 51
329.0304287148779849
  0
ARC
  5
1E4DD
  8
0
 10
4750.0850737580376517
 20
530.1598399838519526
 30
0.0
 40
0.5767498849458881
 50
282.8250650185481163
 51
284.8391338672906272
  0
ARC
  5
1E4DE
  8
0
 10
4750.5699741643229572
 20
529.9123603231583957
 30
0.0
 40
0.4759318886661387
 50
219.598676828980814
 51
221.4228354851811957
  0
ARC
  5
1E4DF
  8
0
 10
4749.5411344831918541
 20
530.0143671957846436
 30
0.0
 40
0.776355519718182
 50
328.5238723007745989
 51
328.9395829255055901
  0
LINE
  5
1E4E0
  8
0
 10
4750.2130978553714158
 20
529.5974786584685035
 30
0.0
 11
4750.2130978553714158
 21
529.6126651835041912
 31
0.0
  0
LINE
  5
1E4E1
  8
0
 10
4750.2327828946490627
 20
529.6023254631918462
 30
0.0
 11
4750.2327828946490627
 21
529.6090428857423831
 31
0.0
  0
ARC
  5
1E4E2
  8
0
 10
4750.5139793449470744
 20
529.8587750412378909
 30
0.0
 40
0.3919224846310534
 50
224.1532051414120872
 51
226.1822828277292103
  0
ARC
  5
1E4E3
  8
0
 10
4750.0849507114553489
 20
530.1535460201713477
 30
0.0
 40
0.5867060950813557
 50
282.6161287041792889
 51
284.5941020152362739
  0
ARC
  5
1E4E4
  8
0
 10
4749.647370359452907
 20
529.9560359995424506
 30
0.0
 40
0.6787453731030298
 50
324.9837137912904268
 51
326.4589347906941157
  0
ARC
  5
1E4E5
  8
0
 10
4750.4842160830330613
 20
529.8418305345034014
 30
0.0
 40
0.3933315566034444
 50
224.4133030262993884
 51
226.4263250935470921
  0
ARC
  5
1E4E6
  8
0
 10
4750.0849389348877594
 20
530.1425727486710002
 30
0.0
 40
0.5995638109342371
 50
282.3424137825970774
 51
284.2755726901547746
  0
ARC
  5
1E4E7
  8
0
 10
4749.6733468232359883
 20
529.9528437616794463
 30
0.0
 40
0.6827157058047667
 50
325.0275322426916205
 51
326.4956885750955848
  0
LINE
  5
1E4E8
  8
0
 10
4750.2130978553550449
 20
529.5568662910604871
 30
0.0
 11
4750.2130978553550449
 21
529.5810057582420995
 31
0.0
  0
LINE
  5
1E4E9
  8
0
 10
4750.2327828946117734
 20
529.5615228997846771
 30
0.0
 11
4750.2327828946117734
 21
529.5857699308292013
 31
0.0
  0
ARC
  5
1E4EA
  8
0
 10
4750.0843831459142166
 20
530.1648960757012219
 30
0.0
 40
0.5770008056522139
 50
280.0686451868555764
 51
282.0604794791306063
  0
ARC
  5
1E4EB
  8
0
 10
4749.5954633608853328
 20
529.9764411434803151
 30
0.0
 40
0.7014272783888225
 50
325.773305582496107
 51
327.2300647943234253
  0
ARC
  5
1E4EC
  8
0
 10
4750.5263948876054201
 20
529.885803116785155
 30
0.0
 40
0.4642592945878693
 50
220.8874819528892033
 51
222.7100171210400958
  0
ARC
  5
1E4ED
  8
0
 10
4750.0844027262519376
 20
530.1540811792749537
 30
0.0
 40
0.5918365314957461
 50
279.8117972958348219
 51
281.7518482268845901
  0
ARC
  5
1E4EE
  8
0
 10
4749.6224210070276968
 20
529.9712685494722564
 30
0.0
 40
0.7047263385992533
 50
325.7505013623901959
 51
327.1994195944650983
  0
ARC
  5
1E4EF
  8
0
 10
4750.5558111718555665
 20
529.9011463499878118
 30
0.0
 40
0.4619709683499938
 50
220.579827574353601
 51
222.4221261049040947
  0
LINE
  5
1E4F0
  8
0
 10
4750.1852590056887493
 20
529.5709015406855542
 30
0.0
 11
4750.1852590056887493
 21
529.596781658846453
 31
0.0
  0
LINE
  5
1E4F1
  8
0
 10
4750.2049440450564362
 20
529.5746501907407264
 30
0.0
 11
4750.2049440450564362
 21
529.6006310676407338
 31
0.0
  0
ARC
  5
1E4F2
  8
0
 10
4749.5689232771510433
 20
529.9924215415577464
 30
0.0
 40
0.7290039251421102
 50
326.5393051840997032
 51
327.9694672449559221
  0
ARC
  5
1E4F3
  8
0
 10
4750.084038362557294
 20
530.1649808662349415
 30
0.0
 40
0.5819957697941427
 50
277.2435024935830938
 51
279.2016612914264897
  0
ARC
  5
1E4F4
  8
0
 10
4750.5748616855689761
 20
529.9297918288145866
 30
0.0
 40
0.5397520226512557
 50
217.6618734783070863
 51
219.3402541449372904
  0
ARC
  5
1E4F5
  8
0
 10
4749.5430415424925741
 20
529.998155176052137
 30
0.0
 40
0.723870804838655
 50
326.6307972099003791
 51
328.0749639957030013
  0
ARC
  5
1E4F6
  8
0
 10
4750.0840237615875594
 20
530.1754625413735766
 30
0.0
 40
0.5648854903404579
 50
277.4656314540584958
 51
279.3534214834922977
  0
ARC
  5
1E4F7
  8
0
 10
4750.6053596164847477
 20
529.9448434326981214
 30
0.0
 40
0.5385473641367275
 50
217.3796208133256869
 51
219.0199454425572867
  0
LINE
  5
1E4F8
  8
0
 10
4750.1771051953182905
 20
529.5904744339837862
 30
0.0
 11
4750.1771051953182905
 21
529.6179327168573536
 31
0.0
  0
LINE
  5
1E4F9
  8
0
 10
4750.1574201559506037
 20
529.5876298564872968
 30
0.0
 11
4750.1574201559506037
 21
529.6153655975399488
 31
0.0
  0
ARC
  5
1E4FA
  8
0
 10
4749.5198570238526372
 20
530.011671488577349
 30
0.0
 40
0.7471491149657843
 50
327.3959805418269866
 51
328.4018023864098836
  0
ARC
  5
1E4FB
  8
0
 10
4750.0838391608558595
 20
530.175072598241627
 30
0.0
 40
0.5697564669008467
 50
274.6048718103032797
 51
276.5940273070864919
  0
ARC
  5
1E4FC
  8
0
 10
4750.6304810423716845
 20
529.9743070972934902
 30
0.0
 40
0.6210483131570392
 50
214.6755076880970989
 51
216.2408444982918923
  0
LINE
  5
1E4FD
  8
0
 10
4750.1197387865922792
 20
529.6209753050128484
 30
0.0
 11
4750.1208466682537619
 21
529.622724037769558
 31
0.0
  0
LINE
  5
1E4FE
  8
0
 10
4750.1295813063115929
 20
529.6071552735328396
 30
0.0
 11
4750.1295813063115929
 21
529.6222524588780516
 31
0.0
  0
LINE
  5
1E4FF
  8
0
 10
4750.1492663456810988
 20
529.6090852175860846
 30
0.0
 11
4750.1492663456810988
 21
529.6208237196029813
 31
0.0
  0
ARC
  5
1E500
  8
0
 10
4750.0837549382058569
 20
530.1780443344956666
 30
0.0
 40
0.5674820737786338
 50
271.8164125315701085
 51
273.8064059316367889
  0
ARC
  5
1E501
  8
0
 10
4749.5535926157699578
 20
529.9767580619314913
 30
0.0
 40
0.6590590676838037
 50
324.7639054883928225
 51
326.2753978785340223
  0
ARC
  5
1E502
  8
0
 10
4750.580195562631161
 20
529.9484117267544434
 30
0.0
 40
0.6018831058492417
 50
215.7788363161239999
 51
217.3516428769517859
  0
ARC
  5
1E503
  8
0
 10
4750.0837544310816156
 20
530.1677001454531819
 30
0.0
 40
0.584730743107031
 50
271.7628636550784904
 51
273.69401432097618
  0
ARC
  5
1E504
  8
0
 10
4749.5814147306773521
 20
529.9680646386517537
 30
0.0
 40
0.6625540941176246
 50
324.5920151727992788
 51
326.0887215170542959
  0
ARC
  5
1E505
  8
0
 10
4750.6115169224485726
 20
529.9616404999420638
 30
0.0
 40
0.6021346680416437
 50
215.5192902105380028
 51
217.1009508054314097
  0
LINE
  5
1E506
  8
0
 10
4750.1017424567307899
 20
529.5832461499711599
 30
0.0
 11
4750.1017424567307899
 21
529.6108474081663644
 31
0.0
  0
LINE
  5
1E507
  8
0
 10
4750.1214274960566399
 20
529.5841842655406708
 30
0.0
 11
4750.1214274960566399
 21
529.6118140964782697
 31
0.0
  0
ARC
  5
1E508
  8
0
 10
4750.6551362557320317
 20
529.9947566405246562
 30
0.0
 40
0.666855885971263
 50
213.8379751741989878
 51
214.1752993063088866
  0
ARC
  5
1E509
  8
0
 10
4749.5280670332485897
 20
529.9929602600907401
 30
0.0
 40
0.6855797283275357
 50
325.5764167781310903
 51
327.0596759081990967
  0
LINE
  5
1E50A
  8
0
 10
4750.093588646455828
 20
529.6053975310408077
 30
0.0
 11
4750.093588646455828
 21
529.6235563093202927
 31
0.0
  0
ARC
  5
1E50B
  8
0
 10
4750.0838217427717609
 20
530.1686899796366106
 30
0.0
 40
0.5808372813702686
 50
274.518562543241103
 51
276.4694178258894226
  0
ARC
  5
1E50C
  8
0
 10
4749.6046926490307669
 20
529.9530108078281501
 30
0.0
 40
0.638383388482801
 50
323.7842106516059744
 51
325.3071833180463841
  0
ARC
  5
1E50D
  8
0
 10
4750.5271870302558455
 20
529.9035134785714263
 30
0.0
 40
0.5228638383709342
 50
218.8068890950189882
 51
220.4971413096976107
  0
ARC
  5
1E50E
  8
0
 10
4750.0838309017290157
 20
530.1579131751243494
 30
0.0
 40
0.5957121609594813
 50
274.4046251640518221
 51
276.3063265527902104
  0
ARC
  5
1E50F
  8
0
 10
4749.6306756117191981
 20
529.946938416028047
 30
0.0
 40
0.6435825080562309
 50
323.686376189982127
 51
325.1931348186673745
  0
ARC
  5
1E510
  8
0
 10
4750.5576285972338155
 20
529.9170888036079532
 30
0.0
 40
0.5222397303434269
 50
218.5610826679098011
 51
220.2619842302300128
  0
LINE
  5
1E511
  8
0
 10
4750.1492663457320305
 20
529.5658057681589526
 30
0.0
 11
4750.1492663457320305
 21
529.5915513902380098
 31
0.0
  0
LINE
  5
1E512
  8
0
 10
4750.1295813063634341
 20
529.5639604168313781
 30
0.0
 11
4750.1295813063634341
 21
529.589658020441334
 31
0.0
  0
ARC
  5
1E513
  8
0
 10
4750.0839999286490638
 20
530.1584792601682921
 30
0.0
 40
0.5917317669720106
 50
277.1274494960291008
 51
279.0527486618216813
  0
ARC
  5
1E514
  8
0
 10
4749.6552061907468669
 20
529.930672752554301
 30
0.0
 40
0.6175380487441269
 50
322.8743243658922779
 51
324.4148744560324076
  0
ARC
  5
1E515
  8
0
 10
4750.4815075747583251
 20
529.8594715114747942
 30
0.0
 40
0.4499172351725729
 50
222.0805797935958878
 51
223.9185360656167916
  0
ARC
  5
1E516
  8
0
 10
4750.0840162304330079
 20
530.1473758499995483
 30
0.0
 40
0.6044562012703704
 50
276.9750983632087014
 51
278.8590641175924816
  0
ARC
  5
1E517
  8
0
 10
4749.6813328282296425
 20
529.9258920578206471
 30
0.0
 40
0.622082648911086
 50
322.8403768944838816
 51
324.3682120392335833
  0
ARC
  5
1E518
  8
0
 10
4750.5110298237113966
 20
529.8732798812179681
 30
0.0
 40
0.4483340181265767
 50
221.8570325870227862
 51
223.7089996374519103
  0
LINE
  5
1E519
  8
0
 10
4750.1771051953319329
 20
529.550130721205278
 30
0.0
 11
4750.1771051953319329
 21
529.5741181617371467
 31
0.0
  0
LINE
  5
1E51A
  8
0
 10
4750.1574201559606081
 20
529.5473932145004028
 30
0.0
 11
4750.1574201559606081
 21
529.5713200362221187
 31
0.0
  0
ARC
  5
1E51B
  8
0
 10
4750.0843369172780513
 20
530.1474636509473157
 30
0.0
 40
0.6003066318778282
 50
279.6783882286125049
 51
281.5901318541407932
  0
ARC
  5
1E51C
  8
0
 10
4749.6997834933608829
 20
529.913912731780897
 30
0.0
 40
0.6033257545184778
 50
322.0317577467441197
 51
323.5779779563530951
  0
ARC
  5
1E51D
  8
0
 10
4750.4422400589583049
 20
529.8157660106371623
 30
0.0
 40
0.3817623001956501
 50
225.6591049185973077
 51
227.6898030761198015
  0
ARC
  5
1E51E
  8
0
 10
4750.0843612580565605
 20
530.1360535464352779
 30
0.0
 40
0.6109936415945594
 50
279.5052017810644998
 51
281.382342172230608
  0
ARC
  5
1E51F
  8
0
 10
4749.7306686225347221
 20
529.9069682114483157
 30
0.0
 40
0.601462183167087
 50
322.0490380041181879
 51
323.6007643732414181
  0
ARC
  5
1E520
  8
0
 10
4750.4721621791231883
 20
529.8310854138959485
 30
0.0
 40
0.381077334169531
 50
225.4752258873573112
 51
227.5155987833975075
  0
LINE
  5
1E521
  8
0
 10
4750.1852590056487315
 20
529.5334484729419273
 30
0.0
 11
4750.1852590056487315
 21
529.5557012118254079
 31
0.0
  0
LINE
  5
1E522
  8
0
 10
4750.2049440450173279
 20
529.5370769011828997
 30
0.0
 11
4750.2049440450173279
 21
529.5593973511007562
 31
0.0
  0
ARC
  5
1E523
  8
0
 10
4750.0839852048202374
 20
530.1404685027459891
 30
0.0
 40
0.6115378386832909
 50
276.8968600057814911
 51
278.7586059051636198
  0
ARC
  5
1E524
  8
0
 10
4749.7562185206434151
 20
529.8636260923242389
 30
0.0
 40
0.5196549041406799
 50
318.8608021336165734
 51
320.5386941638287794
  0
ARC
  5
1E525
  8
0
 10
4750.4004700140039859
 20
529.7914855334182676
 30
0.0
 40
0.3697456047877242
 50
226.8458788255759089
 51
228.9024161534935047
  0
ARC
  5
1E526
  8
0
 10
4750.0840009718558576
 20
530.1288197285376782
 30
0.0
 40
0.6203312760969956
 50
276.7971629201791757
 51
278.6320209933101069
  0
ARC
  5
1E527
  8
0
 10
4749.7820574089337242
 20
529.8604761490126975
 30
0.0
 40
0.5244624281964096
 50
318.8721051141623093
 51
320.534741306185083
  0
ARC
  5
1E528
  8
0
 10
4750.4306181833680967
 20
529.8052936533687216
 30
0.0
 40
0.3698033357086498
 50
226.7223337604308142
 51
228.7825134211001057
  0
LINE
  5
1E529
  8
0
 10
4750.177105195405602
 20
529.5155151584735904
 30
0.0
 11
4750.177105195405602
 21
529.5360620207364946
 31
0.0
  0
LINE
  5
1E52A
  8
0
 10
4750.1574201560351867
 20
529.5128485315659645
 30
0.0
 11
4750.1574201560351867
 21
529.5333557981502963
 31
0.0
  0
ARC
  5
1E52B
  8
0
 10
4750.0839783392148092
 20
530.1215233979876302
 30
0.0
 40
0.6249641763022746
 50
276.7486294413949963
 51
278.5696465230892045
  0
ARC
  5
1E52C
  8
0
 10
4749.845281208956294
 20
529.7988430684406467
 30
0.0
 40
0.4315171983000516
 50
314.4705991151834041
 51
316.3319485686981238
  0
LINE
  5
1E52D
  8
0
 10
4750.147577636301321
 20
529.4909080713335925
 30
0.0
 11
4750.1480622546323502
 21
529.4905318919536512
 31
0.0
  0
LINE
  5
1E52E
  8
0
 10
4750.1480622546323502
 20
529.4905318919536512
 30
0.0
 11
4750.1480622546323502
 21
529.4913845658619493
 31
0.0
  0
ARC
  5
1E52F
  8
0
 10
4750.083969683291798
 20
530.1152730412026131
 30
0.0
 40
0.6280201917660503
 50
275.8575161493989185
 51
279.3927326553932176
  0
LINE
  5
1E530
  8
0
 10
4750.1864630967129415
 20
529.4956727979235893
 30
0.0
 11
4750.186947715066708
 21
529.4961799844594452
 31
0.0
  0
LINE
  5
1E531
  8
0
 10
4750.1864630967129415
 20
529.4956727979235893
 30
0.0
 11
4750.1864630967129415
 21
529.4965278384291878
 31
0.0
  0
ARC
  5
1E532
  8
0
 10
4750.3633962220337708
 20
529.742513564727119
 30
0.0
 40
0.3030087595737153
 50
232.0623130284037927
 51
234.386011175363393
  0
ARC
  5
1E533
  8
0
 10
4750.3892417843417206
 20
529.7812796569106695
 30
0.0
 40
0.3580565507460091
 50
227.9162168832959026
 51
230.004469144770411
  0
ARC
  5
1E534
  8
0
 10
4750.0838136177508204
 20
530.1325998836439339
 30
0.0
 40
0.620519121999115
 50
274.2298113546858076
 51
276.0548565599904123
  0
ARC
  5
1E535
  8
0
 10
4749.7997209625609685
 20
529.8185404979354871
 30
0.0
 40
0.4491017128923895
 50
315.4446617493874214
 51
317.2640691364302938
  0
ARC
  5
1E536
  8
0
 10
4750.3593665924172456
 20
529.7695299382421581
 30
0.0
 40
0.3580769552837016
 50
227.9940666163037122
 51
230.0797748476994968
  0
ARC
  5
1E537
  8
0
 10
4750.083820066239241
 20
530.1207424053191062
 30
0.0
 40
0.6275063387607928
 50
274.1820381728969096
 51
275.986596465092191
  0
ARC
  5
1E538
  8
0
 10
4749.825962165027704
 20
529.8149712796980566
 30
0.0
 40
0.453705583013479
 50
315.4456989492077241
 51
317.2463682754586216
  0
LINE
  5
1E539
  8
0
 10
4750.1492663456856462
 20
529.4966582846336678
 30
0.0
 11
4750.1492663456856462
 21
529.5155424137333284
 31
0.0
  0
LINE
  5
1E53A
  8
0
 10
4750.1295813063561582
 20
529.494906872540696
 30
0.0
 11
4750.1295813063561582
 21
529.513770909333175
 31
0.0
  0
ARC
  5
1E53B
  8
0
 10
4750.0837533605917997
 20
530.1238985964846506
 30
0.0
 40
0.6273506450692889
 50
271.6431649358169125
 51
273.4428409483855944
  0
ARC
  5
1E53C
  8
0
 10
4749.8355588862523291
 20
529.7752847603453574
 30
0.0
 40
0.385232601706323
 50
311.7144696241136899
 51
313.7068183774625822
  0
LINE
  5
1E53D
  8
0
 10
4750.0918999369996527
 20
529.4877201187102855
 30
0.0
 11
4750.0923845553543288
 21
529.4873015113146266
 31
0.0
  0
LINE
  5
1E53E
  8
0
 10
4750.0923845553543288
 20
529.4873015113146266
 30
0.0
 11
4750.0923845553543288
 21
529.4881528514464435
 31
0.0
  0
ARC
  5
1E53F
  8
0
 10
4750.3479579415479748
 20
529.7589596850936005
 30
0.0
 40
0.345807774302569
 50
229.0745713013577074
 51
231.1992651531720924
  0
LINE
  5
1E540
  8
0
 10
4750.1312700157022846
 20
529.4894613371194509
 30
0.0
 11
4750.1307853973812598
 21
529.4889994687273429
 31
0.0
  0
LINE
  5
1E541
  8
0
 10
4750.1307853973812598
 20
529.4889994687273429
 30
0.0
 11
4750.1307853973812598
 21
529.4898517089432062
 31
0.0
  0
ARC
  5
1E542
  8
0
 10
4750.0837527874300577
 20
530.1176006062001989
 30
0.0
 40
0.6303581969254186
 50
270.7846004563921838
 51
274.2789586255578911
  0
ARC
  5
1E543
  8
0
 10
4750.0837541811561096
 20
530.1609501129424871
 30
0.0
 40
0.5942155377017448
 50
271.7347404878768771
 51
273.6349951915748875
  0
ARC
  5
1E544
  8
0
 10
4749.6599331372199231
 20
529.907504486333778
 30
0.0
 40
0.5577939347330345
 50
320.752480711724786
 51
322.3789547257904928
  0
ARC
  5
1E545
  8
0
 10
4750.4801626181615575
 20
529.8789385582042542
 30
0.0
 40
0.5059059390545984
 50
219.8736369374231003
 51
221.582142683592707
  0
ARC
  5
1E546
  8
0
 10
4750.0837538612959179
 20
530.1499883514979956
 30
0.0
 40
0.6070826523329438
 50
271.6979919820506097
 51
273.5578814691504022
  0
ARC
  5
1E547
  8
0
 10
4749.6859894323833942
 20
529.9010755806540374
 30
0.0
 40
0.5630765177047059
 50
320.6529221177747218
 51
322.260281364676473
  0
ARC
  5
1E548
  8
0
 10
4750.5105887555928348
 20
529.8910481591860844
 30
0.0
 40
0.5058179668386572
 50
219.7026349107748047
 51
221.4172825980276116
  0
LINE
  5
1E549
  8
0
 10
4750.1214274960566399
 20
529.5440757802407461
 30
0.0
 11
4750.1214274960566399
 21
529.567930023408735
 31
0.0
  0
LINE
  5
1E54A
  8
0
 10
4750.1017424567044145
 20
529.5431722695789176
 30
0.0
 11
4750.1017424567044145
 21
529.5670069109534097
 31
0.0
  0
ARC
  5
1E54B
  8
0
 10
4750.083816413056411
 20
530.151120606838731
 30
0.0
 40
0.6040015656980139
 50
274.345436907218982
 51
276.220816203821812
  0
ARC
  5
1E54C
  8
0
 10
4749.708253400646754
 20
529.8848186636184892
 30
0.0
 40
0.5388771352859738
 50
319.78240542165031
 51
321.4314357919657823
  0
ARC
  5
1E54D
  8
0
 10
4750.4371774385481331
 20
529.8350157972788566
 30
0.0
 40
0.4354977330089917
 50
223.2049069483867925
 51
225.0645761176180883
  0
ARC
  5
1E54E
  8
0
 10
4750.0838250532324309
 20
530.1397694309703184
 30
0.0
 40
0.6147491123885404
 50
274.2685167228074761
 51
276.1108308110879079
  0
ARC
  5
1E54F
  8
0
 10
4749.7360326683683525
 20
529.8784956178328684
 30
0.0
 40
0.5415252620350143
 50
319.7375587146270277
 51
321.3767919868561194
  0
ARC
  5
1E550
  8
0
 10
4750.4667404096553582
 20
529.8472360336438669
 30
0.0
 40
0.4344397171285829
 50
223.0492950281802109
 51
224.9185714778143961
  0
LINE
  5
1E551
  8
0
 10
4750.1492663456820083
 20
529.5285134220631562
 30
0.0
 11
4750.1492663456820083
 21
529.5506756071220025
 31
0.0
  0
LINE
  5
1E552
  8
0
 10
4750.1295813063561582
 20
529.5267255202408023
 30
0.0
 11
4750.1295813063561582
 21
529.5488553281558097
 31
0.0
  0
ARC
  5
1E553
  8
0
 10
4750.0837536712379006
 20
530.142870504105872
 30
0.0
 40
0.6139516387917689
 50
271.6790068575439818
 51
273.5180427245235251
  0
ARC
  5
1E554
  8
0
 10
4749.7540190811596403
 20
529.8397563407697817
 30
0.0
 40
0.4662270720887992
 50
316.4449844316285976
 51
318.2299297693077733
  0
ARC
  5
1E555
  8
0
 10
4750.3909696681266723
 20
529.8100494114062258
 30
0.0
 40
0.4176631043873643
 50
224.270277457388886
 51
226.1725206837701876
  0
ARC
  5
1E556
  8
0
 10
4750.0837534484171556
 20
530.1313544658900128
 30
0.0
 40
0.6228788112894919
 50
271.6549568952631262
 51
273.4675801541818032
  0
ARC
  5
1E557
  8
0
 10
4749.781822120941797
 20
529.8330522463644456
 30
0.0
 40
0.4689805916126985
 50
316.3969577860787012
 51
318.1696042310767893
  0
ARC
  5
1E558
  8
0
 10
4750.4227949105834341
 20
529.8229138726084102
 30
0.0
 40
0.4202099839407124
 50
224.1776175173098125
 51
226.0715094832997067
  0
LINE
  5
1E559
  8
0
 10
4750.1214274960466355
 20
529.5096160323920458
 30
0.0
 11
4750.1214274960466355
 21
529.530075842168344
 31
0.0
  0
LINE
  5
1E55A
  8
0
 10
4750.1017424566780392
 20
529.5087354739856664
 30
0.0
 11
4750.1017424566780392
 21
529.5291824576413546
 31
0.0
  0
ARC
  5
1E55B
  8
0
 10
4750.1200736457667517
 20
529.0117821203241419
 30
0.0
 40
0.6164947585037472
 50
74.9390291410264382
 51
80.3004309953268631
  0
ARC
  5
1E55C
  8
0
 10
4750.1699405677391042
 20
529.1970989675213559
 30
0.0
 40
0.4245858119637738
 50
65.1677458211304099
 51
74.9390291410264382
  0
ARC
  5
1E55D
  8
0
 10
4750.2769103882183117
 20
529.4254117863567899
 30
0.0
 40
0.1724633005030564
 50
42.5122971730729802
 51
65.5652750458836664
  0
ARC
  5
1E55E
  8
0
 10
4750.365261223262678
 20
529.5056332375828561
 30
0.0
 40
0.0531305727926943
 50
316.8739613756421249
 51
43.1260386243578679
  0
ARC
  5
1E55F
  8
0
 10
4750.3175355668336124
 20
529.5403828297654627
 30
0.0
 40
0.1119541089057028
 50
310.2433353737175139
 51
320.593869054974391
  0
ARC
  5
1E560
  8
0
 10
4750.4030653474856081
 20
529.6559849486293388
 30
0.0
 40
0.1475361882888895
 50
310.0014345771875242
 51
320.592086663013788
  0
ARC
  5
1E561
  8
0
 10
4750.4668478281364514
 20
529.6554767241126456
 30
0.0
 40
0.1583000876996283
 50
311.6172584553402771
 51
332.860055488679393
  0
ARC
  5
1E562
  8
0
 10
4750.3681386901089354
 20
529.7665880725368197
 30
0.0
 40
0.3069245327907532
 50
293.5323148106573967
 51
311.6172584553402771
  0
ARC
  5
1E563
  8
0
 10
4750.2197913726440675
 20
530.0806785455985164
 30
0.0
 40
0.6542097060734572
 50
283.9716122916981931
 51
294.461081566205678
  0
ARC
  5
1E564
  8
0
 10
4750.1240921060825713
 20
528.8287572738247491
 30
0.0
 40
0.1638180048020243
 50
75.9269139149295711
 51
86.0139834216808339
  0
ARC
  5
1E565
  8
0
 10
4750.1592625209623293
 20
528.9690554568866219
 30
0.0
 40
0.0191786662626566
 50
51.7682161281732576
 51
75.9269139149295711
  0
ARC
  5
1E566
  8
0
 10
4750.169062474355087
 20
528.9815920231976634
 30
0.0
 40
0.0032669311026024
 50
309.2873570938616012
 51
50.7126429061384272
  0
ARC
  5
1E567
  8
0
 10
4750.1534653443986826
 20
528.9992903524388339
 30
0.0
 40
0.0268552810630207
 50
291.2833839350761878
 51
311.1333793031071764
  0
LINE
  5
1E568
  8
0
 10
4750.1639259939556723
 20
528.9876585012406167
 30
0.0
 11
4750.1629026107557365
 21
528.9684286723406785
 31
0.0
  0
ARC
  5
1E569
  8
0
 10
4750.1067084789410728
 20
528.8190169687743492
 30
0.0
 40
0.1528661706013949
 50
75.6812562881388828
 51
84.4753371463734624
  0
ARC
  5
1E56A
  8
0
 10
4750.1368320346045948
 20
528.9370350644624068
 30
0.0
 40
0.0310642842626708
 50
58.1335792598112775
 51
75.6812562881388828
  0
ARC
  5
1E56B
  8
0
 10
4750.151018054954875
 20
528.9598923401739512
 30
0.0
 40
0.0041626964309688
 50
15.0155148855737401
 51
57.8670381489566168
  0
ARC
  5
1E56C
  8
0
 10
4750.155038440359931
 20
528.9688460525932214
 30
0.0
 40
0.0078752385544616
 50
270.0013000897083089
 51
356.961954063188216
  0
ARC
  5
1E56D
  8
0
 10
4750.0837461267074104
 20
530.1765087586536538
 30
0.0
 40
0.571196034213056
 50
269.0126633960268236
 51
270.9873366039731764
  0
ARC
  5
1E56E
  8
0
 10
4750.0837461279643321
 20
530.1699539085723245
 30
0.0
 40
0.5821037802315346
 50
269.0311662528209808
 51
270.9688334925842241
  0
ARC
  5
1E56F
  8
0
 10
4750.5563666227435533
 20
529.9317059441455058
 30
0.0
 40
0.576492025080025
 50
216.6066498355413898
 51
218.2168356914716014
  0
ARC
  5
1E570
  8
0
 10
4749.6382994468040124
 20
529.9229328715796328
 30
0.0
 40
0.5808264303390337
 50
321.615776869402282
 51
323.2075388109931282
  0
ARC
  5
1E571
  8
0
 10
4750.0837461266555692
 20
530.1592827899771692
 30
0.0
 40
0.5970847413364773
 50
269.055476815101315
 51
270.944523184898685
  0
LINE
  5
1E572
  8
0
 10
4750.0935886463566931
 20
529.5622791776406757
 30
0.0
 11
4750.0935886463566931
 21
529.587933345540705
 31
0.0
  0
ARC
  5
1E573
  8
0
 10
4750.0837461271939901
 20
530.1523400997941735
 30
0.0
 40
0.6052233598535608
 50
269.0681791773084228
 51
270.9318207203335191
  0
ARC
  5
1E574
  8
0
 10
4750.459427263708676
 20
529.8625306781079871
 30
0.0
 40
0.482983811976763
 50
220.7596321739696918
 51
222.5170158547527137
  0
ARC
  5
1E575
  8
0
 10
4749.73467948922098
 20
529.8552857135410932
 30
0.0
 40
0.4876892926781908
 50
317.3865483325511718
 51
319.1233381153137998
  0
ARC
  5
1E576
  8
0
 10
4750.0837461266555692
 20
530.1410896274395554
 30
0.0
 40
0.6160719773989758
 50
269.0845893808191249
 51
270.9154106191808751
  0
LINE
  5
1E577
  8
0
 10
4750.0935886463421411
 20
529.5250962783339901
 30
0.0
 11
4750.0935886463421411
 21
529.5471967778147473
 31
0.0
  0
ARC
  5
1E578
  8
0
 10
4750.0837461266555692
 20
530.1337969360342868
 30
0.0
 40
0.6217183354935063
 50
269.0929037084741822
 51
270.9070962915258178
  0
ARC
  5
1E579
  8
0
 10
4750.3753125311141048
 20
529.79630630067129
 30
0.0
 40
0.4001367867940503
 50
225.2456255849675983
 51
227.1976766897790867
  0
ARC
  5
1E57A
  8
0
 10
4749.8189629990947651
 20
529.7902789895706519
 30
0.0
 40
0.4044866208462343
 50
312.7615417783189855
 51
314.6909174685259813
  0
ARC
  5
1E57B
  8
0
 10
4750.0837461266555692
 20
530.1220155156349847
 30
0.0
 40
0.628781880094369
 50
269.1030945898962727
 51
270.8969054101037273
  0
LINE
  5
1E57C
  8
0
 10
4750.0935886463403222
 20
529.493310674281588
 30
0.0
 11
4750.0935886463403222
 21
529.5121565146540661
 31
0.0
  0
ARC
  5
1E57D
  8
0
 10
4749.6111256306676296
 20
529.9317059441455058
 30
0.0
 40
0.576492025080025
 50
321.7831643085283986
 51
323.3933501644585249
  0
ARC
  5
1E57E
  8
0
 10
4750.52919280660808
 20
529.9229328715796328
 30
0.0
 40
0.5808264303390337
 50
216.7924611890069002
 51
218.3842231305976043
  0
LINE
  5
1E57F
  8
0
 10
4750.0739036070563088
 20
529.5622791776406757
 30
0.0
 11
4750.0739036070563088
 21
529.587933345540705
 31
0.0
  0
ARC
  5
1E580
  8
0
 10
4749.7080649897043259
 20
529.8625306781079871
 30
0.0
 40
0.482983811976763
 50
317.4829841452473147
 51
319.2403678260304218
  0
ARC
  5
1E581
  8
0
 10
4750.4328127641911124
 20
529.8552857135410932
 30
0.0
 40
0.4876892926781908
 50
220.8766618846862002
 51
222.6134516674487998
  0
LINE
  5
1E582
  8
0
 10
4750.0739036070717702
 20
529.5250962783339901
 30
0.0
 11
4750.0739036070717702
 21
529.5471967778147473
 31
0.0
  0
ARC
  5
1E583
  8
0
 10
4749.7921797222970781
 20
529.79630630067129
 30
0.0
 40
0.4001367867940503
 50
312.8023233102209133
 51
314.7543744150323732
  0
ARC
  5
1E584
  8
0
 10
4750.3485292543173273
 20
529.7902789895706519
 30
0.0
 40
0.4044866208462343
 50
225.3090825314739902
 51
227.2384582216809861
  0
LINE
  5
1E585
  8
0
 10
4750.0739036070717702
 20
529.493310674281588
 30
0.0
 11
4750.0739036070717702
 21
529.5121565146540661
 31
0.0
  0
ENDSEC
  0
EOF
