  0
SECTION
  2
HEADER
  9
$ACADVER
  1
AC1009
  9
$INSBASE
 10
4870.6082641829043496
 20
173.8464917644575962
 30
0.0
  9
$EXTMIN
 10
4862.1683032428718434
 20
168.8086139432344908
 30
-0.0000000000112498
  9
$EXTMAX
 10
4870.6863323186171328
 20
188.2425430467046112
 30
0.0000000000002956
  9
$LIMMIN
 10
0.0
 20
0.0
  9
$LIMMAX
 10
11.6929133858000007
 20
8.2677165353999982
  9
$ORTHOMODE
 70
     1
  9
$REGENMODE
 70
     1
  9
$FILLMODE
 70
     1
  9
$QTEXTMODE
 70
     0
  9
$MIRRTEXT
 70
     0
  9
$DRAGMODE
 70
     2
  9
$LTSCALE
 40
0.6431102362
  9
$OSMODE
 70
  4095
  9
$ATTMODE
 70
     1
  9
$TEXTSIZE
 40
0.2
  9
$TRACEWID
 40
0.05
  9
$TEXTSTYLE
  7
STANDARD
  9
$CLAYER
  8
0
  9
$CELTYPE
  6
BYLAYER
  9
$CECOLOR
 62
   256
  9
$DIMSCALE
 40
1.0
  9
$DIMASZ
 40
0.1875
  9
$DIMEXO
 40
0.0625
  9
$DIMDLI
 40
0.4443307087
  9
$DIMRND
 40
0.0
  9
$DIMDLE
 40
0.0
  9
$DIMEXE
 40
0.125
  9
$DIMTP
 40
0.01
  9
$DIMTM
 40
0.01
  9
$DIMTXT
 40
2.0
  9
$DIMCEN
 40
0.1052362205
  9
$DIMTSZ
 40
0.0
  9
$DIMTOL
 70
     1
  9
$DIMLIM
 70
     0
  9
$DIMTIH
 70
     1
  9
$DIMTOH
 70
     1
  9
$DIMSE1
 70
     0
  9
$DIMSE2
 70
     0
  9
$DIMTAD
 70
     0
  9
$DIMZIN
 70
     0
  9
$DIMBLK
  1

  9
$DIMASO
 70
     1
  9
$DIMSHO
 70
     1
  9
$DIMPOST
  1
\X
  9
$DIMAPOST
  1

  9
$DIMALT
 70
     1
  9
$DIMALTD
 70
     2
  9
$DIMALTF
 40
25.3999999999999986
  9
$DIMLFAC
 40
1.0
  9
$DIMTOFL
 70
     0
  9
$DIMTVP
 40
0.0
  9
$DIMTIX
 70
     0
  9
$DIMSOXD
 70
     0
  9
$DIMSAH
 70
     0
  9
$DIMBLK1
  1

  9
$DIMBLK2
  1

  9
$DIMSTYLE
  2
STANDARD
  9
$DIMCLRD
 70
     0
  9
$DIMCLRE
 70
     0
  9
$DIMCLRT
 70
     0
  9
$DIMTFAC
 40
1.0
  9
$DIMGAP
 40
0.09
  9
$LUNITS
 70
     2
  9
$LUPREC
 70
     4
  9
$SKETCHINC
 40
0.1
  9
$FILLETRAD
 40
0.0
  9
$AUNITS
 70
     0
  9
$AUPREC
 70
     0
  9
$MENU
  1
.
  9
$ELEVATION
 40
0.0
  9
$PELEVATION
 40
0.0
  9
$THICKNESS
 40
0.0
  9
$LIMCHECK
 70
     0
  9
$BLIPMODE
 70
     0
  9
$CHAMFERA
 40
0.0
  9
$CHAMFERB
 40
0.0
  9
$SKPOLY
 70
     0
  9
$TDCREATE
 40
2458060.468368056230247
  9
$TDUPDATE
 40
2460238.5019675930961967
  9
$TDINDWG
 40
0.4393241898
  9
$TDUSRTIMER
 40
0.4393241898
  9
$USRTIMER
 70
     1
  9
$ANGBASE
 50
0.0
  9
$ANGDIR
 70
     0
  9
$PDMODE
 70
     0
  9
$PDSIZE
 40
0.3125
  9
$PLINEWID
 40
0.0
  9
$COORDS
 70
     1
  9
$SPLFRAME
 70
     0
  9
$SPLINETYPE
 70
     6
  9
$SPLINESEGS
 70
     8
  9
$ATTDIA
 70
     1
  9
$ATTREQ
 70
     1
  9
$HANDLING
 70
     1
  9
$HANDSEED
  5
16F43
  9
$SURFTAB1
 70
     6
  9
$SURFTAB2
 70
     6
  9
$SURFTYPE
 70
     6
  9
$SURFU
 70
     6
  9
$SURFV
 70
     6
  9
$UCSNAME
  2

  9
$UCSORG
 10
0.0
 20
0.0
 30
0.0
  9
$UCSXDIR
 10
1.0
 20
0.0
 30
0.0
  9
$UCSYDIR
 10
0.0
 20
1.0
 30
0.0
  9
$PUCSNAME
  2

  9
$PUCSORG
 10
0.0
 20
0.0
 30
0.0
  9
$PUCSXDIR
 10
1.0
 20
0.0
 30
0.0
  9
$PUCSYDIR
 10
0.0
 20
1.0
 30
0.0
  9
$USERI1
 70
     0
  9
$USERI2
 70
     0
  9
$USERI3
 70
     0
  9
$USERI4
 70
     0
  9
$USERI5
 70
     0
  9
$USERR1
 40
0.0
  9
$USERR2
 40
0.0
  9
$USERR3
 40
0.0
  9
$USERR4
 40
0.0
  9
$USERR5
 40
0.0
  9
$WORLDVIEW
 70
     1
  9
$SHADEDGE
 70
     3
  9
$SHADEDIF
 70
    70
  9
$TILEMODE
 70
     1
  9
$MAXACTVP
 70
    64
  9
$PLIMCHECK
 70
     0
  9
$PEXTMIN
 10
1.0000000000000000E+20
 20
1.0000000000000000E+20
 30
1.0000000000000000E+20
  9
$PEXTMAX
 10
-1.0000000000000000E+20
 20
-1.0000000000000000E+20
 30
-1.0000000000000000E+20
  9
$PLIMMIN
 10
0.0
 20
0.0
  9
$PLIMMAX
 10
12.0
 20
9.0
  9
$UNITMODE
 70
     0
  9
$VISRETAIN
 70
     1
  9
$PLINEGEN
 70
     0
  9
$PSLTSCALE
 70
     1
  0
ENDSEC
  0
SECTION
  2
TABLES
  0
TABLE
  2
VPORT
 70
     1
  0
VPORT
  2
*ACTIVE
 70
     0
 10
0.0
 20
0.0
 11
1.0
 21
1.0
 12
466.1397201244944881
 22
72.0814371070301263
 13
0.0
 23
0.0
 14
1.0
 24
1.0
 15
0.0
 25
0.0
 16
0.0
 26
0.0
 36
75.4143529876733965
 17
4400.28759765625
 27
106.4441413879393963
 37
0.0
 40
19.596859545525561
 41
2.5251322751322749
 42
50.0
 43
0.0
 44
0.0
 50
0.0
 51
0.0
 71
     0
 72
   100
 73
     1
 74
     1
 75
     0
 76
     0
 77
     0
 78
     0
  0
ENDTAB
  0
TABLE
  2
LTYPE
 70
     3
  0
LTYPE
  2
CONTINUOUS
 70
     0
  3
Solid line
 72
    65
 73
     0
 40
0.0
  0
LTYPE
  2
PHANTOM2
 70
     0
  3
___ _ _ ___ _ _ ___ _ _ ___ _ _
 72
    65
 73
     6
 40
1.25
 49
0.625
 49
-0.125
 49
0.125
 49
-0.125
 49
0.125
 49
-0.125
  0
ENDTAB
  0
TABLE
  2
LAYER
 70
     2
  0
LAYER
  2
0
 70
     0
 62
   255
  6
CONTINUOUS
  0
LAYER
  2
DEFPOINTS
 70
     0
 62
     7
  6
CONTINUOUS
  0
ENDTAB
  0
TABLE
  2
STYLE
 70
     1
  0
STYLE
  2
STANDARD
 70
     0
 40
0.0
 41
0.8
 50
0.0
 71
     0
 42
0.2
  3
txt
  4

  0
ENDTAB
  0
TABLE
  2
VIEW
 70
     0
  0
ENDTAB
  0
TABLE
  2
UCS
 70
     0
  0
ENDTAB
  0
TABLE
  2
APPID
 70
    10
  0
APPID
  2
ACAD
 70
     0
  0
APPID
  2
ACAD_MLEADERVER
 70
     0
  0
APPID
  2
ACAD_EXEMPT_FROM_CAD_STANDARDS
 70
     0
  0
APPID
  2
ACAD_NAV_VCDISPLAY
 70
     0
  0
APPID
  2
ACAECLAYERSTANDARD
 70
     0
  0
APPID
  2
ACCMTRANSPARENCY
 70
     0
  0
APPID
  2
ACAD_DSTYLE_DIMJAG
 70
     0
  0
APPID
  2
ACAD_DSTYLE_DIMTALN
 70
     0
  0
APPID
  2
ACDBATTR
 70
     0
  0
APPID
  2
DCO15
 70
     0
  0
ENDTAB
  0
TABLE
  2
DIMSTYLE
 70
     2
  0
DIMSTYLE
  2
STANDARD
 70
     0
  3

  4

  5

  6

  7

 40
1.0
 41
0.1875
 42
0.0625
 43
0.38
 44
0.125
 45
0.0
 46
0.0
 47
0.01
 48
0.01
140
0.15625
141
0.09
142
0.0
143
25.3999999999999986
144
1.0
145
0.0
146
1.0
147
0.09
 71
     1
 72
     0
 73
     1
 74
     1
 75
     0
 76
     0
 77
     0
 78
     4
170
     0
171
     2
172
     0
173
     0
174
     0
175
     0
176
     0
177
     0
178
     0
  0
ENDTAB
  0
ENDSEC
  0
SECTION
  2
BLOCKS
  0
BLOCK
  8
0
  2
$MODEL_SPACE
 70
     0
 10
0.0
 20
0.0
 30
0.0
  3
$MODEL_SPACE
  1

  0
ENDBLK
  5
21
  8
0
  0
BLOCK
 67
     1
  8
0
  2
$PAPER_SPACE
 70
     0
 10
0.0
 20
0.0
 30
0.0
  3
$PAPER_SPACE
  1

  0
ENDBLK
  5
1D
 67
     1
  8
0
  0
BLOCK
  8
0
  2
_FILLED
 70
     0
 10
0.0
 20
0.0
 30
0.0
  3
_FILLED
  1

  0
SOLID
  5
CE96
  8
0
  6
BYBLOCK
 62
     0
 10
0.0
 20
0.0
 30
0.0
 11
-1.0
 21
0.1666666667
 31
0.0
 12
-1.0
 22
-0.1666666667
 32
0.0
 13
-1.0
 23
-0.1666666667
 33
0.0
  0
ENDBLK
  5
CE97
  8
0
  6
BYBLOCK
 62
     0
  0
ENDSEC
  0
SECTION
  2
ENTITIES
  0
ATTDEF
  5
9852
  8
DEFPOINTS
 10
4870.6092581583743595
 20
173.8456595111128991
 30
0.0
 40
0.001
  1
K-31265T-4
  3

  2
MODELNUMBER
 70
     0
1001
ACDBATTR
1070
     0
1070
     1
  0
ATTDEF
  5
9853
  8
DEFPOINTS
 10
4870.6092581583743595
 20
173.8439928444462907
 30
0.0
 40
0.001
  1
ATOM
  3

  2
TRADENAME
 70
     0
1001
ACDBATTR
1070
     0
1070
     1
  0
ATTDEF
  5
9854
  8
DEFPOINTS
 10
4870.6092581583743595
 20
173.8423261777795972
 30
0.0
 40
0.001
  1
BATH FAUCET
  3

  2
PRODUCT
 70
     0
1001
ACDBATTR
1070
     0
1070
     1
  0
LINE
  5
16AC8
  8
0
 10
4870.6082641829043496
 20
175.0964917644575962
 30
0.0
 11
4870.6082641829043496
 21
172.5964917644575962
 31
0.0
  0
LINE
  5
16AC9
  8
0
 10
4870.3759579983825461
 20
175.0964917644575962
 30
0.0
 11
4870.6082641829043496
 21
175.0964917644575962
 31
0.0
  0
LINE
  5
16ACA
  8
0
 10
4870.375957998307058
 20
172.5964917644575962
 30
0.0
 11
4870.6082641829043496
 21
172.5964917644575962
 31
0.0
  0
LINE
  5
16ACB
  8
0
 10
4869.8905341122899699
 20
174.5110987708110883
 30
0.0
 11
4869.3968603953189813
 21
174.5110987708110883
 31
0.0
  0
LINE
  5
16ACC
  8
0
 10
4869.8905341122899699
 20
173.1818847581039904
 30
0.0
 11
4869.3968603953189813
 21
173.1818847581039904
 31
0.0
  0
LINE
  5
16ACD
  8
0
 10
4869.9389728444039065
 20
174.4960888958410976
 30
0.0
 11
4869.9389728444039065
 21
173.1968946330740948
 31
0.0
  0
LINE
  5
16ACE
  8
0
 10
4870.0067378928570179
 20
174.5561105553013022
 30
0.0
 11
4870.3084989318203952
 21
175.0583252609569911
 31
0.0
  0
ARC
  5
16ACF
  8
0
 10
4869.9392788262939575
 20
174.5966440518006948
 30
0.0
 40
0.0787
 50
296.9999999496226906
 51
328.9999999966375981
  0
ARC
  5
16AD0
  8
0
 10
4870.3759579983825461
 20
175.0177917644575984
 30
0.0
 40
0.0787
 50
90.0
 51
148.9999999966404971
  0
LINE
  5
16AD1
  8
0
 10
4870.0067378928606558
 20
173.1368729736063017
 30
0.0
 11
4870.3084989317403597
 21
172.6346582679657899
 31
0.0
  0
ARC
  5
16AD2
  8
0
 10
4869.9392788262939575
 20
173.0963394771144976
 30
0.0
 40
0.0787
 50
30.9999999969171007
 51
63.0000000503763218
  0
ARC
  5
16AD3
  8
0
 10
4870.375957998307058
 20
172.675191764457594
 30
0.0
 40
0.0787
 50
210.9999999969213036
 51
270.0
  0
LINE
  5
16AD4
  8
0
 10
4869.9497292315736559
 20
174.5136417243753897
 30
0.0
 11
4869.975007878560973
 21
174.5265218383156878
 31
0.0
  0
ARC
  5
16AD5
  8
0
 10
4869.9586728444037362
 20
174.4960888958410976
 30
0.0
 40
0.0197
 50
116.9999999496747023
 51
179.999999999985306
  0
LINE
  5
16AD6
  8
0
 10
4869.9497292315736559
 20
173.1793418045396891
 30
0.0
 11
4869.975007878560973
 21
173.1664616905995047
 31
0.0
  0
ARC
  5
16AD7
  8
0
 10
4869.9586728444037362
 20
173.1968946330740948
 30
0.0
 40
0.0197
 50
180.0000000000243858
 51
243.0000000503260935
  0
LINE
  5
16AD8
  8
0
 10
4869.3484216633041797
 20
174.4272004258575919
 30
0.0
 11
4869.3484216633041797
 21
173.2657831030576006
 31
0.0
  0
LINE
  5
16AD9
  8
0
 10
4869.3968603953189813
 20
174.5110987708110883
 30
0.0
 11
4869.3484216633041797
 21
174.4272004258575919
 31
0.0
  0
LINE
  5
16ADA
  8
0
 10
4869.8905341122899699
 20
174.5110987708110883
 30
0.0
 11
4869.9389728444039065
 21
174.4272004258575919
 31
0.0
  0
LINE
  5
16ADB
  8
0
 10
4869.3968603953189813
 20
173.1818847581039904
 30
0.0
 11
4869.3484216633041797
 21
173.2657831030576006
 31
0.0
  0
LINE
  5
16ADC
  8
0
 10
4869.8905341122899699
 20
173.1818847581039904
 30
0.0
 11
4869.9389728444039065
 21
173.2657831030576006
 31
0.0
  0
ARC
  5
16ADD
  8
0
 10
4869.6396663282030204
 20
174.3494002174575996
 30
0.0
 40
0.291244664898784
 50
147.550056223205587
 51
212.4499437767931056
  0
ARC
  5
16ADE
  8
0
 10
4869.3670851904007577
 20
174.1760814850574945
 30
0.0
 40
0.0317721453227624
 50
327.5500562233971777
 51
32.4499437767929493
  0
ARC
  5
16ADF
  8
0
 10
4870.445188142997722
 20
173.8464917644575962
 30
0.0
 40
1.0967664796938441
 50
163.4431390690600949
 51
196.5568609309399051
  0
ARC
  5
16AE0
  8
0
 10
4869.346616118374186
 20
173.5172357614488874
 30
0.0
 40
0.0501476662972409
 50
337.8344723462205934
 51
19.4689639987677694
  0
ARC
  5
16AE1
  8
0
 10
4869.639766664428862
 20
173.3433444173975033
 30
0.0
 40
0.2913441845749542
 50
147.8648077346163916
 51
207.6198212453670067
  0
ARC
  5
16AE2
  8
0
 10
4869.6477281800453056
 20
174.3494002174575996
 30
0.0
 40
0.291244664358345
 50
327.5500561556065122
 51
32.4499438443936725
  0
ARC
  5
16AE3
  8
0
 10
4869.9436351592894425
 20
174.1760814850576082
 30
0.0
 40
0.0529561567499234
 50
161.220809599987092
 51
198.779190400012908
  0
ARC
  5
16AE4
  8
0
 10
4868.8422063670222997
 20
173.8464917644577099
 30
0.0
 40
1.096766477382775
 50
343.4431390331674265
 51
16.5568609668233613
  0
ARC
  5
16AE5
  8
0
 10
4869.9436398684811138
 20
173.5169020438576979
 30
0.0
 40
0.0529606152749725
 50
161.2224496852622906
 51
198.7775503149254916
  0
ARC
  5
16AE6
  8
0
 10
4869.6471736919183968
 20
173.3434386012376933
 30
0.0
 40
0.2917902738136153
 50
332.4051350129586808
 51
32.4155019348661924
  0
LINE
  5
16AE7
  8
0
 10
4869.381623116026276
 20
173.2082765000218103
 30
0.0
 11
4869.9057713916117791
 21
173.2082765000218103
 31
0.0
  0
ARC
  5
16AEC
  8
0
 10
4869.2704242928029998
 20
174.3732268260216074
 30
0.0
 40
0.0386
 50
0.0000000001367893
 51
82.2233046225252053
  0
ARC
  5
16AED
  8
0
 10
4869.1988629002316884
 20
170.5580222863665938
 30
0.0
 40
3.8542144677435339
 50
88.8584661035308443
 51
95.5837205446563161
  0
ARC
  5
16AEE
  8
0
 10
4868.897879573375576
 20
173.6366945575744012
 30
0.0
 40
0.7608645171965195
 50
95.5837205446563161
 51
112.5818974374926
  0
ARC
  5
16AEF
  8
0
 10
4868.7375722307842807
 20
174.0221514315088029
 30
0.0
 40
0.3434014101418144
 50
112.5818974374926
 51
146.5220591444978027
  0
ARC
  5
16AF0
  8
0
 10
4868.8458931008872241
 20
173.9505153706089118
 30
0.0
 40
0.4732672490715723
 50
146.5220591444978027
 51
169.0266663011809953
  0
ARC
  5
16AF1
  8
0
 10
4869.3646208366071733
 20
173.8499354357529114
 30
0.0
 40
1.0016561088154861
 50
169.0266663011809953
 51
185.843799379752312
  0
ARC
  5
16AF2
  8
0
 10
4869.2675620346317373
 20
173.8400015948417092
 30
0.0
 40
0.904090273421035
 50
185.843799379752312
 51
197.6618805585464997
  0
ARC
  5
16AF3
  8
0
 10
4868.7127243919467219
 20
173.6633369656717036
 30
0.0
 40
0.321805806051054
 50
197.6618805585464997
 51
233.3592965969284876
  0
ARC
  5
16AF4
  8
0
 10
4868.8858577468290605
 20
173.8961155623123886
 30
0.0
 40
0.6119110173572775
 50
233.3592965969284876
 51
259.6276376041354865
  0
ARC
  5
16AF5
  8
0
 10
4869.0881697409040498
 20
176.3066660582103111
 30
0.0
 40
3.0286255453178241
 50
264.0778765626861855
 51
267.4803503584491864
  0
ARC
  5
16AF6
  8
0
 10
4869.2631933339844181
 20
181.6163689534398884
 30
0.0
 40
8.3410950708192662
 50
267.8826822773061735
 51
270.5854517295338724
  0
LINE
  5
16AF7
  8
0
 10
4862.4566851946656243
 20
187.7108121900845958
 30
0.0
 11
4862.7389747744009583
 21
188.1997522189624874
 31
0.0
  0
LINE
  5
16AF8
  8
0
 10
4862.4801021876000959
 20
187.6288782278890039
 30
0.0
 11
4865.462885734743395
 21
186.0414854424845998
 31
0.0
  0
ARC
  5
16AF9
  8
0
 10
4862.5081062798299172
 20
187.6811951960247882
 30
0.0
 40
0.0593404949137789
 50
150.0593551455995964
 51
241.8408619167798861
  0
ARC
  5
16AFA
  8
0
 10
4860.7122065413832388
 20
179.2137584574552989
 30
0.0
 40
9.253433176956074
 50
69.7147060704099601
 51
76.9381127139570538
  0
ARC
  5
16AFB
  8
0
 10
4860.3406156281725998
 20
178.208424745646397
 30
0.0
 40
10.3252427117523204
 50
66.5939486950595807
 51
69.7147060704099601
  0
ARC
  5
16AFC
  8
0
 10
4862.7901568792785838
 20
188.1702022250514119
 30
0.0
 40
0.0591
 50
76.9381127139570538
 51
150.000006816160095
  0
ARC
  5
16AFD
  8
0
 10
4860.5402371286354537
 20
178.6742250567018004
 30
0.0
 40
9.8184734281798658
 50
60.5174399278568416
 51
66.5832021512416503
  0
ARC
  5
16AFE
  8
0
 10
4859.7714201669214162
 20
177.3102640290094882
 30
0.0
 40
11.3841891323975304
 50
55.17673853730426
 51
60.5276353493794517
  0
ARC
  5
16AFF
  8
0
 10
4860.1608753286091087
 20
177.8701314138079965
 30
0.0
 40
10.7021870711645608
 50
51.7497399289549094
 51
55.17673853730426
  0
ARC
  5
16B00
  8
0
 10
4862.2854956234778001
 20
180.5651742483159126
 30
0.0
 40
7.270384734606357
 50
30.8747854680144584
 51
51.7497399289549094
  0
ARC
  5
16B01
  8
0
 10
4860.4413267051813818
 20
179.4625639012049021
 30
0.0
 40
9.4190374698730892
 50
18.8475464044921388
 51
30.8747854680144584
  0
ARC
  5
16B02
  8
0
 10
4864.5849214352783747
 20
184.4893437989045992
 30
0.0
 40
1.7832456344734759
 50
54.5799120094875931
 51
60.5054584158242221
  0
ARC
  5
16B03
  8
0
 10
4863.6209339725774043
 20
183.1338883461257865
 30
0.0
 40
3.4465349396494811
 50
52.2500413489956088
 51
54.5799120094875931
  0
ARC
  5
16B04
  8
0
 10
4860.0662408225452964
 20
178.5429316817256904
 30
0.0
 40
9.252801079371995
 50
50.042009410805953
 51
52.2500413489956088
  0
ARC
  5
16B05
  8
0
 10
4861.930759687353202
 20
180.7682903190284947
 30
0.0
 40
6.349587056630658
 50
46.6767132062666619
 51
50.042009410805953
  0
ARC
  5
16B06
  8
0
 10
4861.1046150067295457
 20
179.8923204515151042
 30
0.0
 40
7.5536793463292726
 50
30.7954511190967786
 51
46.6767132062666619
  0
ARC
  5
16B07
  8
0
 10
4861.5589019959370489
 20
180.163080966500587
 30
0.0
 40
7.0248240494503387
 50
17.2938580891974993
 51
30.7954511190967786
  0
ARC
  5
16B08
  8
0
 10
4862.5283796808544139
 20
187.6185788217213997
 30
0.0
 40
0.0196850338760482
 50
195.6329793853867045
 51
206.2727706943447004
  0
ARC
  5
16B09
  8
0
 10
4862.5513420585903077
 20
187.6299139606105086
 30
0.0
 40
0.0452927703025962
 50
206.2727706943447004
 51
221.0486159383285951
  0
ARC
  5
16B0A
  8
0
 10
4865.6206244992426946
 20
190.3025761406680942
 30
0.0
 40
4.1151352524156968
 50
221.0486159383285951
 51
223.8987977331896957
  0
ARC
  5
16B0B
  8
0
 10
4866.4835139082388196
 20
191.1329182995939959
 30
0.0
 40
5.3126519466825988
 50
223.8987977331896957
 51
223.8989992961888902
  0
ARC
  5
16B0C
  8
0
 10
4866.4835139082388196
 20
191.1329182995939959
 30
0.0
 40
5.3126519466825988
 50
226.2478481503669911
 51
228.2746914042348862
  0
ARC
  5
16B0D
  8
0
 10
4865.7051607291041364
 20
190.2600903805725068
 30
0.0
 40
4.143181020283869
 50
230.4505455727284016
 51
230.9586814882405861
  0
ARC
  5
16B0E
  8
0
 10
4865.7051607291041364
 20
190.2600903805725068
 30
0.0
 40
4.143181020283869
 50
231.936058850834911
 51
233.9505305643318991
  0
ARC
  5
16B0F
  8
0
 10
4866.8913962474262007
 20
191.8898425438266884
 30
0.0
 40
6.1589307117287699
 50
235.3925801274392029
 51
236.3341327891874073
  0
ARC
  5
16B10
  8
0
 10
4865.725077331250759
 20
190.1381238627664061
 30
0.0
 40
4.0544549689830731
 50
238.3701891759857006
 51
238.9571707212610931
  0
ARC
  5
16B11
  8
0
 10
4865.725077331250759
 20
190.1381238627664061
 30
0.0
 40
4.0544549689830731
 50
241.132154649254403
 51
243.4162653237717109
  0
ARC
  5
16B12
  8
0
 10
4866.3688291705220763
 20
191.4245786247496142
 30
0.0
 40
5.4929897392252247
 50
244.9657957753537119
 51
245.4294631000861102
  0
ARC
  5
16B13
  8
0
 10
4866.3688291705220763
 20
191.4245786247496142
 30
0.0
 40
5.4929897392252247
 50
246.9471170136712033
 51
248.0196363270891027
  0
ARC
  5
16B14
  8
0
 10
4865.729988785950809
 20
189.8418316668557964
 30
0.0
 40
3.786178393563123
 50
250.2212100376106889
 51
252.5801950523375865
  0
ARC
  5
16B15
  8
0
 10
4868.4666109197451078
 20
198.5638371338309014
 30
0.0
 40
12.9274299527924299
 50
252.5801950523375865
 51
252.5807311821527037
  0
ARC
  5
16B16
  8
0
 10
4868.4666109197451078
 20
198.5638371338309014
 30
0.0
 40
12.9274299527924299
 50
252.8909383588134006
 51
253.0524694517623914
  0
ARC
  5
16B17
  8
0
 10
4865.8309178135132242
 20
189.9145522792632903
 30
0.0
 40
3.885471832689809
 50
253.0524694517623914
 51
253.0559169909832917
  0
ARC
  5
16B18
  8
0
 10
4865.8309178135132242
 20
189.9145522792632903
 30
0.0
 40
3.885471832689809
 50
255.1340367673113008
 51
258.2095927843625986
  0
ARC
  5
16B19
  8
0
 10
4866.1707590577443625
 20
191.5426422469047054
 30
0.0
 40
5.548652223992784
 50
258.2095927843625986
 51
258.2098019339981079
  0
ARC
  5
16B1A
  8
0
 10
4866.1707590577443625
 20
191.5426422469047054
 30
0.0
 40
5.548652223992784
 50
258.8077049256729083
 51
262.5301321907210763
  0
ARC
  5
16B1B
  8
0
 10
4865.4548926260185908
 20
186.0829106446547883
 30
0.0
 40
0.0421893015100478
 50
262.5301321907210763
 51
280.9211665136418219
  0
LINE
  5
16B1C
  8
0
 10
4862.9870462865028458
 20
187.2826027995575942
 30
0.0
 11
4862.9665595015012514
 21
187.2318962274202079
 31
0.0
  0
ARC
  5
16B1D
  8
0
 10
4862.9848111522405816
 20
187.2245220818425082
 30
0.0
 40
0.0196850394402206
 50
157.9999999633396044
 51
241.999999974336589
  0
LINE
  5
16B1E
  8
0
 10
4862.9755695860303604
 20
187.2071412236439016
 30
0.0
 11
4863.072888346304353
 21
187.1553959210575897
 31
0.0
  0
ARC
  5
16B1F
  8
0
 10
4863.0821299124727375
 20
187.1727767791759049
 30
0.0
 40
0.0196850393492055
 50
242.0000000592669949
 51
325.9999999661101242
  0
LINE
  5
16B20
  8
0
 10
4863.098449549704128
 20
187.161769044857607
 30
0.0
 11
4863.1086737225032266
 21
187.1769270043641029
 31
0.0
  0
ARC
  5
16B21
  8
0
 10
4863.104926479304595
 20
187.1794545518183952
 30
0.0
 40
0.0045199920035255
 50
325.9999999661141032
 51
357.1103629663471111
  0
ARC
  5
16B22
  8
0
 10
4863.0967230645746895
 20
187.1798686313530027
 30
0.0
 40
0.0127338507254144
 50
357.1103629663438142
 51
15.6204769692495908
  0
ARC
  5
16B23
  8
0
 10
4863.0734359954813044
 20
187.1733577925722045
 30
0.0
 40
0.0369139791082594
 50
15.6204769692466297
 51
35.1053780127802568
  0
ARC
  5
16B24
  8
0
 10
4862.8811219121853355
 20
187.0381702215269968
 30
0.0
 40
0.2719892564112468
 50
35.1053780127802568
 51
44.8487067717359125
  0
ARC
  5
16B25
  8
0
 10
4862.8407369030883274
 20
186.9979979297110049
 30
0.0
 40
0.3289520687499258
 50
44.8487067717359125
 51
53.2273992867498364
  0
ARC
  5
16B26
  8
0
 10
4862.896380983634117
 20
187.0724531110575128
 30
0.0
 40
0.2360013413236326
 50
53.2273992867498364
 51
62.1276655952092582
  0
ARC
  5
16B27
  8
0
 10
4862.9876931560011144
 20
187.2451133432674055
 30
0.0
 40
0.0406824517881114
 50
62.1276655952092582
 51
81.0352660342881563
  0
ARC
  5
16B28
  8
0
 10
4862.9928680068178437
 20
187.277916730077294
 30
0.0
 40
0.0074733977940552
 50
81.0352660342881563
 51
141.16841566712759
  0
LINE
  5
16B29
  8
0
 10
4862.785409918104051
 20
187.3898147584075957
 30
0.0
 11
4862.7649231330997281
 21
187.3391081862702094
 31
0.0
  0
ARC
  5
16B2A
  8
0
 10
4862.7831747838417868
 20
187.3317340406925098
 30
0.0
 40
0.0196850394402206
 50
157.9999999633396044
 51
241.999999974336589
  0
LINE
  5
16B2B
  8
0
 10
4862.7739332176297467
 20
187.3143531824939032
 30
0.0
 11
4862.8712519779028298
 21
187.2626078799075913
 31
0.0
  0
ARC
  5
16B2C
  8
0
 10
4862.8804935440730333
 20
187.2799887380257928
 30
0.0
 40
0.0196850393492055
 50
242.0000000592669949
 51
325.9999999661101242
  0
LINE
  5
16B2D
  8
0
 10
4862.8968131813044238
 20
187.2689810037076086
 30
0.0
 11
4862.9070373541017034
 21
187.2841389632139908
 31
0.0
  0
ARC
  5
16B2E
  8
0
 10
4862.9032901109048908
 20
187.2866665106683968
 30
0.0
 40
0.0045199920035255
 50
325.9999999661141032
 51
357.1103629663471111
  0
ARC
  5
16B2F
  8
0
 10
4862.8950866961740758
 20
187.2870805902030042
 30
0.0
 40
0.0127338507254144
 50
357.1103629663438142
 51
15.6204769692495908
  0
ARC
  5
16B30
  8
0
 10
4862.8717996270806907
 20
187.2805697514222061
 30
0.0
 40
0.0369139791082594
 50
15.6204769692466297
 51
35.1053780127802568
  0
ARC
  5
16B31
  8
0
 10
4862.6794855437847218
 20
187.1453821803769983
 30
0.0
 40
0.2719892564112468
 50
35.1053780127802568
 51
44.8487067717359125
  0
ARC
  5
16B32
  8
0
 10
4862.6391005346868042
 20
187.1052098885610064
 30
0.0
 40
0.3289520687499258
 50
44.8487067717359125
 51
53.2273992867498364
  0
ARC
  5
16B33
  8
0
 10
4862.6947446152316843
 20
187.179665069907486
 30
0.0
 40
0.2360013413236326
 50
53.2273992867498364
 51
62.1276655952092582
  0
ARC
  5
16B34
  8
0
 10
4862.7860567876023197
 20
187.3523253021174071
 30
0.0
 40
0.0406824517881114
 50
62.1276655952092582
 51
81.0352660342881563
  0
ARC
  5
16B35
  8
0
 10
4862.7912316384181395
 20
187.3851286889274093
 30
0.0
 40
0.0074733977940552
 50
81.0352660342881563
 51
141.16841566712759
  0
LINE
  5
16B36
  8
0
 10
4862.6586559979541562
 20
187.4572110132575915
 30
0.0
 11
4862.6381692129498333
 21
187.4065044411200915
 31
0.0
  0
ARC
  5
16B37
  8
0
 10
4862.6564208636909825
 20
187.3991302955425056
 30
0.0
 40
0.0196850394402206
 50
157.9999999633396044
 51
241.999999974336589
  0
ARC
  5
16B38
  8
0
 10
4862.7537396239231384
 20
187.3473849928759023
 30
0.0
 40
0.0196850393492055
 50
242.0000000592669949
 51
299.8620178952921833
  0
ARC
  5
16B39
  8
0
 10
4862.7450457069307959
 20
187.3479660062722019
 30
0.0
 40
0.0369139791082594
 50
31.9026040452085589
 51
35.1053780127802568
  0
ARC
  5
16B3A
  8
0
 10
4862.552731623634827
 20
187.2127784352269941
 30
0.0
 40
0.2719892564112468
 50
35.1053780127802568
 51
44.8487067717359125
  0
ARC
  5
16B3B
  8
0
 10
4862.5123466145378188
 20
187.1726061434110022
 30
0.0
 40
0.3289520687499258
 50
44.8487067717359125
 51
53.2273992867498364
  0
ARC
  5
16B3C
  8
0
 10
4862.5679906950826989
 20
187.2470613247575102
 30
0.0
 40
0.2360013413236326
 50
53.2273992867498364
 51
62.1276655952092582
  0
ARC
  5
16B3D
  8
0
 10
4862.6593028674496964
 20
187.4197215569674029
 30
0.0
 40
0.0406824517881114
 50
62.1276655952092582
 51
81.0352660342881563
  0
ARC
  5
16B3E
  8
0
 10
4862.6644777182691541
 20
187.4525249437772914
 30
0.0
 40
0.0074733977940552
 50
81.0352660342881563
 51
141.16841566712759
  0
LINE
  5
16B3F
  8
0
 10
4862.6154225963027784
 20
187.4801986207575908
 30
0.0
 11
4862.5949358113002745
 21
187.4294920486202045
 31
0.0
  0
ARC
  5
16B40
  8
0
 10
4862.6131874620414237
 20
187.4221179030425901
 30
0.0
 40
0.0196850394402206
 50
157.9999999633396044
 51
241.999999974336589
  0
LINE
  5
16B41
  8
0
 10
4862.603945895830293
 20
187.4047370448438983
 30
0.0
 11
4862.7444999863646444
 21
187.3300031094345002
 31
0.0
  0
ARC
  5
16B42
  8
0
 10
4862.6212443166177763
 20
187.4755125512774043
 30
0.0
 40
0.0074733977940552
 50
71.5183588770500904
 51
141.16841566712759
  0
LINE
  5
16B43
  8
0
 10
4862.8972489164998478
 20
187.2133552990009093
 30
0.0
 11
4862.8771114572009537
 21
187.1635133383202003
 31
0.0
  0
ARC
  5
16B44
  8
0
 10
4862.8953631079411934
 20
187.1561391927425007
 30
0.0
 40
0.0196850394402206
 50
157.9999999633396044
 51
241.999999974336589
  0
LINE
  5
16B45
  8
0
 10
4862.8861215417300627
 20
187.1387583345438941
 30
0.0
 11
4863.040040854554718
 21
187.0569179844038956
 31
0.0
  0
LINE
  5
16B46
  8
0
 10
4862.9541987947550297
 20
187.1841248629039001
 30
0.0
 11
4862.9337120097516163
 21
187.1334182907665138
 31
0.0
  0
ARC
  5
16B47
  8
0
 10
4862.951963660491856
 20
187.1260441451888141
 30
0.0
 40
0.0196850394402206
 50
157.9999999633396044
 51
241.999999974336589
  0
ARC
  5
16B48
  8
0
 10
4863.0492824207240119
 20
187.0742988425222109
 30
0.0
 40
0.0196850393492055
 50
242.0000000592669949
 51
325.9999999661101242
  0
LINE
  5
16B49
  8
0
 10
4863.0656020579563119
 20
187.0632911082039129
 30
0.0
 11
4863.0758262307535915
 21
187.0784490677104088
 31
0.0
  0
ARC
  5
16B4A
  8
0
 10
4863.0720789875558694
 20
187.0809766151647011
 30
0.0
 40
0.0045199920035255
 50
325.9999999661141032
 51
357.1103629663471111
  0
ARC
  5
16B4B
  8
0
 10
4863.0638755728268734
 20
187.0813906946993939
 30
0.0
 40
0.0127338507254144
 50
357.1103629663438142
 51
15.6204769692495908
  0
ARC
  5
16B4C
  8
0
 10
4863.0405885037316693
 20
187.0748798559185104
 30
0.0
 40
0.0369139791082594
 50
15.6204769692466297
 51
35.1053780127802568
  0
ARC
  5
16B4D
  8
0
 10
4862.8482744204357004
 20
186.9396922848733027
 30
0.0
 40
0.2719892564112468
 50
35.1053780127802568
 51
44.8487067717359125
  0
ARC
  5
16B4E
  8
0
 10
4862.8078894113386923
 20
186.8995199930573108
 30
0.0
 40
0.3289520687499258
 50
44.8487067717359125
 51
53.2273992867498364
  0
ARC
  5
16B4F
  8
0
 10
4862.8635334918853914
 20
186.9739751744037903
 30
0.0
 40
0.2360013413236326
 50
53.2273992867498364
 51
62.1276655952092582
  0
ARC
  5
16B50
  8
0
 10
4862.9548456642523888
 20
187.1466354066137114
 30
0.0
 40
0.0406824517881114
 50
62.1276655952092582
 51
81.0352660342881563
  0
ARC
  5
16B51
  8
0
 10
4862.9600205150691181
 20
187.1794387934235999
 30
0.0
 40
0.0074733977940552
 50
81.0352660342881563
 51
141.16841566712759
  0
LINE
  5
16B52
  8
0
 10
4863.1171810525929686
 20
187.0974656591039889
 30
0.0
 11
4863.0966942675886457
 21
187.0467590869666026
 31
0.0
  0
ARC
  5
16B53
  8
0
 10
4863.1149459183297949
 20
187.0393849413889882
 30
0.0
 40
0.0196850394402206
 50
157.9999999633396044
 51
241.999999974336589
  0
LINE
  5
16B54
  8
0
 10
4863.1057043521186642
 20
187.0220040831902963
 30
0.0
 11
4863.2030231123935664
 21
186.9702587806040128
 31
0.0
  0
ARC
  5
16B55
  8
0
 10
4863.2122646785619509
 20
186.9876396387222997
 30
0.0
 40
0.0196850393492055
 50
242.0000000592669949
 51
325.9999999661101242
  0
LINE
  5
16B56
  8
0
 10
4863.2285843157942509
 20
186.9766319044040017
 30
0.0
 11
4863.23880848859244
 21
186.9917898639104976
 31
0.0
  0
ARC
  5
16B57
  8
0
 10
4863.2350612453938083
 20
186.9943174113647899
 30
0.0
 40
0.0045199920035255
 50
325.9999999661141032
 51
357.1103629663471111
  0
ARC
  5
16B58
  8
0
 10
4863.2268578306639029
 20
186.9947314908995111
 30
0.0
 40
0.0127338507254144
 50
357.1103629663438142
 51
15.6204769692495908
  0
ARC
  5
16B59
  8
0
 10
4863.2035707615686988
 20
186.9882206521185992
 30
0.0
 40
0.0369139791082594
 50
15.6204769692466297
 51
35.1053780127802568
  0
ARC
  5
16B5A
  8
0
 10
4863.0112566782727299
 20
186.8530330810733915
 30
0.0
 40
0.2719892564112468
 50
35.1053780127802568
 51
44.8487067717359125
  0
ARC
  5
16B5B
  8
0
 10
4862.9708716691757218
 20
186.8128607892573996
 30
0.0
 40
0.3289520687499258
 50
44.8487067717359125
 51
53.2273992867498364
  0
ARC
  5
16B5C
  8
0
 10
4863.0265157497233304
 20
186.8873159706039075
 30
0.0
 40
0.2360013413236326
 50
53.2273992867498364
 51
62.1276655952092582
  0
ARC
  5
16B5D
  8
0
 10
4863.1178279220903278
 20
187.0599762028139139
 30
0.0
 40
0.0406824517881114
 50
62.1276655952092582
 51
81.0352660342881563
  0
ARC
  5
16B5E
  8
0
 10
4863.1230027729070571
 20
187.0927795896238024
 30
0.0
 40
0.0074733977940552
 50
81.0352660342881563
 51
141.16841566712759
  0
LINE
  5
16B5F
  8
0
 10
4863.2498239179931261
 20
187.1428814545039927
 30
0.0
 11
4863.2293371329897127
 21
187.0921748823666064
 31
0.0
  0
ARC
  5
16B60
  8
0
 10
4863.2475887837308619
 20
187.084800736788992
 30
0.0
 40
0.0196850394402206
 50
157.9999999633396044
 51
241.999999974336589
  0
LINE
  5
16B61
  8
0
 10
4863.2383472175188217
 20
187.0674198785903002
 30
0.0
 11
4863.3356659777928144
 21
187.0156745760039882
 31
0.0
  0
ARC
  5
16B62
  8
0
 10
4863.3449075439621083
 20
187.0330554341223035
 30
0.0
 40
0.0196850393492055
 50
242.0000000592669949
 51
325.9999999661101242
  0
LINE
  5
16B63
  8
0
 10
4863.3612271811944083
 20
187.0220476998040056
 30
0.0
 11
4863.3714513539916879
 21
187.0372056593105015
 31
0.0
  0
ARC
  5
16B64
  8
0
 10
4863.3677041107948753
 20
187.0397332067647937
 30
0.0
 40
0.0045199920035255
 50
325.9999999661141032
 51
357.1103629663471111
  0
ARC
  5
16B65
  8
0
 10
4863.3595006960640603
 20
187.0401472862994865
 30
0.0
 40
0.0127338507254144
 50
357.1103629663438142
 51
15.6204769692495908
  0
ARC
  5
16B66
  8
0
 10
4863.3362136269688563
 20
187.0336364475186031
 30
0.0
 40
0.0369139791082594
 50
15.6204769692466297
 51
35.1053780127802568
  0
ARC
  5
16B67
  8
0
 10
4863.1438995436737969
 20
186.8984488764733953
 30
0.0
 40
0.2719892564112468
 50
35.1053780127802568
 51
44.8487067717359125
  0
ARC
  5
16B68
  8
0
 10
4863.1035145345767887
 20
186.8582765846574034
 30
0.0
 40
0.3289520687499258
 50
44.8487067717359125
 51
53.2273992867498364
  0
ARC
  5
16B69
  8
0
 10
4863.1591586151216688
 20
186.9327317660039114
 30
0.0
 40
0.2360013413236326
 50
53.2273992867498364
 51
62.1276655952092582
  0
ARC
  5
16B6A
  8
0
 10
4863.2504707874913947
 20
187.1053919982138893
 30
0.0
 40
0.0406824517881114
 50
62.1276655952092582
 51
81.0352660342881563
  0
ARC
  5
16B6B
  8
0
 10
4863.2556456383072145
 20
187.1381953850238062
 30
0.0
 40
0.0074733977940552
 50
81.0352660342881563
 51
141.16841566712759
  0
LINE
  5
16B6C
  8
0
 10
4863.1908706906606312
 20
186.9670227272405896
 30
0.0
 11
4863.1738978063158356
 21
186.9250133644121092
 31
0.0
  0
ARC
  5
16B6D
  8
0
 10
4863.1921494570560753
 20
186.9176392188344948
 30
0.0
 40
0.0196850394402206
 50
157.9999999633396044
 51
241.999999974336589
  0
LINE
  5
16B6E
  8
0
 10
4863.2758853624036419
 20
186.9323852078576067
 30
0.0
 11
4863.2553985774002285
 21
186.881678635720192
 31
0.0
  0
ARC
  5
16B6F
  8
0
 10
4863.2736502281413777
 20
186.8743044901424923
 30
0.0
 40
0.0196850394402206
 50
157.9999999633396044
 51
241.999999974336589
  0
LINE
  5
16B70
  8
0
 10
4863.1829078907840085
 20
186.9002583605420114
 30
0.0
 11
4863.3617274222051492
 21
186.8051783293576023
 31
0.0
  0
ARC
  5
16B71
  8
0
 10
4863.3709689883726242
 20
186.8225591874758891
 30
0.0
 40
0.0196850393492055
 50
242.0000000592669949
 51
325.9999999661101242
  0
LINE
  5
16B72
  8
0
 10
4863.3872886256040147
 20
186.8115514531575911
 30
0.0
 11
4863.3975127984022038
 21
186.826709412664087
 31
0.0
  0
ARC
  5
16B73
  8
0
 10
4863.3937655552053911
 20
186.8292369601184078
 30
0.0
 40
0.0045199920035255
 50
325.9999999661141032
 51
357.1103629663471111
  0
ARC
  5
16B74
  8
0
 10
4863.3855621404745762
 20
186.8296510396529868
 30
0.0
 40
0.0127338507254144
 50
357.1103629663438142
 51
15.6204769692495908
  0
ARC
  5
16B75
  8
0
 10
4863.3622750713811911
 20
186.8231402008721886
 30
0.0
 40
0.0369139791082594
 50
15.6204769692466297
 51
35.1053780127802568
  0
ARC
  5
16B76
  8
0
 10
4863.1699609880843127
 20
186.6879526298270093
 30
0.0
 40
0.2719892564112468
 50
35.1053780127802568
 51
44.8487067717359125
  0
ARC
  5
16B77
  8
0
 10
4863.1295759789873046
 20
186.647780338010989
 30
0.0
 40
0.3289520687499258
 50
44.8487067717359125
 51
53.2273992867498364
  0
ARC
  5
16B78
  8
0
 10
4863.1852200595330942
 20
186.722235519357497
 30
0.0
 40
0.2360013413236326
 50
53.2273992867498364
 51
62.1276655952092582
  0
ARC
  5
16B79
  8
0
 10
4863.2765322319010011
 20
186.8948957515673897
 30
0.0
 40
0.0406824517881114
 50
62.1276655952092582
 51
81.0352660342881563
  0
ARC
  5
16B7A
  8
0
 10
4863.2817070827177304
 20
186.9276991383773066
 30
0.0
 40
0.0074733977940552
 50
81.0352660342881563
 51
141.16841566712759
  0
LINE
  5
16B7B
  8
0
 10
4863.3668814116253998
 20
186.9646976231468898
 30
0.0
 11
4863.3463946266210769
 21
186.9139910510095035
 31
0.0
  0
ARC
  5
16B7C
  8
0
 10
4863.3646462773613166
 20
186.9066169054318891
 30
0.0
 40
0.0196850394402206
 50
157.9999999633396044
 51
241.999999974336589
  0
LINE
  5
16B7D
  8
0
 10
4863.3554047111501859
 20
186.8892360472331973
 30
0.0
 11
4863.4527234714241786
 21
186.8374907446469138
 31
0.0
  0
ARC
  5
16B7E
  8
0
 10
4863.4619650375916535
 20
186.8548716027652006
 30
0.0
 40
0.0196850393492055
 50
242.0000000592669949
 51
325.9999999661101242
  0
LINE
  5
16B7F
  8
0
 10
4863.478284674823044
 20
186.8438638684469026
 30
0.0
 11
4863.4885088476221426
 21
186.8590218279533985
 31
0.0
  0
ARC
  5
16B80
  8
0
 10
4863.48476160442533
 20
186.8615493754076908
 30
0.0
 40
0.0045199920035255
 50
325.9999999661141032
 51
357.1103629663471111
  0
ARC
  5
16B81
  8
0
 10
4863.4765581896936055
 20
186.861963454942412
 30
0.0
 40
0.0127338507254144
 50
357.1103629663438142
 51
15.6204769692495908
  0
ARC
  5
16B82
  8
0
 10
4863.45327112060113
 20
186.8554526161615001
 30
0.0
 40
0.0369139791082594
 50
15.6204769692466297
 51
35.1053780127802568
  0
ARC
  5
16B83
  8
0
 10
4863.2609570373051611
 20
186.7202650451162924
 30
0.0
 40
0.2719892564112468
 50
35.1053780127802568
 51
44.8487067717359125
  0
ARC
  5
16B84
  8
0
 10
4863.2205720282081529
 20
186.6800927533003005
 30
0.0
 40
0.3289520687499258
 50
44.8487067717359125
 51
53.2273992867498364
  0
ARC
  5
16B85
  8
0
 10
4863.276216108753033
 20
186.7545479346468085
 30
0.0
 40
0.2360013413236326
 50
53.2273992867498364
 51
62.1276655952092582
  0
ARC
  5
16B86
  8
0
 10
4863.3675282811209399
 20
186.9272081668567012
 30
0.0
 40
0.0406824517881114
 50
62.1276655952092582
 51
81.0352660342881563
  0
ARC
  5
16B87
  8
0
 10
4863.3727031319385787
 20
186.9600115536667033
 30
0.0
 40
0.0074733977940552
 50
81.0352660342881563
 51
141.16841566712759
  0
LINE
  5
16B88
  8
0
 10
4863.5558349524044388
 20
186.9801725013576004
 30
0.0
 11
4863.5353481674001159
 21
186.9294659292202141
 31
0.0
  0
ARC
  5
16B89
  8
0
 10
4863.5535998181412651
 20
186.922091783642486
 30
0.0
 40
0.0196850394402206
 50
157.9999999633396044
 51
241.999999974336589
  0
LINE
  5
16B8A
  8
0
 10
4863.5443582519301344
 20
186.9047109254439079
 30
0.0
 11
4863.6416770122032176
 21
186.8529656228575959
 31
0.0
  0
ARC
  5
16B8B
  8
0
 10
4863.6509185783716021
 20
186.8703464809759112
 30
0.0
 40
0.0196850393492055
 50
242.0000000592669949
 51
325.9999999661101242
  0
LINE
  5
16B8C
  8
0
 10
4863.6672382156039021
 20
186.8593387466576132
 30
0.0
 11
4863.6774623884020912
 21
186.8744967061641091
 31
0.0
  0
ARC
  5
16B8D
  8
0
 10
4863.6737151452052785
 20
186.8770242536184014
 30
0.0
 40
0.0045199920035255
 50
325.9999999661141032
 51
357.1103629663471111
  0
ARC
  5
16B8E
  8
0
 10
4863.665511730475373
 20
186.8774383331530089
 30
0.0
 40
0.0127338507254144
 50
357.1103629663438142
 51
15.6204769692495908
  0
ARC
  5
16B8F
  8
0
 10
4863.6422246613810785
 20
186.8709274943722107
 30
0.0
 40
0.0369139791082594
 50
15.6204769692466297
 51
35.1053780127802568
  0
ARC
  5
16B90
  8
0
 10
4863.4499105780842001
 20
186.735739923327003
 30
0.0
 40
0.2719892564112468
 50
35.1053780127802568
 51
44.8487067717359125
  0
ARC
  5
16B91
  8
0
 10
4863.4095255689871919
 20
186.6955676315110111
 30
0.0
 40
0.3289520687499258
 50
44.8487067717359125
 51
53.2273992867498364
  0
ARC
  5
16B92
  8
0
 10
4863.4651696495329816
 20
186.7700228128574906
 30
0.0
 40
0.2360013413236326
 50
53.2273992867498364
 51
62.1276655952092582
  0
ARC
  5
16B93
  8
0
 10
4863.5564818219008885
 20
186.9426830450674117
 30
0.0
 40
0.0406824517881114
 50
62.1276655952092582
 51
81.0352660342881563
  0
ARC
  5
16B94
  8
0
 10
4863.5616566727176178
 20
186.9754864318774139
 30
0.0
 40
0.0074733977940552
 50
81.0352660342881563
 51
141.16841566712759
  0
LINE
  5
16B95
  8
0
 10
4863.4976592762632208
 20
186.8144960224184103
 30
0.0
 11
4863.4771724912588979
 21
186.7637894502809957
 31
0.0
  0
ARC
  5
16B96
  8
0
 10
4863.4954241420000471
 20
186.7564153047034097
 30
0.0
 40
0.0196850394402206
 50
157.9999999633396044
 51
241.999999974336589
  0
LINE
  5
16B97
  8
0
 10
4863.4861825757889164
 20
186.7390344465046894
 30
0.0
 11
4863.5835013360629091
 21
186.6872891439184912
 31
0.0
  0
ARC
  5
16B98
  8
0
 10
4863.5927429022312936
 20
186.7046700020366927
 30
0.0
 40
0.0196850393492055
 50
242.0000000592669949
 51
325.9999999661101242
  0
LINE
  5
16B99
  8
0
 10
4863.6090625394626841
 20
186.6936622677185085
 30
0.0
 11
4863.6192867122599637
 21
186.7088202272248907
 31
0.0
  0
ARC
  5
16B9A
  8
0
 10
4863.6155394690640605
 20
186.7113477746792967
 30
0.0
 40
0.0045199920035255
 50
325.9999999661141032
 51
357.1103629663471111
  0
ARC
  5
16B9B
  8
0
 10
4863.6073360543332456
 20
186.7117618542139041
 30
0.0
 40
0.0127338507254144
 50
357.1103629663438142
 51
15.6204769692495908
  0
ARC
  5
16B9C
  8
0
 10
4863.5840489852398605
 20
186.7052510154329923
 30
0.0
 40
0.0369139791082594
 50
15.6204769692466297
 51
35.1053780127802568
  0
ARC
  5
16B9D
  8
0
 10
4863.3917349019438916
 20
186.570063444387813
 30
0.0
 40
0.2719892564112468
 50
35.1053780127802568
 51
44.8487067717359125
  0
ARC
  5
16B9E
  8
0
 10
4863.351349892845974
 20
186.5298911525719063
 30
0.0
 40
0.3289520687499258
 50
44.8487067717359125
 51
53.2273992867498364
  0
ARC
  5
16B9F
  8
0
 10
4863.4069939733908541
 20
186.6043463339183006
 30
0.0
 40
0.2360013413236326
 50
53.2273992867498364
 51
62.1276655952092582
  0
ARC
  5
16BA0
  8
0
 10
4863.4983061457596705
 20
186.777006566128307
 30
0.0
 40
0.0406824517881114
 50
62.1276655952092582
 51
81.0352660342881563
  0
ARC
  5
16BA1
  8
0
 10
4863.5034809965773093
 20
186.8098099529381955
 30
0.0
 40
0.0074733977940552
 50
81.0352660342881563
 51
141.16841566712759
  0
LINE
  5
16BA2
  8
0
 10
4863.4938873420433083
 20
186.7349377496286138
 30
0.0
 11
4863.4858358096189477
 21
186.7150095076106027
 31
0.0
  0
ARC
  5
16BA3
  8
0
 10
4863.5040874603591874
 20
186.7076353620329883
 30
0.0
 40
0.0196850394402206
 50
157.9999999633396044
 51
241.999999974336589
  0
LINE
  5
16BA4
  8
0
 10
4863.4948458941480567
 20
186.6902545038342964
 30
0.0
 11
4863.5921646544220494
 21
186.6385092012480129
 31
0.0
  0
ARC
  5
16BA5
  8
0
 10
4863.6014062205904338
 20
186.6558900593662997
 30
0.0
 40
0.0196850393492055
 50
242.0000000592669949
 51
325.9999999661101242
  0
LINE
  5
16BA6
  8
0
 10
4863.6177258578218243
 20
186.6448823250480018
 30
0.0
 11
4863.6318413145600061
 21
186.6658093502340989
 31
0.0
  0
LINE
  5
16BA7
  8
0
 10
4863.6453694611027458
 20
186.6917835494575968
 30
0.0
 11
4863.624882676100242
 21
186.6410769773200968
 31
0.0
  0
ARC
  5
16BA8
  8
0
 10
4863.6431343268413912
 20
186.6337028317425109
 30
0.0
 40
0.0196850394402206
 50
157.9999999633396044
 51
241.999999974336589
  0
LINE
  5
16BA9
  8
0
 10
4863.633892760629351
 20
186.6163219735439043
 30
0.0
 11
4863.7312115209042531
 21
186.5645766709575923
 31
0.0
  0
ARC
  5
16BAA
  8
0
 10
4863.7404530870717281
 20
186.5819575290759076
 30
0.0
 40
0.0196850393492055
 50
242.0000000592669949
 51
325.9999999661101242
  0
LINE
  5
16BAB
  8
0
 10
4863.7567727243040281
 20
186.5709497947576097
 30
0.0
 11
4863.7669968971022172
 21
186.5861077542641056
 31
0.0
  0
ARC
  5
16BAC
  8
0
 10
4863.7632496539063141
 20
186.5886353017183978
 30
0.0
 40
0.0045199920035255
 50
325.9999999661141032
 51
357.1103629663471111
  0
ARC
  5
16BAD
  8
0
 10
4863.7550462391736801
 20
186.5890493812530053
 30
0.0
 40
0.0127338507254144
 50
357.1103629663438142
 51
15.6204769692495908
  0
ARC
  5
16BAE
  8
0
 10
4863.7317591700812045
 20
186.5825385424722072
 30
0.0
 40
0.0369139791082594
 50
15.6204769692466297
 51
35.1053780127802568
  0
ARC
  5
16BAF
  8
0
 10
4863.5394450867843261
 20
186.4473509714269994
 30
0.0
 40
0.2719892564112468
 50
35.1053780127802568
 51
44.8487067717359125
  0
ARC
  5
16BB0
  8
0
 10
4863.499060077687318
 20
186.4071786796110075
 30
0.0
 40
0.3289520687499258
 50
44.8487067717359125
 51
53.2273992867498364
  0
ARC
  5
16BB1
  8
0
 10
4863.5547041582331076
 20
186.4816338609574871
 30
0.0
 40
0.2360013413236326
 50
53.2273992867498364
 51
62.1276655952092582
  0
ARC
  5
16BB2
  8
0
 10
4863.6460163306010145
 20
186.6542940931674082
 30
0.0
 40
0.0406824517881114
 50
62.1276655952092582
 51
81.0352660342881563
  0
ARC
  5
16BB3
  8
0
 10
4863.6511911814177438
 20
186.6870974799772966
 30
0.0
 40
0.0074733977940552
 50
81.0352660342881563
 51
141.16841566712759
  0
LINE
  5
16BB4
  8
0
 10
4863.8020307272809077
 20
186.6526463917394096
 30
0.0
 11
4863.7815439422765849
 21
186.6019398196019949
 31
0.0
  0
ARC
  5
16BB5
  8
0
 10
4863.7997955930177341
 20
186.594565674024409
 30
0.0
 40
0.0196850394402206
 50
157.9999999633396044
 51
241.999999974336589
  0
LINE
  5
16BB6
  8
0
 10
4863.7905540268056939
 20
186.5771848158258024
 30
0.0
 11
4863.8878727870796865
 21
186.5254395132394905
 31
0.0
  0
ARC
  5
16BB7
  8
0
 10
4863.89711435324989
 20
186.542820371357692
 30
0.0
 40
0.0196850393492055
 50
242.0000000592669949
 51
325.9999999661101242
  0
LINE
  5
16BB8
  8
0
 10
4863.9134339904812805
 20
186.5318126370395078
 30
0.0
 11
4863.9236581632785601
 21
186.54697059654589
 31
0.0
  0
ARC
  5
16BB9
  8
0
 10
4863.919910920080838
 20
186.549498144000296
 30
0.0
 40
0.0045199920035255
 50
325.9999999661141032
 51
357.1103629663471111
  0
ARC
  5
16BBA
  8
0
 10
4863.9117075053509325
 20
186.5499122235349034
 30
0.0
 40
0.0127338507254144
 50
357.1103629663438142
 51
15.6204769692495908
  0
ARC
  5
16BBB
  8
0
 10
4863.8884204362566379
 20
186.5434013847539916
 30
0.0
 40
0.0369139791082594
 50
15.6204769692466297
 51
35.1053780127802568
  0
ARC
  5
16BBC
  8
0
 10
4863.6961063529615785
 20
186.4082138137088975
 30
0.0
 40
0.2719892564112468
 50
35.1053780127802568
 51
44.8487067717359125
  0
ARC
  5
16BBD
  8
0
 10
4863.6557213438636609
 20
186.3680415218929056
 30
0.0
 40
0.3289520687499258
 50
44.8487067717359125
 51
53.2273992867498364
  0
ARC
  5
16BBE
  8
0
 10
4863.71136542441036
 20
186.4424967032392999
 30
0.0
 40
0.2360013413236326
 50
53.2273992867498364
 51
62.1276655952092582
  0
ARC
  5
16BBF
  8
0
 10
4863.8026775967773574
 20
186.6151569354493063
 30
0.0
 40
0.0406824517881114
 50
62.1276655952092582
 51
81.0352660342881563
  0
ARC
  5
16BC0
  8
0
 10
4863.8078524475940867
 20
186.6479603222591948
 30
0.0
 40
0.0074733977940552
 50
81.0352660342881563
 51
141.16841566712759
  0
LINE
  5
16BC1
  8
0
 10
4863.9234631896933934
 20
186.5439184910040069
 30
0.0
 11
4863.90297640468998
 21
186.4932119188665922
 31
0.0
  0
ARC
  5
16BC2
  8
0
 10
4863.9212280554311292
 20
186.4858377732890062
 30
0.0
 40
0.0196850394402206
 50
157.9999999633396044
 51
241.999999974336589
  0
LINE
  5
16BC3
  8
0
 10
4863.911986489219089
 20
186.468456915090286
 30
0.0
 11
4864.0093052494930816
 21
186.4167116125040025
 31
0.0
  0
ARC
  5
16BC4
  8
0
 10
4864.0185468156623756
 20
186.4340924706222893
 30
0.0
 40
0.0196850393492055
 50
242.0000000592669949
 51
325.9999999661101242
  0
LINE
  5
16BC5
  8
0
 10
4864.0348664528928566
 20
186.4230847363039913
 30
0.0
 11
4864.0450906256919552
 21
186.4382426958104872
 31
0.0
  0
ARC
  5
16BC6
  8
0
 10
4864.0413433824951426
 20
186.440770243264808
 30
0.0
 40
0.0045199920035255
 50
325.9999999661141032
 51
357.1103629663471111
  0
ARC
  5
16BC7
  8
0
 10
4864.0331399677634181
 20
186.4411843227995007
 30
0.0
 40
0.0127338507254144
 50
357.1103629663438142
 51
15.6204769692495908
  0
ARC
  5
16BC8
  8
0
 10
4864.009852898670033
 20
186.4346734840185889
 30
0.0
 40
0.0369139791082594
 50
15.6204769692466297
 51
35.1053780127802568
  0
ARC
  5
16BC9
  8
0
 10
4863.8175388153740641
 20
186.2994859129734095
 30
0.0
 40
0.2719892564112468
 50
35.1053780127802568
 51
44.8487067717359125
  0
ARC
  5
16BCA
  8
0
 10
4863.777153806277056
 20
186.2593136211573892
 30
0.0
 40
0.3289520687499258
 50
44.8487067717359125
 51
53.2273992867498364
  0
ARC
  5
16BCB
  8
0
 10
4863.8327978868210266
 20
186.3337688025038972
 30
0.0
 40
0.2360013413236326
 50
53.2273992867498364
 51
62.1276655952092582
  0
ARC
  5
16BCC
  8
0
 10
4863.9241100591907525
 20
186.5064290347137899
 30
0.0
 40
0.0406824517881114
 50
62.1276655952092582
 51
81.0352660342881563
  0
ARC
  5
16BCD
  8
0
 10
4863.9292849100065723
 20
186.539232421523792
 30
0.0
 40
0.0074733977940552
 50
81.0352660342881563
 51
141.16841566712759
  0
LINE
  5
16BCE
  8
0
 10
4864.0520408653519553
 20
186.4440738085428961
 30
0.0
 11
4864.0420232697106258
 21
186.4192793893145108
 31
0.0
  0
ARC
  5
16BCF
  8
0
 10
4864.060274920451775
 20
186.4119052437368964
 30
0.0
 40
0.0196850394402206
 50
157.9999999633396044
 51
241.999999974336589
  0
LINE
  5
16BD0
  8
0
 10
4864.0510333542406443
 20
186.3945243855382898
 30
0.0
 11
4864.1483521145146369
 21
186.3427790829518926
 31
0.0
  0
ARC
  5
16BD1
  8
0
 10
4864.1575936806830214
 20
186.3601599410702931
 30
0.0
 40
0.0196850393492055
 50
242.0000000592669949
 51
325.9999999661101242
  0
LINE
  5
16BD2
  8
0
 10
4864.1739133179144119
 20
186.3491522067519952
 30
0.0
 11
4864.1859230232339542
 21
186.3669573270796036
 31
0.0
  0
LINE
  5
16BD3
  8
0
 10
4864.1063245021896364
 20
186.4908444571441066
 30
0.0
 11
4864.0858377171871325
 21
186.4401378850066919
 31
0.0
  0
ARC
  5
16BD4
  8
0
 10
4864.1040893679282817
 20
186.432763739429106
 30
0.0
 40
0.0196850394402206
 50
157.9999999633396044
 51
241.999999974336589
  0
LINE
  5
16BD5
  8
0
 10
4864.094847801717151
 20
186.4153828812304141
 30
0.0
 11
4864.1921665619911437
 21
186.3636375786441022
 31
0.0
  0
ARC
  5
16BD6
  8
0
 10
4864.2014081281604376
 20
186.381018436762389
 30
0.0
 40
0.0196850393492055
 50
242.0000000592669949
 51
325.9999999661101242
  0
LINE
  5
16BD7
  8
0
 10
4864.2177277653909186
 20
186.3700107024440911
 30
0.0
 11
4864.2279519381900172
 21
186.385168661950587
 31
0.0
  0
ARC
  5
16BD8
  8
0
 10
4864.2242046949922951
 20
186.3876962094049077
 30
0.0
 40
0.0045199920035255
 50
325.9999999661141032
 51
357.1103629663471111
  0
ARC
  5
16BD9
  8
0
 10
4864.2160012802605706
 20
186.3881102889394867
 30
0.0
 40
0.0127338507254144
 50
357.1103629663438142
 51
15.6204769692495908
  0
ARC
  5
16BDA
  8
0
 10
4864.1927142111671856
 20
186.3815994501586886
 30
0.0
 40
0.0369139791082594
 50
15.6204769692466297
 51
35.1053780127802568
  0
ARC
  5
16BDB
  8
0
 10
4864.0004001278712167
 20
186.2464118791135093
 30
0.0
 40
0.2719892564112468
 50
35.1053780127802568
 51
44.8487067717359125
  0
ARC
  5
16BDC
  8
0
 10
4863.9600151187742085
 20
186.2062395872974889
 30
0.0
 40
0.3289520687499258
 50
44.8487067717359125
 51
53.2273992867498364
  0
ARC
  5
16BDD
  8
0
 10
4864.0156591993209076
 20
186.2806947686439969
 30
0.0
 40
0.2360013413236326
 50
53.2273992867498364
 51
62.1276655952092582
  0
ARC
  5
16BDE
  8
0
 10
4864.106971371687905
 20
186.4533550008538896
 30
0.0
 40
0.0406824517881114
 50
62.1276655952092582
 51
81.0352660342881563
  0
ARC
  5
16BDF
  8
0
 10
4864.1121462225037249
 20
186.4861583876638917
 30
0.0
 40
0.0074733977940552
 50
81.0352660342881563
 51
141.16841566712759
  0
LINE
  5
16BE0
  8
0
 10
4863.6731958263044362
 20
186.8018273598576116
 30
0.0
 11
4863.6527090413010228
 21
186.7511207877201969
 31
0.0
  0
ARC
  5
16BE1
  8
0
 10
4863.6709606920412625
 20
186.7437466421424972
 30
0.0
 40
0.0196850394402206
 50
157.9999999633396044
 51
241.999999974336589
  0
LINE
  5
16BE2
  8
0
 10
4863.6617191258301318
 20
186.7263657839438906
 30
0.0
 11
4863.7590378861041245
 21
186.6746204813576071
 31
0.0
  0
ARC
  5
16BE3
  8
0
 10
4863.7682794522734184
 20
186.6920013394758939
 30
0.0
 40
0.0196850393492055
 50
242.0000000592669949
 51
325.9999999661101242
  0
LINE
  5
16BE4
  8
0
 10
4863.7845990895038994
 20
186.680993605157596
 30
0.0
 11
4863.794823262302998
 21
186.6961515646640919
 31
0.0
  0
ARC
  5
16BE5
  8
0
 10
4863.7910760191052759
 20
186.6986791121184126
 30
0.0
 40
0.0045199920035255
 50
325.9999999661141032
 51
357.1103629663471111
  0
ARC
  5
16BE6
  8
0
 10
4863.7828726043753704
 20
186.6990931916529917
 30
0.0
 40
0.0127338507254144
 50
357.1103629663438142
 51
15.6204769692495908
  0
ARC
  5
16BE7
  8
0
 10
4863.7595855352810759
 20
186.6925823528721935
 30
0.0
 40
0.0369139791082594
 50
15.6204769692466297
 51
35.1053780127802568
  0
ARC
  5
16BE8
  8
0
 10
4863.567271451985107
 20
186.5573947818270142
 30
0.0
 40
0.2719892564112468
 50
35.1053780127802568
 51
44.8487067717359125
  0
ARC
  5
16BE9
  8
0
 10
4863.5268864428871893
 20
186.5172224900109939
 30
0.0
 40
0.3289520687499258
 50
44.8487067717359125
 51
53.2273992867498364
  0
ARC
  5
16BEA
  8
0
 10
4863.5825305234338884
 20
186.5916776713573881
 30
0.0
 40
0.2360013413236326
 50
53.2273992867498364
 51
62.1276655952092582
  0
ARC
  5
16BEB
  8
0
 10
4863.6738426958008858
 20
186.7643379035673945
 30
0.0
 40
0.0406824517881114
 50
62.1276655952092582
 51
81.0352660342881563
  0
ARC
  5
16BEC
  8
0
 10
4863.6790175466167057
 20
186.7971412903773114
 30
0.0
 40
0.0074733977940552
 50
81.0352660342881563
 51
141.16841566712759
  0
LINE
  5
16BED
  8
0
 10
4863.8842252395934338
 20
186.805564288303998
 30
0.0
 11
4863.8637384545900204
 21
186.7548577161666117
 31
0.0
  0
ARC
  5
16BEE
  8
0
 10
4863.8819901053311696
 20
186.747483570588912
 30
0.0
 40
0.0196850394402206
 50
157.9999999633396044
 51
241.999999974336589
  0
LINE
  5
16BEF
  8
0
 10
4863.8727485391191294
 20
186.7301027123903054
 30
0.0
 11
4863.9700672993931221
 21
186.6783574098039935
 31
0.0
  0
ARC
  5
16BF0
  8
0
 10
4863.979308865562416
 20
186.6957382679223088
 30
0.0
 40
0.0196850393492055
 50
242.0000000592669949
 51
325.9999999661101242
  0
LINE
  5
16BF1
  8
0
 10
4863.9956285027938065
 20
186.6847305336040108
 30
0.0
 11
4864.0058526755919956
 21
186.6998884931105067
 31
0.0
  0
ARC
  5
16BF2
  8
0
 10
4864.0021054323942735
 20
186.702416040564799
 30
0.0
 40
0.0045199920035255
 50
325.9999999661141032
 51
357.1103629663471111
  0
ARC
  5
16BF3
  8
0
 10
4863.993902017662549
 20
186.7028301200994918
 30
0.0
 40
0.0127338507254144
 50
357.1103629663438142
 51
15.6204769692495908
  0
ARC
  5
16BF4
  8
0
 10
4863.9706149485700735
 20
186.6963192813186083
 30
0.0
 40
0.0369139791082594
 50
15.6204769692466297
 51
35.1053780127802568
  0
ARC
  5
16BF5
  8
0
 10
4863.7783008652731951
 20
186.5611317102734006
 30
0.0
 40
0.2719892564112468
 50
35.1053780127802568
 51
44.8487067717359125
  0
ARC
  5
16BF6
  8
0
 10
4863.7379158561770964
 20
186.5209594184574087
 30
0.0
 40
0.3289520687499258
 50
44.8487067717359125
 51
53.2273992867498364
  0
ARC
  5
16BF7
  8
0
 10
4863.7935599367219766
 20
186.5954145998038882
 30
0.0
 40
0.2360013413236326
 50
53.2273992867498364
 51
62.1276655952092582
  0
ARC
  5
16BF8
  8
0
 10
4863.8848721090907929
 20
186.7680748320138946
 30
0.0
 40
0.0406824517881114
 50
62.1276655952092582
 51
81.0352660342881563
  0
ARC
  5
16BF9
  8
0
 10
4863.8900469599084317
 20
186.8008782188238115
 30
0.0
 40
0.0074733977940552
 50
81.0352660342881563
 51
141.16841566712759
  0
LINE
  5
16BFA
  8
0
 10
4863.9991449153931171
 20
186.6285171549039887
 30
0.0
 11
4863.9786581303887942
 21
186.5778105827666025
 31
0.0
  0
ARC
  5
16BFB
  8
0
 10
4863.9969097811308529
 20
186.5704364371889881
 30
0.0
 40
0.0196850394402206
 50
157.9999999633396044
 51
241.999999974336589
  0
LINE
  5
16BFC
  8
0
 10
4863.9876682149179032
 20
186.5530555789902962
 30
0.0
 11
4864.0849869751937149
 21
186.5013102764040127
 31
0.0
  0
ARC
  5
16BFD
  8
0
 10
4864.0942285413620993
 20
186.5186911345222995
 30
0.0
 40
0.0196850393492055
 50
242.0000000592669949
 51
325.9999999661101242
  0
LINE
  5
16BFE
  8
0
 10
4864.1105481785943994
 20
186.5076834002040016
 30
0.0
 11
4864.1207723513907695
 21
186.5228413597104975
 31
0.0
  0
ARC
  5
16BFF
  8
0
 10
4864.1170251081948663
 20
186.5253689071647898
 30
0.0
 40
0.0045199920035255
 50
325.9999999661141032
 51
357.1103629663471111
  0
ARC
  5
16C00
  8
0
 10
4864.1088216934640514
 20
186.525782986699511
 30
0.0
 40
0.0127338507254144
 50
357.1103629663438142
 51
15.6204769692495908
  0
ARC
  5
16C01
  8
0
 10
4864.0855346243688473
 20
186.5192721479185991
 30
0.0
 40
0.0369139791082594
 50
15.6204769692466297
 51
35.1053780127802568
  0
ARC
  5
16C02
  8
0
 10
4863.8932205410737879
 20
186.3840845768733914
 30
0.0
 40
0.2719892564112468
 50
35.1053780127802568
 51
44.8487067717359125
  0
ARC
  5
16C03
  8
0
 10
4863.8528355319767797
 20
186.3439122850573995
 30
0.0
 40
0.3289520687499258
 50
44.8487067717359125
 51
53.2273992867498364
  0
ARC
  5
16C04
  8
0
 10
4863.9084796125216599
 20
186.4183674664039074
 30
0.0
 40
0.2360013413236326
 50
53.2273992867498364
 51
62.1276655952092582
  0
ARC
  5
16C05
  8
0
 10
4863.9997917848913858
 20
186.5910276986139138
 30
0.0
 40
0.0406824517881114
 50
62.1276655952092582
 51
81.0352660342881563
  0
ARC
  5
16C06
  8
0
 10
4864.0049666357072056
 20
186.6238310854238023
 30
0.0
 40
0.0074733977940552
 50
81.0352660342881563
 51
141.16841566712759
  0
LINE
  5
16C07
  8
0
 10
4864.2126155298037702
 20
186.6309560737576021
 30
0.0
 11
4864.1921287448003568
 21
186.5802495016201874
 31
0.0
  0
ARC
  5
16C08
  8
0
 10
4864.2103803955405965
 20
186.5728753560424877
 30
0.0
 40
0.0196850394402206
 50
157.9999999633396044
 51
241.999999974336589
  0
LINE
  5
16C09
  8
0
 10
4864.2011388293285563
 20
186.5554944978439096
 30
0.0
 11
4864.2984575896052775
 21
186.5037491952575976
 31
0.0
  0
ARC
  5
16C0A
  8
0
 10
4864.3076991557727524
 20
186.5211300533759129
 30
0.0
 40
0.0196850393492055
 50
242.0000000592669949
 51
325.9999999661101242
  0
LINE
  5
16C0B
  8
0
 10
4864.3240187930041429
 20
186.5101223190575865
 30
0.0
 11
4864.3342429658032415
 21
186.5252802785641109
 31
0.0
  0
ARC
  5
16C0C
  8
0
 10
4864.3304957226046099
 20
186.5278078260184031
 30
0.0
 40
0.0045199920035255
 50
325.9999999661141032
 51
357.1103629663471111
  0
ARC
  5
16C0D
  8
0
 10
4864.3222923078747044
 20
186.5282219055530106
 30
0.0
 40
0.0127338507254144
 50
357.1103629663438142
 51
15.6204769692495908
  0
ARC
  5
16C0E
  8
0
 10
4864.2990052387804099
 20
186.5217110667722125
 30
0.0
 40
0.0369139791082594
 50
15.6204769692466297
 51
35.1053780127802568
  0
ARC
  5
16C0F
  8
0
 10
4864.106691155484441
 20
186.3865234957270047
 30
0.0
 40
0.2719892564112468
 50
35.1053780127802568
 51
44.8487067717359125
  0
ARC
  5
16C10
  8
0
 10
4864.0663061463874328
 20
186.3463512039110128
 30
0.0
 40
0.3289520687499258
 50
44.8487067717359125
 51
53.2273992867498364
  0
ARC
  5
16C11
  8
0
 10
4864.1219502269341319
 20
186.4208063852574071
 30
0.0
 40
0.2360013413236326
 50
53.2273992867498364
 51
62.1276655952092582
  0
ARC
  5
16C12
  8
0
 10
4864.2132623993011293
 20
186.5934666174674135
 30
0.0
 40
0.0406824517881114
 50
62.1276655952092582
 51
81.0352660342881563
  0
ARC
  5
16C13
  8
0
 10
4864.2184372501178586
 20
186.626270004277302
 30
0.0
 40
0.0074733977940552
 50
81.0352660342881563
 51
141.16841566712759
  0
LINE
  5
16C14
  8
0
 10
4864.3054477505129398
 20
186.4656530485522978
 30
0.0
 11
4864.2849609655113454
 21
186.4149464764147979
 31
0.0
  0
ARC
  5
16C15
  8
0
 10
4864.3032126162515851
 20
186.4075723308372119
 30
0.0
 40
0.0196850394402206
 50
157.9999999633396044
 51
241.999999974336589
  0
LINE
  5
16C16
  8
0
 10
4864.2939710500404544
 20
186.3901914726384916
 30
0.0
 11
4864.3912898103144471
 21
186.3384461700522081
 31
0.0
  0
ARC
  5
16C17
  8
0
 10
4864.4005313764828315
 20
186.3558270281704949
 30
0.0
 40
0.0196850393492055
 50
242.0000000592669949
 51
325.9999999661101242
  0
LINE
  5
16C18
  8
0
 10
4864.4168510137142221
 20
186.3448192938523107
 30
0.0
 11
4864.4270751865124112
 21
186.3599772533586929
 31
0.0
  0
ARC
  5
16C19
  8
0
 10
4864.4233279433137795
 20
186.3625048008130136
 30
0.0
 40
0.0045199920035255
 50
325.9999999661141032
 51
357.1103629663471111
  0
ARC
  5
16C1A
  8
0
 10
4864.4151245285838741
 20
186.3629188803477064
 30
0.0
 40
0.0127338507254144
 50
357.1103629663438142
 51
15.6204769692495908
  0
ARC
  5
16C1B
  8
0
 10
4864.3918374594895795
 20
186.3564080415669082
 30
0.0
 40
0.0369139791082594
 50
15.6204769692466297
 51
35.1053780127802568
  0
ARC
  5
16C1C
  8
0
 10
4864.1995233761936106
 20
186.2212204705215868
 30
0.0
 40
0.2719892564112468
 50
35.1053780127802568
 51
44.8487067717359125
  0
ARC
  5
16C1D
  8
0
 10
4864.1591383670984214
 20
186.1810481787055949
 30
0.0
 40
0.3289520687499258
 50
44.8487067717359125
 51
53.2273992867498364
  0
ARC
  5
16C1E
  8
0
 10
4864.2147824476433016
 20
186.2555033600521028
 30
0.0
 40
0.2360013413236326
 50
53.2273992867498364
 51
62.1276655952092582
  0
ARC
  5
16C1F
  8
0
 10
4864.306094620012118
 20
186.4281635922621092
 30
0.0
 40
0.0406824517881114
 50
62.1276655952092582
 51
81.0352660342881563
  0
ARC
  5
16C20
  8
0
 10
4864.3112694708279378
 20
186.4609669790719977
 30
0.0
 40
0.0074733977940552
 50
81.0352660342881563
 51
141.16841566712759
  0
LINE
  5
16C21
  8
0
 10
4864.3287643646672223
 20
186.3716915390820077
 30
0.0
 11
4864.3085692162730993
 21
186.3217067928796951
 31
0.0
  0
ARC
  5
16C22
  8
0
 10
4864.3268208670142485
 20
186.3143326473019954
 30
0.0
 40
0.0196850394402206
 50
157.9999999633396044
 51
241.999999974336589
  0
LINE
  5
16C23
  8
0
 10
4864.3175793008022083
 20
186.2969517891033888
 30
0.0
 11
4864.4964493218258212
 21
186.2018359930947895
 31
0.0
  0
ARC
  5
16C24
  8
0
 10
4864.4241396272464044
 20
186.2625873446353921
 30
0.0
 40
0.0196850393492055
 50
242.0000000592669949
 51
325.9999999661101242
  0
LINE
  5
16C25
  8
0
 10
4864.4404592644768854
 20
186.2515796103170942
 30
0.0
 11
4864.4506834372750745
 21
186.2667375698235901
 31
0.0
  0
ARC
  5
16C26
  8
0
 10
4864.4469361940773524
 20
186.2692651172779108
 30
0.0
 40
0.0045199920035255
 50
325.9999999661141032
 51
357.1103629663471111
  0
ARC
  5
16C27
  8
0
 10
4864.4387327793483564
 20
186.2696791968126035
 30
0.0
 40
0.0127338507254144
 50
357.1103629663438142
 51
15.6204769692495908
  0
ARC
  5
16C28
  8
0
 10
4864.4154457102531524
 20
186.2631683580316917
 30
0.0
 40
0.0369139791082594
 50
15.6204769692466297
 51
35.1053780127802568
  0
ARC
  5
16C29
  8
0
 10
4864.2231316269571835
 20
186.1279807869865124
 30
0.0
 40
0.2719892564112468
 50
35.1053780127802568
 51
44.8487067717359125
  0
ARC
  5
16C2A
  8
0
 10
4864.1827466178601753
 20
186.0878084951704921
 30
0.0
 40
0.3289520687499258
 50
44.8487067717359125
 51
49.051258815952643
  0
ARC
  5
16C2B
  8
0
 10
4864.5056908879951152
 20
186.2192168512129911
 30
0.0
 40
0.0196850393492055
 50
242.0000000592669949
 51
325.9999999661101242
  0
LINE
  5
16C2C
  8
0
 10
4864.5220105252255962
 20
186.2082091168946931
 30
0.0
 11
4864.5469739924692476
 21
186.2452189790222121
 31
0.0
  0
LINE
  5
16C2D
  8
0
 10
4864.5551481094043993
 20
186.3328850126576128
 30
0.0
 11
4864.5346613244009859
 21
186.2821784405201981
 31
0.0
  0
ARC
  5
16C2E
  8
0
 10
4864.5529129751421351
 20
186.2748042949424985
 30
0.0
 40
0.0196850394402206
 50
157.9999999633396044
 51
241.999999974336589
  0
LINE
  5
16C2F
  8
0
 10
4864.5436714089300949
 20
186.2574234367438919
 30
0.0
 11
4864.6409901692040876
 21
186.2056781341576084
 31
0.0
  0
ARC
  5
16C30
  8
0
 10
4864.6502317353733815
 20
186.2230589922758952
 30
0.0
 40
0.0196850393492055
 50
242.0000000592669949
 51
325.9999999661101242
  0
LINE
  5
16C31
  8
0
 10
4864.6665513726038625
 20
186.2120512579575973
 30
0.0
 11
4864.6767755454020516
 21
186.2272092174640932
 31
0.0
  0
ARC
  5
16C32
  8
0
 10
4864.673028302205239
 20
186.2297367649184139
 30
0.0
 40
0.0045199920035255
 50
325.9999999661141032
 51
357.1103629663471111
  0
ARC
  5
16C33
  8
0
 10
4864.6648248874753335
 20
186.2301508444529929
 30
0.0
 40
0.0127338507254144
 50
357.1103629663438142
 51
15.6204769692495908
  0
ARC
  5
16C34
  8
0
 10
4864.641537818381039
 20
186.2236400056721948
 30
0.0
 40
0.0369139791082594
 50
15.6204769692466297
 51
35.1053780127802568
  0
ARC
  5
16C35
  8
0
 10
4864.4492237350859796
 20
186.088452434626987
 30
0.0
 40
0.2719892564112468
 50
35.1053780127802568
 51
44.8487067717359125
  0
ARC
  5
16C36
  8
0
 10
4864.4088387259871524
 20
186.0482801428109951
 30
0.0
 40
0.3289520687499258
 50
44.8487067717359125
 51
53.2273992867498364
  0
ARC
  5
16C37
  8
0
 10
4864.464482806532942
 20
186.1227353241575031
 30
0.0
 40
0.2360013413236326
 50
53.2273992867498364
 51
62.1276655952092582
  0
ARC
  5
16C38
  8
0
 10
4864.5557949789008489
 20
186.2953955563673958
 30
0.0
 40
0.0406824517881114
 50
62.1276655952092582
 51
81.0352660342881563
  0
ARC
  5
16C39
  8
0
 10
4864.5609698297175782
 20
186.328198943177398
 30
0.0
 40
0.0074733977940552
 50
81.0352660342881563
 51
141.16841566712759
  0
LINE
  5
16C3A
  8
0
 10
4864.518626561203746
 20
186.4682471221576066
 30
0.0
 11
4864.4981397762003326
 21
186.4175405500201919
 31
0.0
  0
ARC
  5
16C3B
  8
0
 10
4864.5163914269423913
 20
186.4101664044424922
 30
0.0
 40
0.0196850394402206
 50
157.9999999633396044
 51
241.999999974336589
  0
LINE
  5
16C3C
  8
0
 10
4864.5071498607294416
 20
186.392785546243914
 30
0.0
 11
4864.6044686210052532
 21
186.3410402436576021
 31
0.0
  0
ARC
  5
16C3D
  8
0
 10
4864.6137101871727282
 20
186.3584211017758889
 30
0.0
 40
0.0196850393492055
 50
242.0000000592669949
 51
325.9999999661101242
  0
LINE
  5
16C3E
  8
0
 10
4864.6300298244041187
 20
186.347413367457591
 30
0.0
 11
4864.6402539972023078
 21
186.3625713269640869
 31
0.0
  0
ARC
  5
16C3F
  8
0
 10
4864.6365067540045857
 20
186.3650988744184076
 30
0.0
 40
0.0045199920035255
 50
325.9999999661141032
 51
357.1103629663471111
  0
ARC
  5
16C40
  8
0
 10
4864.6283033392746802
 20
186.3655129539529867
 30
0.0
 40
0.0127338507254144
 50
357.1103629663438142
 51
15.6204769692495908
  0
ARC
  5
16C41
  8
0
 10
4864.6050162701803856
 20
186.3590021151721885
 30
0.0
 40
0.0369139791082594
 50
15.6204769692466297
 51
35.1053780127802568
  0
ARC
  5
16C42
  8
0
 10
4864.4127021868853262
 20
186.2238145441270092
 30
0.0
 40
0.2719892564112468
 50
35.1053780127802568
 51
44.8487067717359125
  0
ARC
  5
16C43
  8
0
 10
4864.3723171777883181
 20
186.1836422523109889
 30
0.0
 40
0.3289520687499258
 50
44.8487067717359125
 51
53.2273992867498364
  0
ARC
  5
16C44
  8
0
 10
4864.4279612583331982
 20
186.2580974336574116
 30
0.0
 40
0.2360013413236326
 50
53.2273992867498364
 51
62.1276655952092582
  0
ARC
  5
16C45
  8
0
 10
4864.5192734307011051
 20
186.4307576658673895
 30
0.0
 40
0.0406824517881114
 50
62.1276655952092582
 51
81.0352660342881563
  0
ARC
  5
16C46
  8
0
 10
4864.5244482815169249
 20
186.4635610526773064
 30
0.0
 40
0.0074733977940552
 50
81.0352660342881563
 51
141.16841566712759
  0
LINE
  5
16C47
  8
0
 10
4864.7814041925930724
 20
186.3285257771040051
 30
0.0
 11
4864.760917407589659
 21
186.2778192049665904
 31
0.0
  0
ARC
  5
16C48
  8
0
 10
4864.7791690583308082
 20
186.2704450593890044
 30
0.0
 40
0.0196850394402206
 50
157.9999999633396044
 51
241.999999974336589
  0
LINE
  5
16C49
  8
0
 10
4864.769927492118768
 20
186.2530642011903126
 30
0.0
 11
4864.8672462523936701
 21
186.2013188986040007
 31
0.0
  0
ARC
  5
16C4A
  8
0
 10
4864.8764878185629641
 20
186.2186997567222875
 30
0.0
 40
0.0196850393492055
 50
242.0000000592669949
 51
325.9999999661101242
  0
LINE
  5
16C4B
  8
0
 10
4864.8928074557934451
 20
186.2076920224039895
 30
0.0
 11
4864.9030316285916342
 21
186.2228499819105139
 31
0.0
  0
ARC
  5
16C4C
  8
0
 10
4864.8992843853939121
 20
186.2253775293648062
 30
0.0
 40
0.0045199920035255
 50
325.9999999661141032
 51
357.1103629663471111
  0
ARC
  5
16C4D
  8
0
 10
4864.8910809706640066
 20
186.2257916088994989
 30
0.0
 40
0.0127338507254144
 50
357.1103629663438142
 51
15.6204769692495908
  0
ARC
  5
16C4E
  8
0
 10
4864.867793901569712
 20
186.219280770118587
 30
0.0
 40
0.0369139791082594
 50
15.6204769692466297
 51
35.1053780127802568
  0
ARC
  5
16C4F
  8
0
 10
4864.6754798182737431
 20
186.0840931990734077
 30
0.0
 40
0.2719892564112468
 50
35.1053780127802568
 51
44.8487067717359125
  0
ARC
  5
16C50
  8
0
 10
4864.635094809176735
 20
186.0439209072573874
 30
0.0
 40
0.3289520687499258
 50
44.8487067717359125
 51
53.2273992867498364
  0
ARC
  5
16C51
  8
0
 10
4864.6907388897234341
 20
186.1183760886038954
 30
0.0
 40
0.2360013413236326
 50
53.2273992867498364
 51
62.1276655952092582
  0
ARC
  5
16C52
  8
0
 10
4864.7820510620904315
 20
186.2910363208137881
 30
0.0
 40
0.0406824517881114
 50
62.1276655952092582
 51
81.0352660342881563
  0
ARC
  5
16C53
  8
0
 10
4864.7872259129071608
 20
186.3238397076237902
 30
0.0
 40
0.0074733977940552
 50
81.0352660342881563
 51
141.16841566712759
  0
LINE
  5
16C54
  8
0
 10
4864.7181284438211151
 20
186.2462268316484995
 30
0.0
 11
4864.6976416588177017
 21
186.1955202595111132
 31
0.0
  0
ARC
  5
16C55
  8
0
 10
4864.7158933095588509
 20
186.1881461139334988
 30
0.0
 40
0.0196850394402206
 50
157.9999999633396044
 51
241.999999974336589
  0
LINE
  5
16C56
  8
0
 10
4864.7066517433468107
 20
186.1707652557348069
 30
0.0
 11
4864.8603574770331761
 21
186.0890384676372094
 31
0.0
  0
ARC
  5
16C57
  8
0
 10
4864.8132120697900973
 20
186.1364008112668103
 30
0.0
 40
0.0196850393492055
 50
242.0000000592669949
 51
325.9999999661101242
  0
LINE
  5
16C58
  8
0
 10
4864.8295317070205783
 20
186.1253930769485123
 30
0.0
 11
4864.8397558798187674
 21
186.1405510364550082
 31
0.0
  0
ARC
  5
16C59
  8
0
 10
4864.8360086366219548
 20
186.1430785839093005
 30
0.0
 40
0.0045199920035255
 50
325.9999999661141032
 51
357.1103629663471111
  0
ARC
  5
16C5A
  8
0
 10
4864.8278052218911398
 20
186.1434926634439933
 30
0.0
 40
0.0127338507254144
 50
357.1103629663438142
 51
15.6204769692495908
  0
ARC
  5
16C5B
  8
0
 10
4864.8045181527977547
 20
186.1369818246631098
 30
0.0
 40
0.0369139791082594
 50
15.6204769692466297
 51
35.1053780127802568
  0
ARC
  5
16C5C
  8
0
 10
4864.6122040695008764
 20
186.0017942536179021
 30
0.0
 40
0.2719892564112468
 50
35.1053780127802568
 51
44.8487067717359125
  0
ARC
  5
16C5D
  8
0
 10
4864.5718190604047777
 20
185.9616219618019102
 30
0.0
 40
0.3289520687499258
 50
44.8487067717359125
 51
53.2273992867498364
  0
ARC
  5
16C5E
  8
0
 10
4864.6274631409496578
 20
186.0360771431483897
 30
0.0
 40
0.2360013413236326
 50
53.2273992867498364
 51
62.1276655952092582
  0
ARC
  5
16C5F
  8
0
 10
4864.7187753133193837
 20
186.2087373753583108
 30
0.0
 40
0.0406824517881114
 50
62.1276655952092582
 51
81.0352660342881563
  0
ARC
  5
16C60
  8
0
 10
4864.7239501641352035
 20
186.2415407621681993
 30
0.0
 40
0.0074733977940552
 50
81.0352660342881563
 51
141.16841566712759
  0
ARC
  5
16C61
  8
0
 10
4864.8695990431760947
 20
186.1064193257074919
 30
0.0
 40
0.0196850393492055
 50
242.0000000592669949
 51
325.9999999661101242
  0
LINE
  5
16C62
  8
0
 10
4864.8859186804065757
 20
186.095411591389194
 30
0.0
 11
4864.9150295793460828
 21
186.1385702738585906
 31
0.0
  0
LINE
  5
16C63
  8
0
 10
4864.9830405610937305
 20
186.2213138183039973
 30
0.0
 11
4864.9625537760903171
 21
186.170607246166611
 31
0.0
  0
ARC
  5
16C64
  8
0
 10
4864.9808054268305568
 20
186.1632331005889966
 30
0.0
 40
0.0196850394402206
 50
157.9999999633396044
 51
241.999999974336589
  0
LINE
  5
16C65
  8
0
 10
4864.9715638606203356
 20
186.1458522423903048
 30
0.0
 11
4865.0688826208934188
 21
186.0941069398039929
 31
0.0
  0
ARC
  5
16C66
  8
0
 10
4865.0781241870608937
 20
186.1114877979223081
 30
0.0
 40
0.0196850393492055
 50
242.0000000592669949
 51
325.9999999661101242
  0
LINE
  5
16C67
  8
0
 10
4865.0944438242931938
 20
186.1004800636040102
 30
0.0
 11
4865.1046679970913829
 21
186.1156380231105061
 31
0.0
  0
ARC
  5
16C68
  8
0
 10
4865.1009207538945702
 20
186.1181655705647984
 30
0.0
 40
0.0045199920035255
 50
325.9999999661141032
 51
357.1103629663471111
  0
ARC
  5
16C69
  8
0
 10
4865.0927173391628457
 20
186.1185796500994911
 30
0.0
 40
0.0127338507254144
 50
357.1103629663438142
 51
15.6204769692495908
  0
ARC
  5
16C6A
  8
0
 10
4865.0694302700712797
 20
186.1120688113186077
 30
0.0
 40
0.0369139791082594
 50
15.6204769692466297
 51
35.1053780127802568
  0
ARC
  5
16C6B
  8
0
 10
4864.8771161867744013
 20
185.9768812402734
 30
0.0
 40
0.2719892564112468
 50
35.1053780127802568
 51
44.8487067717359125
  0
ARC
  5
16C6C
  8
0
 10
4864.8367311776773931
 20
185.936708948457408
 30
0.0
 40
0.3289520687499258
 50
44.8487067717359125
 51
53.2273992867498364
  0
ARC
  5
16C6D
  8
0
 10
4864.8923752582222733
 20
186.0111641298038876
 30
0.0
 40
0.2360013413236326
 50
53.2273992867498364
 51
62.1276655952092582
  0
ARC
  5
16C6E
  8
0
 10
4864.9836874305910897
 20
186.183824362013894
 30
0.0
 40
0.0406824517881114
 50
62.1276655952092582
 51
81.0352660342881563
  0
ARC
  5
16C6F
  8
0
 10
4864.988862281407819
 20
186.2166277488238109
 30
0.0
 40
0.0074733977940552
 50
81.0352660342881563
 51
141.16841566712759
  0
ARC
  5
16C70
  8
0
 10
4865.1075593622408633
 20
186.0958368376425938
 30
0.0
 40
0.0196850394402206
 50
184.1379348597236003
 51
241.999999974336589
  0
LINE
  5
16C71
  8
0
 10
4865.0983177960297326
 20
186.0784559794439019
 30
0.0
 11
4865.2388725879463891
 21
186.0038459706019012
 31
0.0
  0
ARC
  5
16C72
  8
0
 10
4865.2048781224721097
 20
186.0442158344746133
 30
0.0
 40
0.0196850393492055
 50
242.0000000592669949
 51
325.9999999661101242
  0
LINE
  5
16C73
  8
0
 10
4865.2211977597053192
 20
186.0332081001562869
 30
0.0
 11
4865.2470535828460925
 21
186.0714166348080028
 31
0.0
  0
ARC
  5
16C74
  8
0
 10
4865.248111508762122
 20
186.0212282350209989
 30
0.0
 40
0.0196850393492222
 50
242.0087200784184063
 51
325.9999999660980166
  0
LINE
  5
16C75
  8
0
 10
4865.264431145994422
 20
186.010220500702701
 30
0.0
 11
4865.2999461317021996
 21
186.0627493327451134
 31
0.0
  0
ARC
  5
16C76
  8
0
 10
4870.4155310327596453
 20
183.229275052900789
 30
0.0
 40
2.361383050211475
 50
204.4642028769945057
 51
207.4457150085424928
  0
ARC
  5
16C77
  8
0
 10
4868.3616146888098228
 20
182.1625459909957101
 30
0.0
 40
0.0469752988729391
 50
207.4457150085395938
 51
277.3001185757004805
  0
ARC
  5
16C78
  8
0
 10
4868.3813814896011536
 20
183.6719830633905985
 30
0.0
 40
1.556092771407702
 50
269.4919541769937723
 51
272.2569930364605852
  0
ARC
  5
16C79
  8
0
 10
4852.1631907350338224
 20
231.5170432432205985
 30
0.0
 40
52.0132278118798226
 50
288.2393431542047892
 51
289.2203982107096749
  0
ARC
  5
16C7A
  8
0
 10
4868.3813418782910958
 20
183.6846694402892126
 30
0.0
 40
1.5687779780285209
 50
305.2204189827965024
 51
307.4556104883288867
  0
ARC
  5
16C7B
  8
0
 10
4869.2994679351731975
 20
182.4862173296606898
 30
0.0
 40
0.0590618068607051
 50
307.4589120376177789
 51
18.9475196656782288
  0
LINE
  5
16C7C
  8
0
 10
4869.2749298191392882
 20
182.3991824090184934
 30
0.0
 11
4869.2760040378580015
 21
182.3960011711851905
 31
0.0
  0
LINE
  5
16C7D
  8
0
 10
4869.2760040378580015
 20
182.3960011711851905
 30
0.0
 11
4869.3389317204791951
 21
182.1901739957411053
 31
0.0
  0
LINE
  5
16C7E
  8
0
 10
4868.4426653969176186
 20
182.1170902054176111
 30
0.0
 11
4868.4988453616388142
 21
181.9333338207806889
 31
0.0
  0
LINE
  5
16C7F
  8
0
 10
4868.4916756379052458
 20
181.9105416886575881
 30
0.0
 11
4869.3576208893027797
 21
182.1752877204575896
 31
0.0
  0
ARC
  5
16C80
  8
0
 10
4869.3200925167866444
 20
182.1844142731573015
 30
0.0
 40
0.0197
 50
286.999999999000579
 51
17.000000002490971
  0
ARC
  5
16C81
  8
0
 10
4868.5176845653295459
 20
181.9390935433659138
 30
0.0
 40
0.0197
 50
197.0000000065012102
 51
286.999999999000579
  0
LINE
  5
16C82
  8
0
 10
4869.3576208893027797
 20
182.1752877204575896
 30
0.0
 11
4869.5166921795389499
 21
181.5652172258683947
 31
0.0
  0
LINE
  5
16C83
  8
0
 10
4868.4916756379052458
 20
181.9105416886575881
 30
0.0
 11
4868.7009466528015764
 21
181.3158187900571079
 31
0.0
  0
LINE
  5
16C84
  8
0
 10
4868.4088195961039673
 20
182.1161323472576044
 30
0.0
 11
4868.3883201511052903
 21
182.1876224075575976
 31
0.0
  0
ARC
  5
16C85
  8
0
 10
4868.3923805066233399
 20
182.1887866957717108
 30
0.0
 40
0.0042239855567891
 50
128.2875051467702008
 51
196.000000060264199
  0
ARC
  5
16C86
  8
0
 10
4868.4090100721059571
 20
182.1677205701168134
 30
0.0
 40
0.0310628398219822
 50
111.397729733482393
 51
128.2875051467713092
  0
ARC
  5
16C87
  8
0
 10
4868.4274715046349229
 20
182.1018126651821092
 30
0.0
 40
0.0993999872831437
 50
89.489414018536408
 51
107.4421347026368068
  0
ARC
  5
16C88
  8
0
 10
4868.4112490797278952
 20
183.9460557323450871
 30
0.0
 40
1.7449308975666971
 50
270.5617665179631217
 51
272.5083884999946804
  0
ARC
  5
16C89
  8
0
 10
4868.411864011562102
 20
183.938415793000388
 30
0.0
 40
1.7372713882891651
 50
272.4991548103856189
 51
280.9853481114332112
  0
ARC
  5
16C8A
  8
0
 10
4868.6788504910318807
 20
182.8478608958172913
 30
0.0
 40
0.6182110527218221
 50
275.9481668916279204
 51
287.7972181165438883
  0
ARC
  5
16C8B
  8
0
 10
4868.6788504910318807
 20
182.8478608958172913
 30
0.0
 40
0.6182110527218221
 50
289.6915889240830779
 51
289.8928745758535115
  0
LINE
  5
16C8D
  8
0
 10
4869.3090515845042319
 20
174.2525694747513114
 30
0.0
 11
4869.3484216632041353
 21
174.2525694747513114
 31
0.0
  0
LINE
  5
16C8E
  8
0
 10
4869.3090515845042319
 20
173.4675694747512864
 30
0.0
 11
4869.3484216632041353
 21
173.4675694747512864
 31
0.0
  0
LINE
  5
16C8F
  8
0
 10
4870.3084989318203952
 20
175.0583252609569911
 30
0.0
 11
4870.3084989318203952
 21
172.6346582678305026
 31
0.0
  0
LINE
  5
16C90
  8
0
 10
4867.6976465896013906
 20
173.2953106620576023
 30
0.0
 11
4867.2853445002474473
 21
173.2953106620576023
 31
0.0
  0
LINE
  5
16C91
  8
0
 10
4865.9868773135613083
 20
173.2953106620576023
 30
0.0
 11
4865.7122106209953927
 21
173.2953106620576023
 31
0.0
  0
LINE
  5
16C92
  8
0
 10
4865.7122823528134177
 20
174.3976728668575902
 30
0.0
 11
4866.5337882319718119
 21
174.3976728668575902
 31
0.0
  0
LINE
  5
16C93
  8
0
 10
4866.7384480606297075
 20
174.3976728668575902
 30
0.0
 11
4867.7275425677571548
 21
174.3976728668575902
 31
0.0
  0
LINE
  5
16C94
  8
0
 10
4868.4135288320067048
 20
175.3897988510576056
 30
0.0
 11
4869.6506384660042386
 21
175.3897988510576056
 31
0.0
  0
LINE
  5
16C95
  8
0
 10
4869.6506384660042386
 20
174.510945796057598
 30
0.0
 11
4869.6506384660042386
 21
175.3897988510576056
 31
0.0
  0
LINE
  5
16C96
  8
0
 10
4864.3578144475877707
 20
173.692581504373095
 30
0.0
 11
4864.0416570242050511
 21
173.2410619103575868
 31
0.0
  0
LINE
  5
16C97
  8
0
 10
4865.2608578445469902
 20
173.0603512784230134
 30
0.0
 11
4864.9446592778040213
 21
172.6087729254576004
 31
0.0
  0
ARC
  5
16C98
  8
0
 10
4865.7122106209953927
 20
172.7443106620575861
 30
0.0
 40
0.551
 50
90.0
 51
145.0000000081406881
  0
ARC
  5
16C99
  8
0
 10
4865.7122823528134177
 20
172.7441728668576104
 30
0.0
 40
1.6535
 50
90.0
 51
144.9999999996184101
  0
LINE
  5
16C9A
  8
0
 10
4864.0416570242050511
 20
173.2410619103575868
 30
0.0
 11
4864.9446592778040213
 21
172.6087729254576004
 31
0.0
  0
LINE
  5
16C9B
  8
0
 10
4866.097857745687179
 20
173.2165705046575965
 30
0.0
 11
4867.1743640681197576
 21
173.2165705046575965
 31
0.0
  0
LINE
  5
16C9C
  8
0
 10
4866.2286305919051301
 20
173.1968854652575942
 30
0.0
 11
4866.2286305919051301
 21
173.1063342841576116
 31
0.0
  0
LINE
  5
16C9D
  8
0
 10
4866.2286305919051301
 20
173.1968854652575942
 30
0.0
 11
4866.2146080029169752
 21
173.2144137015417868
 31
0.0
  0
ARC
  5
16C9E
  8
0
 10
4866.220756576203712
 20
173.2193325601575111
 30
0.0
 40
0.0078740156998726
 50
200.5350950959663976
 51
218.6598081743599948
  0
LINE
  5
16C9F
  8
0
 10
4866.1835140706052698
 20
173.0275941266575899
 30
0.0
 11
4867.0887963775048775
 21
173.0275941266575899
 31
0.0
  0
LINE
  5
16CA0
  8
0
 10
4866.1835140706052698
 20
173.0275941266575899
 30
0.0
 11
4866.1835140706052698
 21
172.6753646799494959
 31
0.0
  0
LINE
  5
16CA1
  8
0
 10
4866.2286305919051301
 20
173.1968854652575942
 30
0.0
 11
4867.0435912219036254
 21
173.1968854652575942
 31
0.0
  0
ARC
  5
16CA2
  8
0
 10
4865.9864844632038512
 20
173.1771761121576105
 30
0.0
 40
0.1181352031000135
 50
19.4794472061235808
 51
89.8094665237821346
  0
LINE
  5
16CA3
  8
0
 10
4867.0887963775048775
 20
173.0275941266575899
 30
0.0
 11
4867.0887963775048775
 21
172.6754528855749982
 31
0.0
  0
LINE
  5
16CA4
  8
0
 10
4867.0435912219036254
 20
173.1968854652575942
 30
0.0
 11
4867.0435912219036254
 21
173.1063342841576116
 31
0.0
  0
LINE
  5
16CA5
  8
0
 10
4867.0435912219036254
 20
173.1968854652575942
 30
0.0
 11
4867.0576138108917803
 21
173.2144137015417868
 31
0.0
  0
ARC
  5
16CA6
  8
0
 10
4867.051465237604134
 20
173.2193325601575111
 30
0.0
 40
0.0078740156998726
 50
321.3401918256399199
 51
339.4649049040335171
  0
ARC
  5
16CA7
  8
0
 10
4867.2857373506039949
 20
173.1771761121576105
 30
0.0
 40
0.1181352031000135
 50
90.1905334762178654
 51
160.5205527938763908
  0
LINE
  5
16CA8
  8
0
 10
4866.1931975211036843
 20
172.5866492447576093
 30
0.0
 11
4867.0790242928042062
 21
172.5866492447576093
 31
0.0
  0
ARC
  5
16CA9
  8
0
 10
4871.3820240683417069
 20
166.6833348318268975
 30
0.0
 40
8.5338052992092326
 50
125.9468815230099068
 51
129.2132719909054117
  0
ARC
  5
16CAA
  8
0
 10
4867.0593317897973975
 20
172.644693845898388
 30
0.0
 40
1.170146574253202
 50
117.7798152250065016
 51
125.9488698224703995
  0
ARC
  5
16CAB
  8
0
 10
4866.6466356780501883
 20
173.4382743784971126
 30
0.0
 40
0.2757233519199349
 50
92.1875967334738533
 51
118.7642448748188002
  0
ARC
  5
16CAC
  8
0
 10
4861.8901977454661392
 20
166.6833348318268975
 30
0.0
 40
8.5338052992092326
 50
50.786728009094567
 51
54.0531184769901003
  0
ARC
  5
16CAD
  8
0
 10
4866.6255861357567483
 20
173.4382743784971126
 30
0.0
 40
0.2757233519199349
 50
61.2357551251811287
 51
87.8124032665261183
  0
ARC
  5
16CAE
  8
0
 10
4866.2128900240104485
 20
172.644693845898388
 30
0.0
 40
1.170146574253202
 50
54.0511301775295934
 51
62.22018477499347
  0
LINE
  5
16CAF
  8
0
 10
4866.4198904345039409
 20
174.5945232605575939
 30
0.0
 11
4866.8523313793039051
 21
174.5945232605575939
 31
0.0
  0
LINE
  5
16CB0
  8
0
 10
4866.4198904345039409
 20
175.1338933392576109
 30
0.0
 11
4866.8523313793039051
 21
175.1338933392576109
 31
0.0
  0
LINE
  5
16CB1
  8
0
 10
4866.3998904345044139
 20
174.6145232605576041
 30
0.0
 11
4866.3998904345044139
 21
175.1138933392576007
 31
0.0
  0
ARC
  5
16CB2
  8
0
 10
4866.4198904345039409
 20
174.6145232605576041
 30
0.0
 40
0.02
 50
180.0000000000015916
 51
270.0
  0
ARC
  5
16CB3
  8
0
 10
4866.4198904345039409
 20
175.1138933392576007
 30
0.0
 40
0.02
 50
90.0
 51
179.9999999999967031
  0
LINE
  5
16CB4
  8
0
 10
4866.5376857101027781
 20
174.5945232605575939
 30
0.0
 11
4866.5376857101027781
 21
174.3969503879675074
 31
0.0
  0
ARC
  5
16CB5
  8
0
 10
4866.6361181463007597
 20
174.9388270139210988
 30
0.0
 40
0.5507442439558509
 50
259.2920493120086007
 51
280.7079506879912856
  0
LINE
  5
16CB6
  8
0
 10
4866.7345361037041584
 20
174.5945232605575939
 30
0.0
 11
4866.7345361037041584
 21
174.3969503879675074
 31
0.0
  0
LINE
  5
16CB7
  8
0
 10
4866.8723313793052512
 20
174.6145232605576041
 30
0.0
 11
4866.8723313793052512
 21
175.1138933392576007
 31
0.0
  0
ARC
  5
16CB8
  8
0
 10
4866.8523313793039051
 20
174.6145232605576041
 30
0.0
 40
0.02
 50
270.0
 51
359.9999999999968168
  0
ARC
  5
16CB9
  8
0
 10
4866.8523313793039051
 20
175.1138933392576007
 30
0.0
 40
0.02
 50
0.0000000000032569
 51
90.0
  0
LINE
  5
16CBA
  8
0
 10
4864.4299258272039879
 20
172.9238438295575975
 30
0.0
 11
4864.4512330464367551
 21
172.9542736921615926
 31
0.0
  0
ARC
  5
16CBB
  8
0
 10
4864.8243352858808066
 20
173.3890075208821884
 30
0.0
 40
0.609865625216475
 50
214.1993946404830922
 51
229.7055916356972887
  0
LINE
  5
16CBC
  8
0
 10
4864.3285836838031173
 20
173.0401537004212003
 30
0.0
 11
4864.3320580853451247
 21
173.0345915526374938
 31
0.0
  0
LINE
  5
16CBD
  8
0
 10
4864.3320580853451247
 20
173.0345915526374938
 30
0.0
 11
4864.3434438828453494
 21
173.0211303216374858
 31
0.0
  0
LINE
  5
16CBE
  8
0
 10
4864.3434438828453494
 20
173.0211303216374858
 30
0.0
 11
4864.3451373649450034
 21
173.023548864837494
 31
0.0
  0
LINE
  5
16CBF
  8
0
 10
4864.3451373649450034
 20
173.023548864837494
 30
0.0
 11
4864.3396456331065565
 21
173.0324080401335891
 31
0.0
  0
LINE
  5
16CC0
  8
0
 10
4864.3419581706357349
 20
173.0299166214159925
 30
0.0
 11
4864.3519005662647032
 21
173.014393999008206
 31
0.0
  0
LINE
  5
16CC1
  8
0
 10
4864.3519005662647032
 20
173.014393999008206
 30
0.0
 11
4864.3640729807502794
 21
173.0020561735456113
 31
0.0
  0
LINE
  5
16CC2
  8
0
 10
4864.3640729807502794
 20
173.0020561735456113
 30
0.0
 11
4864.3663176066693268
 21
173.0052618316695998
 31
0.0
  0
LINE
  5
16CC3
  8
0
 10
4864.3663176066693268
 20
173.0052618316695998
 30
0.0
 11
4864.3566841325218775
 21
173.0203872997703058
 31
0.0
  0
LINE
  5
16CC4
  8
0
 10
4864.3651722035428975
 20
173.0145341430915948
 30
0.0
 11
4864.3632330106684094
 21
173.0117646886151022
 31
0.0
  0
LINE
  5
16CC5
  8
0
 10
4864.3632330106684094
 20
173.0117646886151022
 30
0.0
 11
4864.3733500964435734
 21
172.9964915495374953
 31
0.0
  0
LINE
  5
16CC6
  8
0
 10
4864.3733500964435734
 20
172.9964915495374953
 30
0.0
 11
4864.3862916132447936
 21
172.9852521160374863
 31
0.0
  0
LINE
  5
16CC7
  8
0
 10
4864.3862916132447936
 20
172.9852521160374863
 30
0.0
 11
4864.3890947225436321
 21
172.9892553710375012
 31
0.0
  0
LINE
  5
16CC8
  8
0
 10
4864.3890947225436321
 20
172.9892553710375012
 30
0.0
 11
4864.3792588726100803
 21
173.0046705512239953
 31
0.0
  0
LINE
  5
16CC9
  8
0
 10
4864.3879764541534314
 20
172.998566434913414
 30
0.0
 11
4864.3860645723752896
 21
172.9958359846816904
 31
0.0
  0
LINE
  5
16CCA
  8
0
 10
4864.3860645723752896
 20
172.9958359846816904
 30
0.0
 11
4864.3963863748876975
 21
172.980855211501904
 31
0.0
  0
LINE
  5
16CCB
  8
0
 10
4864.3963863748876975
 20
172.980855211501904
 30
0.0
 11
4864.410351069483113
 21
172.9710770272969
 31
0.0
  0
LINE
  5
16CCC
  8
0
 10
4864.410351069483113
 20
172.9710770272969
 30
0.0
 11
4864.4134683045449492
 21
172.9755289004374958
 31
0.0
  0
LINE
  5
16CCD
  8
0
 10
4864.4134683045449492
 20
172.9755289004374958
 30
0.0
 11
4864.4064285006643331
 21
172.9856461728527961
 31
0.0
  0
LINE
  5
16CCE
  8
0
 10
4864.4107807047748793
 20
172.9825987267271046
 30
0.0
 11
4864.4105034435588095
 21
172.9822027567576868
 31
0.0
  0
LINE
  5
16CCF
  8
0
 10
4864.4105034435588095
 20
172.9822027567576868
 30
0.0
 11
4864.4210128541426457
 21
172.9674899157041921
 31
0.0
  0
LINE
  5
16CD0
  8
0
 10
4864.4210128541426457
 20
172.9674899157041921
 30
0.0
 11
4864.4217161366450455
 21
172.9670308864374988
 31
0.0
  0
LINE
  5
16CD1
  8
0
 10
4864.4217161366450455
 20
172.9670308864374988
 30
0.0
 11
4864.4254329820732892
 21
172.9723390917133088
 31
0.0
  0
LINE
  5
16CD2
  8
0
 10
4864.4043139120449268
 20
172.9733631896374959
 30
0.0
 11
4864.4015319907593948
 21
172.9693901942706873
 31
0.0
  0
LINE
  5
16CD3
  8
0
 10
4864.4015319907593948
 20
172.9693901942706873
 30
0.0
 11
4864.412684470739805
 21
172.9555957514064914
 31
0.0
  0
LINE
  5
16CD4
  8
0
 10
4864.412684470739805
 20
172.9555957514064914
 30
0.0
 11
4864.4133720535492102
 21
172.9551143007429914
 31
0.0
  0
LINE
  5
16CD5
  8
0
 10
4864.4133720535492102
 20
172.9551143007429914
 30
0.0
 11
4864.4187619393451314
 21
172.9628118554375078
 31
0.0
  0
LINE
  5
16CD6
  8
0
 10
4864.4187619393451314
 20
172.9628118554375078
 30
0.0
 11
4864.4182238078446971
 21
172.9635067447374865
 31
0.0
  0
LINE
  5
16CD7
  8
0
 10
4864.4182238078446971
 20
172.9635067447374865
 30
0.0
 11
4864.4043139120449268
 21
172.9733631896374959
 31
0.0
  0
LINE
  5
16CD8
  8
0
 10
4864.3975050664130322
 20
172.9636391503181017
 30
0.0
 11
4864.3958674329187488
 21
172.9613003673516118
 31
0.0
  0
LINE
  5
16CD9
  8
0
 10
4864.3958674329187488
 20
172.9613003673516118
 30
0.0
 11
4864.40760808063078
 21
172.948345915018507
 31
0.0
  0
LINE
  5
16CDA
  8
0
 10
4864.40760808063078
 20
172.948345915018507
 30
0.0
 11
4864.4082574692447452
 21
172.9478099173375085
 31
0.0
  0
LINE
  5
16CDB
  8
0
 10
4864.4082574692447452
 20
172.9478099173375085
 30
0.0
 11
4864.4114377473442801
 21
172.9523518251374981
 31
0.0
  0
LINE
  5
16CDC
  8
0
 10
4864.4114377473442801
 20
172.9523518251374981
 30
0.0
 11
4864.410869402672688
 21
172.9530035655446909
 31
0.0
  0
LINE
  5
16CDD
  8
0
 10
4864.410869402672688
 20
172.9530035655446909
 30
0.0
 11
4864.3975050664448645
 21
172.9636391503375137
 31
0.0
  0
LINE
  5
16CDE
  8
0
 10
4864.3933412830328962
 20
172.9576926514490935
 30
0.0
 11
4864.3938821261435805
 21
172.9584650554375003
 31
0.0
  0
LINE
  5
16CDF
  8
0
 10
4864.3938821261435805
 20
172.9584650554375003
 30
0.0
 11
4864.4067122226451829
 21
172.9470686488375009
 31
0.0
  0
LINE
  5
16CE0
  8
0
 10
4864.4067122226451829
 20
172.9470686488375009
 30
0.0
 11
4864.4073087053448035
 21
172.9464568373375073
 31
0.0
  0
LINE
  5
16CE1
  8
0
 10
4864.4073087053448035
 20
172.9464568373375073
 30
0.0
 11
4864.4062751901783486
 21
172.9449784258879106
 31
0.0
  0
LINE
  5
16CE2
  8
0
 10
4864.3933412830328962
 20
172.9576926514490935
 30
0.0
 11
4864.3986145483340806
 21
172.9523177746744125
 31
0.0
  0
LINE
  5
16CE3
  8
0
 10
4864.375676468716847
 20
172.981000235198394
 30
0.0
 11
4864.3745805769640356
 21
172.9794351395653962
 31
0.0
  0
LINE
  5
16CE4
  8
0
 10
4864.3745805769640356
 20
172.9794351395653962
 30
0.0
 11
4864.3861122329071804
 21
172.9661822160701945
 31
0.0
  0
LINE
  5
16CE5
  8
0
 10
4864.3861122329071804
 20
172.9661822160701945
 30
0.0
 11
4864.3987415414776478
 21
172.9544969029842036
 31
0.0
  0
LINE
  5
16CE6
  8
0
 10
4864.3987415414776478
 20
172.9544969029842036
 30
0.0
 11
4864.3998250036438549
 21
172.9560442473375019
 31
0.0
  0
LINE
  5
16CE7
  8
0
 10
4864.3998250036438549
 20
172.9560442473375019
 30
0.0
 11
4864.3882914893483758
 21
172.9692945168413019
 31
0.0
  0
LINE
  5
16CE8
  8
0
 10
4864.3882914893483758
 20
172.9692945168413019
 30
0.0
 11
4864.375676468716847
 21
172.981000235198394
 31
0.0
  0
LINE
  5
16CE9
  8
0
 10
4864.3809244825333735
 20
172.9884951756206988
 30
0.0
 11
4864.378701044745867
 21
172.9853197774374962
 31
0.0
  0
LINE
  5
16CEA
  8
0
 10
4864.378701044745867
 20
172.9853197774374962
 30
0.0
 11
4864.3896527881770453
 21
172.9712386529832031
 31
0.0
  0
LINE
  5
16CEB
  8
0
 10
4864.3896527881770453
 20
172.9712386529832031
 30
0.0
 11
4864.402814848143862
 21
172.9603141877375094
 31
0.0
  0
LINE
  5
16CEC
  8
0
 10
4864.402814848143862
 20
172.9603141877375094
 30
0.0
 11
4864.4050123466031437
 21
172.9634525408187926
 31
0.0
  0
LINE
  5
16CED
  8
0
 10
4864.4050123466031437
 20
172.9634525408187926
 30
0.0
 11
4864.3940735721444071
 21
172.977552186937487
 31
0.0
  0
LINE
  5
16CEE
  8
0
 10
4864.3940735721444071
 20
172.977552186937487
 30
0.0
 11
4864.3809244825442875
 21
172.988495175637496
 31
0.0
  0
LINE
  5
16CEF
  8
0
 10
4864.3591147279448705
 20
173.0058831713375014
 30
0.0
 11
4864.3574405987983482
 21
173.0034922672145115
 31
0.0
  0
LINE
  5
16CF0
  8
0
 10
4864.3574405987983482
 20
173.0034922672145115
 30
0.0
 11
4864.3681763332424453
 21
172.9891026499807936
 31
0.0
  0
LINE
  5
16CF1
  8
0
 10
4864.3681763332424453
 20
172.9891026499807936
 30
0.0
 11
4864.3805850249491414
 21
172.9771022633426867
 31
0.0
  0
LINE
  5
16CF2
  8
0
 10
4864.3805850249491414
 20
172.9771022633426867
 30
0.0
 11
4864.3822346593951806
 21
172.9794581854681894
 31
0.0
  0
LINE
  5
16CF3
  8
0
 10
4864.3822346593951806
 20
172.9794581854681894
 30
0.0
 11
4864.3714998585446665
 21
172.993849135937495
 31
0.0
  0
LINE
  5
16CF4
  8
0
 10
4864.3714998585446665
 20
172.993849135937495
 30
0.0
 11
4864.3591147279448705
 21
173.0058831713375014
 31
0.0
  0
LINE
  5
16CF5
  8
0
 10
4864.3548347266896599
 20
172.9997706961339077
 30
0.0
 11
4864.355411545446259
 21
173.000594478697991
 31
0.0
  0
LINE
  5
16CF6
  8
0
 10
4864.355411545446259
 20
173.000594478697991
 30
0.0
 11
4864.3672644997814132
 21
172.987800416889911
 31
0.0
  0
LINE
  5
16CF7
  8
0
 10
4864.3672644997814132
 20
172.987800416889911
 30
0.0
 11
4864.3785853294439221
 21
172.9742464022374975
 31
0.0
  0
LINE
  5
16CF8
  8
0
 10
4864.3785853294439221
 20
172.9742464022374975
 30
0.0
 11
4864.3780000092910996
 21
172.9734104784332089
 31
0.0
  0
LINE
  5
16CF9
  8
0
 10
4864.3388993921662404
 20
173.0255482330663881
 30
0.0
 11
4864.3377733273446211
 21
173.0239400458374917
 31
0.0
  0
LINE
  5
16CFA
  8
0
 10
4864.3377733273446211
 20
173.0239400458374917
 30
0.0
 11
4864.3482742120886542
 21
173.0092150286008064
 31
0.0
  0
LINE
  5
16CFB
  8
0
 10
4864.3482742120886542
 20
173.0092150286008064
 30
0.0
 11
4864.3599140135820562
 21
172.9961165529016114
 31
0.0
  0
LINE
  5
16CFC
  8
0
 10
4864.3599140135820562
 20
172.9961165529016114
 30
0.0
 11
4864.3610200491830255
 21
172.9976961353918057
 31
0.0
  0
LINE
  5
16CFD
  8
0
 10
4864.3610200491830255
 20
172.9976961353918057
 30
0.0
 11
4864.350506052945093
 21
173.012402427537495
 31
0.0
  0
LINE
  5
16CFE
  8
0
 10
4864.350506052945093
 20
173.012402427537495
 30
0.0
 11
4864.3388993921662404
 21
173.0255482330663881
 31
0.0
  0
LINE
  5
16CFF
  8
0
 10
4864.3226884192126818
 20
173.0442816091272107
 30
0.0
 11
4864.3311190887352495
 21
173.0332505264111944
 31
0.0
  0
LINE
  5
16D00
  8
0
 10
4864.3311190887352495
 20
173.0332505264111944
 30
0.0
 11
4864.3413916446443181
 21
173.0181994218374939
 31
0.0
  0
LINE
  5
16D01
  8
0
 10
4864.3413916446443181
 20
173.0181994218374939
 30
0.0
 11
4864.3407981688551445
 21
173.0173518505648076
 31
0.0
  0
LINE
  5
16D02
  8
0
 10
4864.3311190887352495
 20
173.0332505264111944
 30
0.0
 11
4864.3300667169132794
 21
173.0317475839295867
 31
0.0
  0
LINE
  5
16D03
  8
0
 10
4864.3320580853451247
 20
173.0345915526374938
 30
0.0
 11
4864.3335283968463045
 21
173.0366913750752076
 31
0.0
  0
LINE
  5
16D04
  8
0
 10
4864.3519005662647032
 20
173.014393999008206
 30
0.0
 11
4864.3563326474641144
 21
173.0207236668921951
 31
0.0
  0
LINE
  5
16D05
  8
0
 10
4864.3482742120886542
 20
173.0092150286008064
 30
0.0
 11
4864.350506052945093
 21
173.012402427537495
 31
0.0
  0
LINE
  5
16D06
  8
0
 10
4864.3733500964435734
 20
172.9964915495374953
 30
0.0
 11
4864.3791368980400875
 21
173.0047559587368937
 31
0.0
  0
LINE
  5
16D07
  8
0
 10
4864.3681763332424453
 20
172.9891026499807936
 30
0.0
 11
4864.3714998585446665
 21
172.993849135937495
 31
0.0
  0
LINE
  5
16D08
  8
0
 10
4864.3662683283082515
 20
172.9863777365877979
 30
0.0
 11
4864.3672644997814132
 21
172.987800416889911
 31
0.0
  0
LINE
  5
16D09
  8
0
 10
4864.3861122329071804
 20
172.9661822160701945
 30
0.0
 11
4864.3882914893483758
 21
172.9692945168413019
 31
0.0
  0
LINE
  5
16D0A
  8
0
 10
4864.3896527881770453
 20
172.9712386529832031
 30
0.0
 11
4864.3940735721444071
 21
172.977552186937487
 31
0.0
  0
LINE
  5
16D0B
  8
0
 10
4864.3963863748876975
 20
172.980855211501904
 30
0.0
 11
4864.4019411486242461
 21
172.9887882505776133
 31
0.0
  0
LINE
  5
16D0C
  8
0
 10
4864.5137760365287249
 20
172.8651312808997886
 30
0.0
 11
4864.535083255706013
 21
172.895561143559604
 31
0.0
  0
ARC
  5
16D0D
  8
0
 10
4864.8159909452024294
 20
173.3948502911281935
 30
0.0
 40
0.6098656252164748
 50
240.2944083575796128
 51
255.8006053669392941
  0
LINE
  5
16D0E
  8
0
 10
4866.1931975211036843
 20
173.1063342841576116
 30
0.0
 11
4867.0790242928042062
 21
173.1063342841576116
 31
0.0
  0
LINE
  5
16D0F
  8
0
 10
4867.0790242928042062
 20
173.1063342841576116
 30
0.0
 11
4867.0790242928042062
 21
173.0275941266575899
 31
0.0
  0
LINE
  5
16D10
  8
0
 10
4866.1931975211036843
 20
173.1063342841576116
 30
0.0
 11
4866.1931975211036843
 21
173.0275941266575899
 31
0.0
  0
LINE
  5
16D11
  8
0
 10
4866.1931975211036843
 20
172.5866492447576093
 30
0.0
 11
4866.1931975211036843
 21
172.6653891787424016
 31
0.0
  0
LINE
  5
16D12
  8
0
 10
4867.0790242928042062
 20
172.5866492447576093
 30
0.0
 11
4867.0790242928042062
 21
172.6653891787424016
 31
0.0
  0
LINE
  5
16D13
  8
0
 10
4866.1835140706052698
 20
173.0176183880317069
 30
0.0
 11
4866.1945627991372021
 21
173.0275941266575899
 31
0.0
  0
LINE
  5
16D14
  8
0
 10
4866.1945627991372021
 20
173.0275941266575899
 30
0.0
 11
4866.1863480300544325
 21
173.0177515063242879
 31
0.0
  0
LINE
  5
16D15
  8
0
 10
4866.1863480300544325
 20
173.0177515063242879
 30
0.0
 11
4866.1986505402810508
 21
173.0275941814990119
 31
0.0
  0
LINE
  5
16D16
  8
0
 10
4866.1986505402810508
 20
173.0275941814990119
 30
0.0
 11
4866.1918122821716679
 21
173.0177515063197973
 31
0.0
  0
LINE
  5
16D17
  8
0
 10
4866.1918122821716679
 20
173.0177515063197973
 30
0.0
 11
4866.2054351606311684
 21
173.0275941266575899
 31
0.0
  0
LINE
  5
16D18
  8
0
 10
4866.2054351606311684
 20
173.0275941266575899
 30
0.0
 11
4866.2000157829506861
 21
173.0177515063394083
 31
0.0
  0
LINE
  5
16D19
  8
0
 10
4866.2000157829506861
 20
173.0177515063394083
 30
0.0
 11
4866.2148752570747092
 21
173.0275941815332885
 31
0.0
  0
LINE
  5
16D1A
  8
0
 10
4866.2148752570747092
 20
173.0275941815332885
 30
0.0
 11
4866.2109079552037656
 21
173.0177515063575981
 31
0.0
  0
LINE
  5
16D1B
  8
0
 10
4866.2109079552037656
 20
173.0177515063575981
 30
0.0
 11
4866.2269123025498629
 21
173.027594181545993
 31
0.0
  0
LINE
  5
16D1C
  8
0
 10
4866.2269123025498629
 20
173.027594181545993
 30
0.0
 11
4866.2244216698263699
 21
173.0177516069576029
 31
0.0
  0
LINE
  5
16D1D
  8
0
 10
4866.2244216698263699
 20
173.0177516069576029
 30
0.0
 11
4866.2414721878039927
 21
173.0275941266575899
 31
0.0
  0
LINE
  5
16D1E
  8
0
 10
4866.2414721878039927
 20
173.0275941266575899
 30
0.0
 11
4866.2404734921037743
 21
173.0177516069576029
 31
0.0
  0
LINE
  5
16D1F
  8
0
 10
4866.2404734921037743
 20
173.0177516069576029
 30
0.0
 11
4866.258465163404253
 21
173.0275941815575891
 31
0.0
  0
LINE
  5
16D20
  8
0
 10
4866.258465163404253
 20
173.0275941815575891
 30
0.0
 11
4866.2589646191026986
 21
173.0177516069576029
 31
0.0
  0
LINE
  5
16D21
  8
0
 10
4866.2589646191026986
 20
173.0177516069576029
 30
0.0
 11
4866.27778644490445
 21
173.0275941815575891
 31
0.0
  0
LINE
  5
16D22
  8
0
 10
4866.27778644490445
 20
173.0275941815575891
 30
0.0
 11
4866.2797810222809858
 21
173.0177515063386124
 31
0.0
  0
LINE
  5
16D23
  8
0
 10
4866.2797810222809858
 20
173.0177515063386124
 30
0.0
 11
4866.2993169358423984
 21
173.0275941266575899
 31
0.0
  0
LINE
  5
16D24
  8
0
 10
4866.2993169358423984
 20
173.0275941266575899
 30
0.0
 11
4866.3027942735907345
 21
173.0177515064069098
 31
0.0
  0
LINE
  5
16D25
  8
0
 10
4866.3027942735907345
 20
173.0177515064069098
 30
0.0
 11
4866.3229237185360034
 21
173.0275941266575899
 31
0.0
  0
LINE
  5
16D26
  8
0
 10
4866.3229237185360034
 20
173.0275941266575899
 30
0.0
 11
4866.3278624900040086
 21
173.0177516069576029
 31
0.0
  0
LINE
  5
16D27
  8
0
 10
4866.3278624900040086
 20
173.0177516069576029
 30
0.0
 11
4866.3484616540035859
 21
173.0275941815575891
 31
0.0
  0
LINE
  5
16D28
  8
0
 10
4866.3484616540035859
 20
173.0275941815575891
 30
0.0
 11
4866.3548312456050553
 21
173.0177515062698888
 31
0.0
  0
LINE
  5
16D29
  8
0
 10
4866.3548312456050553
 20
173.0177515062698888
 30
0.0
 11
4866.3757729721955911
 21
173.0275941266575899
 31
0.0
  0
LINE
  5
16D2A
  8
0
 10
4866.3757729721955911
 20
173.0275941266575899
 30
0.0
 11
4866.3835341411040645
 21
173.0177515063076044
 31
0.0
  0
LINE
  5
16D2B
  8
0
 10
4866.3835341411040645
 20
173.0177515063076044
 30
0.0
 11
4866.4046893237409677
 21
173.0275941266575899
 31
0.0
  0
LINE
  5
16D2C
  8
0
 10
4866.4046893237409677
 20
173.0275941266575899
 30
0.0
 11
4866.413794217603936
 21
173.0177516069576029
 31
0.0
  0
LINE
  5
16D2D
  8
0
 10
4866.413794217603936
 20
173.0177516069576029
 30
0.0
 11
4866.4350324663901119
 21
173.0275941266575899
 31
0.0
  0
LINE
  5
16D2E
  8
0
 10
4866.4350324663901119
 20
173.0275941266575899
 30
0.0
 11
4866.4454250277040046
 21
173.0177515063575981
 31
0.0
  0
LINE
  5
16D2F
  8
0
 10
4866.4454250277040046
 20
173.0177515063575981
 30
0.0
 11
4866.4666152577037792
 21
173.0275941815797864
 31
0.0
  0
LINE
  5
16D30
  8
0
 10
4866.4666152577037792
 20
173.0275941815797864
 30
0.0
 11
4866.4782314059038981
 21
173.0177516069576029
 31
0.0
  0
LINE
  5
16D31
  8
0
 10
4866.4782314059038981
 20
173.0177516069576029
 30
0.0
 11
4866.4992431789860348
 21
173.0275941266575899
 31
0.0
  0
LINE
  5
16D32
  8
0
 10
4866.4992431789860348
 20
173.0275941266575899
 30
0.0
 11
4866.5115856461898147
 21
173.0180892306233886
 31
0.0
  0
LINE
  5
16D33
  8
0
 10
4866.5115856461898147
 20
173.0180892306233886
 30
0.0
 11
4866.5327147893040092
 21
173.0275941815575891
 31
0.0
  0
LINE
  5
16D34
  8
0
 10
4866.5327147893040092
 20
173.0275941815575891
 30
0.0
 11
4866.5465561420260201
 21
173.0177515063494127
 31
0.0
  0
LINE
  5
16D35
  8
0
 10
4866.5465561420260201
 20
173.0177515063494127
 30
0.0
 11
4866.5668239443039056
 21
173.0275941815575891
 31
0.0
  0
LINE
  5
16D36
  8
0
 10
4866.5668239443039056
 20
173.0275941815575891
 30
0.0
 11
4866.581653185234245
 21
173.0177515063413125
 31
0.0
  0
LINE
  5
16D37
  8
0
 10
4866.581653185234245
 20
173.0177515063413125
 30
0.0
 11
4866.6013602017292214
 21
173.0275941266575899
 31
0.0
  0
LINE
  5
16D38
  8
0
 10
4866.6013602017292214
 20
173.0275941266575899
 30
0.0
 11
4866.617085978520663
 21
173.0177515063300859
 31
0.0
  0
LINE
  5
16D39
  8
0
 10
4866.617085978520663
 20
173.0177515063300859
 30
0.0
 11
4866.6361108577930281
 21
173.0275941815096132
 31
0.0
  0
LINE
  5
16D3A
  8
0
 10
4866.6361108577930281
 20
173.0275941815096132
 30
0.0
 11
4866.652636066804007
 21
173.0177515063575981
 31
0.0
  0
LINE
  5
16D3B
  8
0
 10
4866.652636066804007
 20
173.0177515063575981
 30
0.0
 11
4866.6708613797818543
 21
173.0275941266575899
 31
0.0
  0
LINE
  5
16D3C
  8
0
 10
4866.6708613797818543
 20
173.0275941266575899
 30
0.0
 11
4866.6880842719037901
 21
173.0177516069576029
 31
0.0
  0
LINE
  5
16D3D
  8
0
 10
4866.6880842719037901
 20
173.0177516069576029
 30
0.0
 11
4866.7053978748881491
 21
173.0275941266575899
 31
0.0
  0
LINE
  5
16D3E
  8
0
 10
4866.7053978748881491
 20
173.0275941266575899
 30
0.0
 11
4866.723212044003958
 21
173.0177515063354861
 31
0.0
  0
LINE
  5
16D3F
  8
0
 10
4866.723212044003958
 20
173.0177515063354861
 30
0.0
 11
4866.7395069290041647
 21
173.0275941815575891
 31
0.0
  0
LINE
  5
16D40
  8
0
 10
4866.7395069290041647
 20
173.0275941815575891
 30
0.0
 11
4866.7578028085908954
 21
173.0177515063357134
 31
0.0
  0
LINE
  5
16D41
  8
0
 10
4866.7578028085908954
 20
173.0177515063357134
 30
0.0
 11
4866.7729785802966944
 21
173.0275941266575899
 31
0.0
  0
LINE
  5
16D42
  8
0
 10
4866.7729785802966944
 20
173.0275941266575899
 30
0.0
 11
4866.7916433021036937
 21
173.0177515063575981
 31
0.0
  0
LINE
  5
16D43
  8
0
 10
4866.7916433021036937
 20
173.0177515063575981
 30
0.0
 11
4866.8056065741457132
 21
173.0275941266575899
 31
0.0
  0
LINE
  5
16D44
  8
0
 10
4866.8056065741457132
 20
173.0275941266575899
 30
0.0
 11
4866.8245248868051931
 21
173.0177515063475937
 31
0.0
  0
LINE
  5
16D45
  8
0
 10
4866.8245248868051931
 20
173.0177515063475937
 30
0.0
 11
4866.8371894292658908
 21
173.0275941266575899
 31
0.0
  0
LINE
  5
16D46
  8
0
 10
4866.8371894292658908
 20
173.0275941266575899
 30
0.0
 11
4866.856244836564656
 21
173.0177515064029024
 31
0.0
  0
LINE
  5
16D47
  8
0
 10
4866.856244836564656
 20
173.0177515064029024
 30
0.0
 11
4866.8675325682570474
 21
173.0275941266575899
 31
0.0
  0
LINE
  5
16D48
  8
0
 10
4866.8675325682570474
 20
173.0275941266575899
 30
0.0
 11
4866.8866075875030219
 21
173.0177515063481053
 31
0.0
  0
LINE
  5
16D49
  8
0
 10
4866.8866075875030219
 20
173.0177515063481053
 30
0.0
 11
4866.8964488067040293
 21
173.0275941815575891
 31
0.0
  0
LINE
  5
16D4A
  8
0
 10
4866.8964488067040293
 20
173.0275941815575891
 30
0.0
 11
4866.9154259430042657
 21
173.0177515063575981
 31
0.0
  0
LINE
  5
16D4B
  8
0
 10
4866.9154259430042657
 20
173.0177515063575981
 30
0.0
 11
4866.9237601929162338
 21
173.0275941266575899
 31
0.0
  0
LINE
  5
16D4C
  8
0
 10
4866.9237601929162338
 20
173.0275941266575899
 30
0.0
 11
4866.9425222285708514
 21
173.017751506311896
 31
0.0
  0
LINE
  5
16D4D
  8
0
 10
4866.9425222285708514
 20
173.017751506311896
 30
0.0
 11
4866.9492979107044448
 21
173.0275940876682057
 31
0.0
  0
LINE
  5
16D4E
  8
0
 10
4866.9492979107044448
 20
173.0275940876682057
 30
0.0
 11
4866.9677293863878731
 21
173.0177515063276132
 31
0.0
  0
LINE
  5
16D4F
  8
0
 10
4866.9677293863878731
 20
173.0177515063276132
 30
0.0
 11
4866.9729437169044104
 21
173.0275735408415017
 31
0.0
  0
LINE
  5
16D50
  8
0
 10
4866.9729437169044104
 20
173.0275735408415017
 30
0.0
 11
4866.9908920059660886
 21
173.0177515063485032
 31
0.0
  0
LINE
  5
16D51
  8
0
 10
4866.9908920059660886
 20
173.0177515063485032
 30
0.0
 11
4866.9944354115496026
 21
173.0275941266575899
 31
0.0
  0
LINE
  5
16D52
  8
0
 10
4866.9944354115496026
 20
173.0275941266575899
 30
0.0
 11
4867.0118672820799475
 21
173.0177515064258102
 31
0.0
  0
LINE
  5
16D53
  8
0
 10
4867.0118672820799475
 20
173.0177515064258102
 30
0.0
 11
4867.0137565992026794
 21
173.0275932397572092
 31
0.0
  0
LINE
  5
16D54
  8
0
 10
4867.0137565992026794
 20
173.0275932397572092
 30
0.0
 11
4867.0305259575734453
 21
173.0177515063197973
 31
0.0
  0
LINE
  5
16D55
  8
0
 10
4867.0305259575734453
 20
173.0177515063197973
 30
0.0
 11
4867.0307496263658322
 21
173.0275941655052918
 31
0.0
  0
LINE
  5
16D56
  8
0
 10
4867.0307496263658322
 20
173.0275941655052918
 30
0.0
 11
4867.0467527603268536
 21
173.0177515063197973
 31
0.0
  0
LINE
  5
16D57
  8
0
 10
4867.0467527603268536
 20
173.0177515063197973
 30
0.0
 11
4867.0453094737777064
 21
173.0275941815471015
 31
0.0
  0
LINE
  5
16D58
  8
0
 10
4867.0453094737777064
 20
173.0275941815471015
 30
0.0
 11
4867.0604480197716839
 21
173.0177515631197878
 31
0.0
  0
LINE
  5
16D59
  8
0
 10
4867.0604480197716839
 20
173.0177515631197878
 30
0.0
 11
4867.0573465966972435
 21
173.0275941266575899
 31
0.0
  0
LINE
  5
16D5A
  8
0
 10
4867.0573465966972435
 20
173.0275941266575899
 30
0.0
 11
4867.0715269691036156
 21
173.0177515063575981
 31
0.0
  0
LINE
  5
16D5B
  8
0
 10
4867.0715269691036156
 20
173.0177515063575981
 30
0.0
 11
4867.0667865216028076
 21
173.027594181560886
 31
0.0
  0
LINE
  5
16D5C
  8
0
 10
4867.0667865216028076
 20
173.027594181560886
 30
0.0
 11
4867.0799214749031307
 21
173.0177516069576029
 31
0.0
  0
LINE
  5
16D5D
  8
0
 10
4867.0799214749031307
 20
173.0177516069576029
 30
0.0
 11
4867.0735713616968496
 21
173.0275940994814903
 31
0.0
  0
LINE
  5
16D5E
  8
0
 10
4867.0735713616968496
 20
173.0275940994814903
 30
0.0
 11
4867.0855797821677697
 21
173.0177515631345102
 31
0.0
  0
LINE
  5
16D5F
  8
0
 10
4867.0855797821677697
 20
173.0177515631345102
 30
0.0
 11
4867.0776590852483423
 21
173.0275940237171142
 31
0.0
  0
LINE
  5
16D60
  8
0
 10
4867.0776590852483423
 20
173.0275940237171142
 30
0.0
 11
4867.0887963775048775
 21
173.0175718171784069
 31
0.0
  0
LINE
  5
16D61
  8
0
 10
4866.1931975211036843
 20
172.6653891787424016
 30
0.0
 11
4867.0790242928042062
 21
172.6653891787424016
 31
0.0
  0
LINE
  5
16D62
  8
0
 10
4866.1931975211036843
 20
172.6653894022576026
 30
0.0
 11
4866.1835140706052698
 21
172.6753646799494959
 31
0.0
  0
LINE
  5
16D63
  8
0
 10
4866.1835140706052698
 20
172.6753646799494959
 30
0.0
 11
4866.1945628996900268
 21
172.6653891715440921
 31
0.0
  0
LINE
  5
16D64
  8
0
 10
4866.1945628996900268
 20
172.6653891715440921
 30
0.0
 11
4866.1863480301053642
 21
172.675231978730892
 31
0.0
  0
LINE
  5
16D65
  8
0
 10
4866.1863480301053642
 20
172.675231978730892
 30
0.0
 11
4866.1986505558115823
 21
172.6653891827482141
 31
0.0
  0
LINE
  5
16D66
  8
0
 10
4866.1986505558115823
 20
172.6653891827482141
 30
0.0
 11
4866.1918122409042553
 21
172.6752319219575895
 31
0.0
  0
LINE
  5
16D67
  8
0
 10
4866.1918122409042553
 20
172.6752319219575895
 30
0.0
 11
4866.2054352860250219
 21
172.665389181024608
 31
0.0
  0
LINE
  5
16D68
  8
0
 10
4866.2054352860250219
 20
172.665389181024608
 30
0.0
 11
4866.2000157406037033
 21
172.6752319219575895
 31
0.0
  0
LINE
  5
16D69
  8
0
 10
4866.2000157406037033
 20
172.6752319219575895
 30
0.0
 11
4866.2148751419781547
 21
172.6653894487043885
 31
0.0
  0
LINE
  5
16D6A
  8
0
 10
4866.2148751419781547
 20
172.6653894487043885
 30
0.0
 11
4866.2109079121037212
 21
172.6752319219575895
 31
0.0
  0
LINE
  5
16D6B
  8
0
 10
4866.2109079121037212
 20
172.6752319219575895
 30
0.0
 11
4866.2269123006699374
 21
172.6653891787424016
 31
0.0
  0
LINE
  5
16D6C
  8
0
 10
4866.2269123006699374
 20
172.6653891787424016
 30
0.0
 11
4866.224421659075233
 21
172.6752319219575895
 31
0.0
  0
LINE
  5
16D6D
  8
0
 10
4866.224421659075233
 20
172.6752319219575895
 30
0.0
 11
4866.2414721928307699
 21
172.6653891787424016
 31
0.0
  0
LINE
  5
16D6E
  8
0
 10
4866.2414721928307699
 20
172.6653891787424016
 30
0.0
 11
4866.2404734921037743
 21
172.6752319219575895
 31
0.0
  0
LINE
  5
16D6F
  8
0
 10
4866.2404734921037743
 20
172.6752319219575895
 30
0.0
 11
4866.2584651638562718
 21
172.6653891787424016
 31
0.0
  0
LINE
  5
16D70
  8
0
 10
4866.2584651638562718
 20
172.6653891787424016
 30
0.0
 11
4866.2589646191026986
 21
172.6752319219575895
 31
0.0
  0
LINE
  5
16D71
  8
0
 10
4866.2589646191026986
 20
172.6752319219575895
 30
0.0
 11
4866.2777864464360391
 21
172.6653891787424016
 31
0.0
  0
LINE
  5
16D72
  8
0
 10
4866.2777864464360391
 20
172.6653891787424016
 30
0.0
 11
4866.2797809784051424
 21
172.6752319219575895
 31
0.0
  0
LINE
  5
16D73
  8
0
 10
4866.2797809784051424
 20
172.6752319219575895
 30
0.0
 11
4866.2993169184892395
 21
172.6653891787424016
 31
0.0
  0
LINE
  5
16D74
  8
0
 10
4866.2993169184892395
 20
172.6653891787424016
 30
0.0
 11
4866.3027942301041548
 21
172.6752319219575895
 31
0.0
  0
LINE
  5
16D75
  8
0
 10
4866.3027942301041548
 20
172.6752319219575895
 30
0.0
 11
4866.3229239528700418
 21
172.6653894022576026
 31
0.0
  0
LINE
  5
16D76
  8
0
 10
4866.3229239528700418
 20
172.6653894022576026
 30
0.0
 11
4866.3278625326438487
 21
172.6752319788087959
 31
0.0
  0
LINE
  5
16D77
  8
0
 10
4866.3278625326438487
 20
172.6752319788087959
 30
0.0
 11
4866.3484616004971031
 21
172.665389374646594
 31
0.0
  0
LINE
  5
16D78
  8
0
 10
4866.3484616004971031
 20
172.665389374646594
 30
0.0
 11
4866.3548311033327991
 21
172.6752320680562889
 31
0.0
  0
LINE
  5
16D79
  8
0
 10
4866.3548311033327991
 20
172.6752320680562889
 30
0.0
 11
4866.3757728677410341
 21
172.6653893544921061
 31
0.0
  0
LINE
  5
16D7A
  8
0
 10
4866.3757728677410341
 20
172.6653893544921061
 30
0.0
 11
4866.3835341008052637
 21
172.6752319219575895
 31
0.0
  0
LINE
  5
16D7B
  8
0
 10
4866.3835341008052637
 20
172.6752319219575895
 30
0.0
 11
4866.4046894680250261
 21
172.6653894022576026
 31
0.0
  0
LINE
  5
16D7C
  8
0
 10
4866.4046894680250261
 20
172.6653894022576026
 30
0.0
 11
4866.4137941459448484
 21
172.6752320778180945
 31
0.0
  0
LINE
  5
16D7D
  8
0
 10
4866.4137941459448484
 20
172.6752320778180945
 30
0.0
 11
4866.4350323547878361
 21
172.6653893552197019
 31
0.0
  0
LINE
  5
16D7E
  8
0
 10
4866.4350323547878361
 20
172.6653893552197019
 30
0.0
 11
4866.445424935203846
 21
172.6752320736127899
 31
0.0
  0
LINE
  5
16D7F
  8
0
 10
4866.445424935203846
 20
172.6752320736127899
 30
0.0
 11
4866.4666152577037792
 21
172.6653891715575924
 31
0.0
  0
LINE
  5
16D80
  8
0
 10
4866.4666152577037792
 20
172.6653891715575924
 30
0.0
 11
4866.4782314059038981
 21
172.6752319219575895
 31
0.0
  0
LINE
  5
16D81
  8
0
 10
4866.4782314059038981
 20
172.6752319219575895
 30
0.0
 11
4866.4992433951438215
 21
172.6653894022576026
 31
0.0
  0
LINE
  5
16D82
  8
0
 10
4866.4992433951438215
 20
172.6653894022576026
 30
0.0
 11
4866.5120112008044089
 21
172.6752319219575895
 31
0.0
  0
LINE
  5
16D83
  8
0
 10
4866.5120112008044089
 20
172.6752319219575895
 30
0.0
 11
4866.5327151064366262
 21
172.6653894022576026
 31
0.0
  0
LINE
  5
16D84
  8
0
 10
4866.5327151064366262
 20
172.6653894022576026
 30
0.0
 11
4866.5465561116043318
 21
172.6752319219575895
 31
0.0
  0
LINE
  5
16D85
  8
0
 10
4866.5465561116043318
 20
172.6752319219575895
 30
0.0
 11
4866.5668242869624009
 21
172.6653894022576026
 31
0.0
  0
LINE
  5
16D86
  8
0
 10
4866.5668242869624009
 20
172.6653894022576026
 30
0.0
 11
4866.5816531422033222
 21
172.675232041748302
 31
0.0
  0
LINE
  5
16D87
  8
0
 10
4866.5816531422033222
 20
172.675232041748302
 30
0.0
 11
4866.6013606419719508
 21
172.6653894022576026
 31
0.0
  0
LINE
  5
16D88
  8
0
 10
4866.6013606419719508
 20
172.6653894022576026
 30
0.0
 11
4866.6170859425155868
 21
172.6752320342417022
 31
0.0
  0
LINE
  5
16D89
  8
0
 10
4866.6170859425155868
 20
172.6752320342417022
 30
0.0
 11
4866.6361108578039421
 21
172.6653891717575959
 31
0.0
  0
LINE
  5
16D8A
  8
0
 10
4866.6361108578039421
 20
172.6653891717575959
 30
0.0
 11
4866.6526360363122876
 21
172.6752320279499031
 31
0.0
  0
LINE
  5
16D8B
  8
0
 10
4866.6526360363122876
 20
172.6752320279499031
 30
0.0
 11
4866.6708614395038239
 21
172.6653891717575959
 31
0.0
  0
LINE
  5
16D8C
  8
0
 10
4866.6708614395038239
 20
172.6653891717575959
 30
0.0
 11
4866.6880842458040206
 21
172.6752320226343045
 31
0.0
  0
LINE
  5
16D8D
  8
0
 10
4866.6880842458040206
 20
172.6752320226343045
 30
0.0
 11
4866.705397772503602
 21
172.6653891716576084
 31
0.0
  0
LINE
  5
16D8E
  8
0
 10
4866.705397772503602
 20
172.6653891716576084
 30
0.0
 11
4866.723212044003958
 21
172.6752319219575895
 31
0.0
  0
LINE
  5
16D8F
  8
0
 10
4866.723212044003958
 20
172.6752319219575895
 30
0.0
 11
4866.7395067967836439
 21
172.6653894022576026
 31
0.0
  0
LINE
  5
16D90
  8
0
 10
4866.7395067967836439
 20
172.6653894022576026
 30
0.0
 11
4866.7578027960053078
 21
172.6752319219575895
 31
0.0
  0
LINE
  5
16D91
  8
0
 10
4866.7578027960053078
 20
172.6752319219575895
 30
0.0
 11
4866.7729790559860703
 21
172.6653894022576026
 31
0.0
  0
LINE
  5
16D92
  8
0
 10
4866.7729790559860703
 20
172.6653894022576026
 30
0.0
 11
4866.7916432836527747
 21
172.6752320123682125
 31
0.0
  0
LINE
  5
16D93
  8
0
 10
4866.7916432836527747
 20
172.6752320123682125
 30
0.0
 11
4866.8056064654037982
 21
172.6653891716576084
 31
0.0
  0
LINE
  5
16D94
  8
0
 10
4866.8056064654037982
 20
172.6653891716576084
 30
0.0
 11
4866.8245248810044359
 21
172.6752319219575895
 31
0.0
  0
LINE
  5
16D95
  8
0
 10
4866.8245248810044359
 20
172.6752319219575895
 30
0.0
 11
4866.8371893196035671
 21
172.6653891716576084
 31
0.0
  0
LINE
  5
16D96
  8
0
 10
4866.8371893196035671
 20
172.6653891716576084
 30
0.0
 11
4866.8562448342026983
 21
172.6752319219575895
 31
0.0
  0
LINE
  5
16D97
  8
0
 10
4866.8562448342026983
 20
172.6752319219575895
 30
0.0
 11
4866.8675328788303887
 21
172.6653894022576026
 31
0.0
  0
LINE
  5
16D98
  8
0
 10
4866.8675328788303887
 20
172.6653894022576026
 30
0.0
 11
4866.8866075600453769
 21
172.6752320298712107
 31
0.0
  0
LINE
  5
16D99
  8
0
 10
4866.8866075600453769
 20
172.6752320298712107
 30
0.0
 11
4866.8964488067040293
 21
172.6653891716576084
 31
0.0
  0
LINE
  5
16D9A
  8
0
 10
4866.8964488067040293
 20
172.6653891716576084
 30
0.0
 11
4866.9154259430042657
 21
172.6752319219575895
 31
0.0
  0
LINE
  5
16D9B
  8
0
 10
4866.9154259430042657
 20
172.6752319219575895
 30
0.0
 11
4866.9237600852038668
 21
172.6653891716576084
 31
0.0
  0
LINE
  5
16D9C
  8
0
 10
4866.9237600852038668
 20
172.6653891716576084
 30
0.0
 11
4866.9425222285035488
 21
172.6752319219575895
 31
0.0
  0
LINE
  5
16D9D
  8
0
 10
4866.9425222285035488
 20
172.6752319219575895
 30
0.0
 11
4866.9492983461350377
 21
172.6653894022576026
 31
0.0
  0
LINE
  5
16D9E
  8
0
 10
4866.9492983461350377
 20
172.6653894022576026
 30
0.0
 11
4866.9677293863041996
 21
172.6752319219575895
 31
0.0
  0
LINE
  5
16D9F
  8
0
 10
4866.9677293863041996
 20
172.6752319219575895
 30
0.0
 11
4866.972904834304245
 21
172.6653895261673881
 31
0.0
  0
LINE
  5
16DA0
  8
0
 10
4866.972904834304245
 20
172.6653895261673881
 30
0.0
 11
4866.9908919841573152
 21
172.675232017180889
 31
0.0
  0
LINE
  5
16DA1
  8
0
 10
4866.9908919841573152
 20
172.675232017180889
 30
0.0
 11
4866.9944353125720227
 21
172.6653891787424016
 31
0.0
  0
LINE
  5
16DA2
  8
0
 10
4866.9944353125720227
 20
172.6653891787424016
 30
0.0
 11
4867.0118672821035943
 21
172.6752319219575895
 31
0.0
  0
LINE
  5
16DA3
  8
0
 10
4867.0118672821035943
 20
172.6752319219575895
 30
0.0
 11
4867.0137566115163281
 21
172.6653891787424016
 31
0.0
  0
LINE
  5
16DA4
  8
0
 10
4867.0137566115163281
 20
172.6653891787424016
 30
0.0
 11
4867.0305259163042138
 21
172.6752319219575895
 31
0.0
  0
LINE
  5
16DA5
  8
0
 10
4867.0305259163042138
 20
172.6752319219575895
 30
0.0
 11
4867.0307495757497236
 21
172.6653891716769067
 31
0.0
  0
LINE
  5
16DA6
  8
0
 10
4867.0307495757497236
 20
172.6653891716769067
 30
0.0
 11
4867.046752719057622
 21
172.6752319219575895
 31
0.0
  0
LINE
  5
16DA7
  8
0
 10
4867.046752719057622
 20
172.6752319219575895
 30
0.0
 11
4867.0453098395882989
 21
172.6653894022576026
 31
0.0
  0
LINE
  5
16DA8
  8
0
 10
4867.0453098395882989
 20
172.6653894022576026
 30
0.0
 11
4867.0604479785042713
 21
172.6752319787576084
 31
0.0
  0
LINE
  5
16DA9
  8
0
 10
4867.0604479785042713
 20
172.6752319787576084
 30
0.0
 11
4867.0573468691836752
 21
172.6653894022576026
 31
0.0
  0
LINE
  5
16DAA
  8
0
 10
4867.0573468691836752
 20
172.6653894022576026
 30
0.0
 11
4867.0715268894091423
 21
172.6752319219575895
 31
0.0
  0
LINE
  5
16DAB
  8
0
 10
4867.0715268894091423
 20
172.6752319219575895
 30
0.0
 11
4867.0667868391537922
 21
172.6653894022576026
 31
0.0
  0
LINE
  5
16DAC
  8
0
 10
4867.0667868391537922
 20
172.6653894022576026
 30
0.0
 11
4867.0799214011030926
 21
172.6752319219575895
 31
0.0
  0
LINE
  5
16DAD
  8
0
 10
4867.0799214011030926
 20
172.6752319219575895
 30
0.0
 11
4867.0735715486143818
 21
172.6653894022576026
 31
0.0
  0
LINE
  5
16DAE
  8
0
 10
4867.0735715486143818
 20
172.6653894022576026
 30
0.0
 11
4867.0855797409003571
 21
172.6752319787721888
 31
0.0
  0
LINE
  5
16DAF
  8
0
 10
4867.0855797409003571
 20
172.6752319787721888
 30
0.0
 11
4867.0776589064626023
 21
172.6653891715232021
 31
0.0
  0
LINE
  5
16DB0
  8
0
 10
4867.0776589064626023
 20
172.6653891715232021
 30
0.0
 11
4867.0887963775048775
 21
172.6754528855749982
 31
0.0
  0
LINE
  5
16DB1
  8
0
 10
4867.0790242928042062
 20
172.6653891787424016
 30
0.0
 11
4867.0887963775048775
 21
172.6754528855749982
 31
0.0
  0
LINE
  5
16DB2
  8
0
 10
4866.1863480301053642
 20
172.675231978730892
 30
0.0
 11
4866.1863480300544325
 21
173.0177515063242879
 31
0.0
  0
LINE
  5
16DB3
  8
0
 10
4866.1918122821716679
 20
173.0177515063197973
 30
0.0
 11
4866.1918122409042553
 21
172.6752319219575895
 31
0.0
  0
LINE
  5
16DB4
  8
0
 10
4866.2000157818729349
 20
173.0177515063197973
 30
0.0
 11
4866.2000157406037033
 21
172.6752319219575895
 31
0.0
  0
LINE
  5
16DB5
  8
0
 10
4866.2109079533729528
 20
173.0177515063197973
 30
0.0
 11
4866.2109079121037212
 21
172.6752319219575895
 31
0.0
  0
LINE
  5
16DB6
  8
0
 10
4866.2244217003435551
 20
173.0177515063197973
 30
0.0
 11
4866.224421659075233
 21
172.6752319219575895
 31
0.0
  0
LINE
  5
16DB7
  8
0
 10
4866.2404735333720964
 20
173.0177515063197973
 30
0.0
 11
4866.2404734921037743
 21
172.6752319219575895
 31
0.0
  0
LINE
  5
16DB8
  8
0
 10
4866.2589646603728397
 20
173.0177515063197973
 30
0.0
 11
4866.2589646191026986
 21
172.6752319219575895
 31
0.0
  0
LINE
  5
16DB9
  8
0
 10
4866.279781019672555
 20
173.0177515063197973
 30
0.0
 11
4866.2797809784051424
 21
172.6752319219575895
 31
0.0
  0
LINE
  5
16DBA
  8
0
 10
4866.3027942713733864
 20
173.0177515063197973
 30
0.0
 11
4866.3027942301041548
 21
172.6752319219575895
 31
0.0
  0
LINE
  5
16DBB
  8
0
 10
4866.3278625739130803
 20
173.0177515631710037
 30
0.0
 11
4866.3278625326438487
 21
172.6752319788087959
 31
0.0
  0
LINE
  5
16DBC
  8
0
 10
4866.3548311446011212
 20
173.0177516524186103
 30
0.0
 11
4866.3548311033327991
 21
172.6752320680562889
 31
0.0
  0
LINE
  5
16DBD
  8
0
 10
4866.3835341420726763
 20
173.0177515063197973
 30
0.0
 11
4866.3835341008052637
 21
172.6752319219575895
 31
0.0
  0
LINE
  5
16DBE
  8
0
 10
4866.41379418721408
 20
173.0177516621803022
 30
0.0
 11
4866.4137941459448484
 21
172.6752320778180945
 31
0.0
  0
LINE
  5
16DBF
  8
0
 10
4866.4454249764721681
 20
173.0177516579751114
 30
0.0
 11
4866.445424935203846
 21
172.6752320736127899
 31
0.0
  0
LINE
  5
16DC0
  8
0
 10
4866.4782314471722202
 20
173.0177515063197973
 30
0.0
 11
4866.4782314059038981
 21
172.6752319219575895
 31
0.0
  0
LINE
  5
16DC1
  8
0
 10
4866.512011242072731
 20
173.0177515063197973
 30
0.0
 11
4866.5120112008044089
 21
172.6752319219575895
 31
0.0
  0
LINE
  5
16DC2
  8
0
 10
4866.5465561528717444
 20
173.0177515063197973
 30
0.0
 11
4866.5465561116043318
 21
172.6752319219575895
 31
0.0
  0
LINE
  5
16DC3
  8
0
 10
4866.5816531834725538
 20
173.0177516261105097
 30
0.0
 11
4866.5816531422033222
 21
172.675232041748302
 31
0.0
  0
LINE
  5
16DC4
  8
0
 10
4866.6170859837848184
 20
173.0177516186039099
 30
0.0
 11
4866.6170859425155868
 21
172.6752320342417022
 31
0.0
  0
LINE
  5
16DC5
  8
0
 10
4866.6526360775806097
 20
173.0177516123121109
 30
0.0
 11
4866.6526360363122876
 21
172.6752320279499031
 31
0.0
  0
LINE
  5
16DC6
  8
0
 10
4866.6880842870732522
 20
173.0177516069965122
 30
0.0
 11
4866.6880842458040206
 21
172.6752320226343045
 31
0.0
  0
LINE
  5
16DC7
  8
0
 10
4866.7232120852722801
 20
173.0177515063197973
 30
0.0
 11
4866.723212044003958
 21
172.6752319219575895
 31
0.0
  0
LINE
  5
16DC8
  8
0
 10
4866.7578028372727204
 20
173.0177515063197973
 30
0.0
 11
4866.7578027960053078
 21
172.6752319219575895
 31
0.0
  0
LINE
  5
16DC9
  8
0
 10
4866.7916433249210968
 20
173.0177515967303918
 30
0.0
 11
4866.7916432836527747
 21
172.6752320123682125
 31
0.0
  0
LINE
  5
16DCA
  8
0
 10
4866.824524922272758
 20
173.0177515063197973
 30
0.0
 11
4866.8245248810044359
 21
172.6752319219575895
 31
0.0
  0
LINE
  5
16DCB
  8
0
 10
4866.8562448754728393
 20
173.0177515063197973
 30
0.0
 11
4866.8562448342026983
 21
172.6752319219575895
 31
0.0
  0
LINE
  5
16DCC
  8
0
 10
4866.886607601313699
 20
173.01775161423339
 30
0.0
 11
4866.8866075600453769
 21
172.6752320298712107
 31
0.0
  0
LINE
  5
16DCD
  8
0
 10
4866.9154259842725878
 20
173.0177515063197973
 30
0.0
 11
4866.9154259430042657
 21
172.6752319219575895
 31
0.0
  0
LINE
  5
16DCE
  8
0
 10
4866.9425222697727804
 20
173.0177515063197973
 30
0.0
 11
4866.9425222285035488
 21
172.6752319219575895
 31
0.0
  0
LINE
  5
16DCF
  8
0
 10
4866.9677294275734312
 20
173.0177515063197973
 30
0.0
 11
4866.9677293863041996
 21
172.6752319219575895
 31
0.0
  0
LINE
  5
16DD0
  8
0
 10
4866.9908920254256373
 20
173.0177516015430967
 30
0.0
 11
4866.9908919841573152
 21
172.675232017180889
 31
0.0
  0
LINE
  5
16DD1
  8
0
 10
4867.0118673233728259
 20
173.0177515063197973
 30
0.0
 11
4867.0118672821035943
 21
172.6752319219575895
 31
0.0
  0
LINE
  5
16DD2
  8
0
 10
4867.0305259575734453
 20
173.0177515063197973
 30
0.0
 11
4867.0305259163042138
 21
172.6752319219575895
 31
0.0
  0
LINE
  5
16DD3
  8
0
 10
4867.0467527603268536
 20
173.0177515063197973
 30
0.0
 11
4867.046752719057622
 21
172.6752319219575895
 31
0.0
  0
LINE
  5
16DD4
  8
0
 10
4867.0604480197716839
 20
173.0177515631197878
 30
0.0
 11
4867.0604479785042713
 21
172.6752319787576084
 31
0.0
  0
LINE
  5
16DD5
  8
0
 10
4867.0715269306783739
 20
173.0177515330290987
 30
0.0
 11
4867.0715268894091423
 21
172.6752319219575895
 31
0.0
  0
LINE
  5
16DD6
  8
0
 10
4867.0799214423714147
 20
173.0177516313355
 30
0.0
 11
4867.0799214011030926
 21
172.6752319219575895
 31
0.0
  0
LINE
  5
16DD7
  8
0
 10
4867.0855797821677697
 20
173.0177515631345102
 30
0.0
 11
4867.0855797409003571
 21
172.6752319787721888
 31
0.0
  0
LINE
  5
16DD8
  8
0
 10
4866.1860715369039099
 20
176.4803500321575882
 30
0.0
 11
4868.1450784065909829
 21
176.4803500321575882
 31
0.0
  0
LINE
  5
16DD9
  8
0
 10
4868.7263698292608751
 20
176.4803500321575882
 30
0.0
 11
4869.6112384660036696
 21
176.4803500321575882
 31
0.0
  0
LINE
  5
16DDA
  8
0
 10
4868.9026069700039443
 20
175.4960980636575982
 30
0.0
 11
4868.4352067330419231
 21
175.4960980636575982
 31
0.0
  0
LINE
  5
16DDB
  8
0
 10
4866.1807574237473091
 20
175.8504736062288885
 30
0.0
 11
4867.9543894187336264
 21
175.8504736062288885
 31
0.0
  0
ARC
  5
16DDC
  8
0
 10
4866.1860715369039099
 20
176.1653894022576026
 30
0.0
 40
0.3149606298999998
 50
90.0
 51
269.0332420158175069
  0
LINE
  5
16DDD
  8
0
 10
4868.9026069700039443
 20
175.4960980636575982
 30
0.0
 11
4869.6506384660042386
 21
175.7683592625575955
 31
0.0
  0
LINE
  5
16DDE
  8
0
 10
4869.6506384660042386
 20
175.7683592625575955
 30
0.0
 11
4869.6506384660042386
 21
176.4409500321575877
 31
0.0
  0
ARC
  5
16DDF
  8
0
 10
4869.6112384660036696
 20
176.4409500321575877
 30
0.0
 40
0.0394
 50
359.9999999999968168
 51
90.0
  0
LINE
  5
16DE0
  8
0
 10
4868.0307981505029602
 20
176.4409500321575877
 30
0.0
 11
4868.0307981505029602
 21
176.1269333305187104
 31
0.0
  0
ARC
  5
16DE1
  8
0
 10
4868.0701981505053482
 20
176.4409500321575877
 30
0.0
 40
0.0394
 50
90.0
 51
180.0
  0
ARC
  5
16DE2
  8
0
 10
4853.1065847611962454
 20
172.5448159678238085
 30
0.0
 40
13.25484209836155
 50
354.3073142744760275
 51
359.3299030678898021
  0
ARC
  5
16DE3
  8
0
 10
4870.3208033056325803
 20
170.8284413993494866
 30
0.0
 40
4.0447319495655822
 50
174.3018658053516958
 51
191.4361520021882939
  0
ARC
  5
16DE4
  8
0
 10
4868.8310618605737545
 20
170.5270785070835018
 30
0.0
 40
2.5248144630027332
 50
191.4361520021882939
 51
212.3570099466699901
  0
ARC
  5
16DE5
  8
0
 10
4867.3912376134321676
 20
169.6148529521124999
 30
0.0
 40
0.8203352681169205
 50
212.3570099466699901
 51
251.165671715217087
  0
ARC
  5
16DE6
  8
0
 10
4867.2850728633784456
 20
169.3036074373571864
 30
0.0
 40
0.4914816158494732
 50
251.165671715217087
 51
294.6009514098386148
  0
ARC
  5
16DE7
  8
0
 10
4867.1275804814313233
 20
169.6475855433907043
 30
0.0
 40
0.8697999841602486
 50
294.6009514098386148
 51
333.5422651133810064
  0
ARC
  5
16DE8
  8
0
 10
4865.0884555835182255
 20
170.6623782948481107
 30
0.0
 40
3.1474818490616401
 50
333.5422651133810064
 51
351.5601312099788061
  0
ARC
  5
16DE9
  8
0
 10
4861.9809123174363776
 20
171.1234700975068961
 30
0.0
 40
6.2890468732255478
 50
351.5601312099788061
 51
359.2600802345609168
  0
ARC
  5
16DEA
  8
0
 10
4819.275609360087401
 20
171.674687755276409
 30
0.0
 40
48.997907096518972
 50
359.2604436701074064
 51
1.9071254991549731
  0
ARC
  5
16DEB
  8
0
 10
4877.4904797669578329
 20
173.613273098668202
 30
0.0
 40
9.2492323160189791
 50
168.968859553383794
 51
181.9080628328503053
  0
ARC
  5
16DEC
  8
0
 10
4874.9058627236972825
 20
174.1171297372497122
 30
0.0
 40
6.6159611996021468
 50
148.5090625585307862
 51
168.968859553383794
  0
ARC
  5
16DED
  8
0
 10
4862.765758470343826
 20
181.5539541398478889
 30
0.0
 40
7.6209095407451599
 50
328.5090625585310136
 51
333.6173956842253006
  0
ARC
  5
16DEE
  8
0
 10
4867.1736155892967872
 20
179.2589617581718073
 30
0.0
 40
2.6541181135208061
 50
335.7177222661641736
 51
3.630258270827952
  0
ARC
  5
16DEF
  8
0
 10
4864.3374968738789903
 20
179.1818589979195906
 30
0.0
 40
5.490387178593485
 50
2.5592044554235378
 51
19.2315560775094987
  0
ARC
  5
16DF0
  8
0
 10
4863.9284594004802784
 20
179.1445229497041964
 30
0.0
 40
5.3462751511075117
 50
1.216488013994548
 51
18.3922606584370705
  0
ARC
  5
16DF1
  8
0
 10
4867.342598851620096
 20
179.2170219006802938
 30
0.0
 40
1.931366032298856
 50
339.8211059289585023
 51
1.216488013994548
  0
ARC
  5
16DF2
  8
0
 10
4866.4682000031398275
 20
179.5383723811027892
 30
0.0
 40
2.862945056048273
 50
325.4558279159791141
 51
339.8211059289585023
  0
ARC
  5
16DF3
  8
0
 10
4872.1766418959678049
 20
175.608585820804592
 30
0.0
 40
4.0673890811549338
 50
145.4558279159788867
 51
158.579585365101309
  0
ARC
  5
16DF4
  8
0
 10
4875.3729593876469153
 20
173.9490703212825053
 30
0.0
 40
7.6583053250041191
 50
155.7536909427655019
 51
168.7163997789556049
  0
ARC
  5
16DF5
  8
0
 10
4877.1522080908143835
 20
173.7032203190898088
 30
0.0
 40
9.4518728710394697
 50
169.3652710854275085
 51
179.2140293104289981
  0
ARC
  5
16DF6
  8
0
 10
4913.2288488445046823
 20
173.2610572514832086
 30
0.0
 40
45.5312151394314384
 50
179.2804145269834919
 51
181.7605103863654961
  0
ARC
  5
16DF7
  8
0
 10
4855.6514199874891347
 20
171.4857545172013999
 30
0.0
 40
12.0735774645090093
 50
355.2562073085114775
 51
1.7869837931499351
  0
ARC
  5
16DF8
  8
0
 10
4865.9242715732070792
 20
170.4967324899712935
 30
0.0
 40
1.7593929154791521
 50
320.160063565608084
 51
359.6917404896046833
  0
ARC
  5
16DF9
  8
0
 10
4856.7146900300831476
 20
172.4366349901941078
 30
0.0
 40
10.1971189896534096
 50
354.807605862115679
 51
359.7368352238109992
  0
ARC
  5
16DFA
  8
0
 10
4877.4831029786810177
 20
170.5509951009752001
 30
0.0
 40
10.6567203880630199
 50
174.8164620933820004
 51
178.3182544761484962
  0
ARC
  5
16DFB
  8
0
 10
4869.8961683158440792
 20
170.7735966195629942
 30
0.0
 40
3.066520856314976
 50
178.3153757895497051
 51
194.33408339758941
  0
ARC
  5
16DFC
  8
0
 10
4868.8058121670010223
 20
170.4949774577675043
 30
0.0
 40
1.941129738240849
 50
194.33408339758941
 51
208.4290691955430077
  0
ARC
  5
16DFD
  8
0
 10
4867.6296862401823091
 20
169.8582771674286107
 30
0.0
 40
0.6037220010670783
 50
208.4290691955430077
 51
234.0435670280363922
  0
LINE
  5
16DFE
  8
0
 10
4866.9117014582043339
 20
172.3897988510576056
 30
0.0
 11
4866.9117014582043339
 21
172.5866492447576093
 31
0.0
  0
LINE
  5
16DFF
  8
0
 10
4866.360520355803601
 20
172.3897988510576056
 30
0.0
 11
4866.360520355803601
 21
172.5866492447576093
 31
0.0
  0
ARC
  5
16E00
  8
0
 10
4868.8580846857048527
 20
175.2643406845575953
 30
0.0
 40
0.7480314960999526
 50
9.6551511927912372
 51
35.7107831283363382
  0
LINE
  5
16E01
  8
0
 10
4869.6506384660042386
 20
176.2716886148575952
 30
0.0
 11
4869.6584925974038924
 21
176.2716886148575952
 31
0.0
  0
ARC
  5
16E02
  8
0
 10
4869.6584925974038924
 20
176.2520035754575929
 30
0.0
 40
0.0196850394000012
 50
19.4712206344973318
 51
90.0
  0
ARC
  5
16E03
  8
0
 10
4869.2687487023840731
 20
176.1142082999101035
 30
0.0
 40
0.4330708660421435
 50
340.5287793554165887
 51
19.4712206344973318
  0
ARC
  5
16E04
  8
0
 10
4869.6584925973284044
 20
175.976413024312393
 30
0.0
 40
0.0196850394548018
 50
270.0000002208951742
 51
340.5287793554148266
  0
LINE
  5
16E05
  8
0
 10
4869.6584925974038924
 20
175.9567279848575936
 30
0.0
 11
4869.6506384660042386
 21
175.956727984827296
 31
0.0
  0
ARC
  5
16E06
  8
0
 10
4870.4241777743800412
 20
176.1142084588726959
 30
0.0
 40
0.7882502040865736
 50
168.9132847813937985
 51
191.0866633190921107
  0
LINE
  5
16E07
  8
0
 10
4869.6463818389356675
 20
176.2421610557576059
 30
0.0
 11
4869.6506384660042386
 21
176.2421610557576059
 31
0.0
  0
LINE
  5
16E08
  8
0
 10
4869.6413131036988489
 20
176.206193738357598
 30
0.0
 11
4869.6506384660042386
 21
176.206193738357598
 31
0.0
  0
LINE
  5
16E09
  8
0
 10
4869.6378569774396965
 20
176.1693264100576073
 30
0.0
 11
4869.6506384660042386
 21
176.1693264100576073
 31
0.0
  0
LINE
  5
16E0A
  8
0
 10
4869.6403458814029364
 20
176.1969939988576073
 30
0.0
 11
4869.6506384660042386
 21
176.1969939988576073
 31
0.0
  0
LINE
  5
16E0B
  8
0
 10
4869.639242795789869
 20
176.1864266257576048
 30
0.0
 11
4869.6506384660042386
 21
176.1864266257576048
 31
0.0
  0
LINE
  5
16E0C
  8
0
 10
4869.6463818389356675
 20
175.9862555439864877
 30
0.0
 11
4869.6506384660042386
 21
175.9862555439864877
 31
0.0
  0
LINE
  5
16E0D
  8
0
 10
4869.6413131036988489
 20
176.0222228613864957
 30
0.0
 11
4869.6506384660042386
 21
176.0222228613864957
 31
0.0
  0
LINE
  5
16E0E
  8
0
 10
4869.6378569774396965
 20
176.0590901896864864
 30
0.0
 11
4869.6506384660042386
 21
176.0590901896864864
 31
0.0
  0
LINE
  5
16E0F
  8
0
 10
4869.6403458814029364
 20
176.0314226008864864
 30
0.0
 11
4869.6506384660042386
 21
176.0314226008864864
 31
0.0
  0
LINE
  5
16E10
  8
0
 10
4869.639242795789869
 20
176.0419899739864888
 30
0.0
 11
4869.6506384660042386
 21
176.0419899739864888
 31
0.0
  0
LINE
  5
16E11
  8
0
 10
4869.3090238305203457
 20
174.3734157390229882
 30
0.0
 11
4869.3090242928028601
 21
173.3200903265575903
 31
0.0
  0
ARC
  5
16E12
  8
0
 10
4869.2640477830109376
 20
173.3202405010405869
 30
0.0
 40
0.0449767605048051
 50
271.228627796460728
 51
359.8086927569199815
  0
LINE
  5
16E13
  8
0
 10
4870.0067378928570179
 20
174.5561105553013022
 30
0.0
 11
4870.0067378928570179
 21
173.136872973613805
 31
0.0
  0
LINE
  5
16E14
  8
0
 10
4868.2463757770492521
 20
173.3053122903652081
 30
0.0
 11
4868.7756864225048048
 21
173.2942041299075129
 31
0.0
  0
LINE
  5
16E15
  8
0
 10
4864.3564117055211682
 20
173.0206683098448934
 30
0.0
 11
4864.3566841325218775
 21
173.0203872997703058
 31
0.0
  0
LINE
  5
16E16
  8
0
 10
4864.3419581706357349
 20
173.0299166214159925
 30
0.0
 11
4864.3423679529705623
 21
173.0305018512430024
 31
0.0
  0
LINE
  5
16E17
  8
0
 10
4864.3225106934205542
 20
173.0444060540669113
 30
0.0
 11
4864.321592062826312
 21
173.043775233149205
 31
0.0
  0
LINE
  5
16E18
  8
0
 10
4864.6577326183332843
 20
172.8096811353040891
 30
0.0
 11
4864.6513175937916458
 21
172.8110436382102932
 31
0.0
  0
LINE
  5
16E19
  8
0
 10
4864.6513175937916458
 20
172.8110436382102932
 30
0.0
 11
4864.6347740022611106
 21
172.8171387759446986
 31
0.0
  0
LINE
  5
16E1A
  8
0
 10
4864.6347740022611106
 20
172.8171387759446986
 30
0.0
 11
4864.6364674844671754
 21
172.8195573190695882
 31
0.0
  0
LINE
  5
16E1B
  8
0
 10
4864.6364674844671754
 20
172.8195573190695882
 30
0.0
 11
4864.6466706690298452
 21
172.8174267955915866
 31
0.0
  0
LINE
  5
16E1C
  8
0
 10
4864.6435385668282834
 20
172.8187477546555897
 30
0.0
 11
4864.6255515735183508
 21
172.8227815009180119
 31
0.0
  0
LINE
  5
16E1D
  8
0
 10
4864.6255515735183508
 20
172.8227815009180119
 30
0.0
 11
4864.6097945990259177
 21
172.8300000441525128
 31
0.0
  0
LINE
  5
16E1E
  8
0
 10
4864.6097945990259177
 20
172.8300000441525128
 30
0.0
 11
4864.6120392250322766
 21
172.8332057022153947
 31
0.0
  0
LINE
  5
16E1F
  8
0
 10
4864.6120392250322766
 20
172.8332057022153947
 30
0.0
 11
4864.629547358000309
 21
172.8293264124170037
 31
0.0
  0
LINE
  5
16E20
  8
0
 10
4864.6211440985944137
 20
172.8353006926336946
 30
0.0
 11
4864.6192049056826363
 21
172.8325312381817014
 31
0.0
  0
LINE
  5
16E21
  8
0
 10
4864.6192049056826363
 20
172.8325312381817014
 30
0.0
 11
4864.6013926024679677
 21
172.8368144678107114
 31
0.0
  0
LINE
  5
16E22
  8
0
 10
4864.6013926024679677
 20
172.8368144678107114
 30
0.0
 11
4864.5864047303148254
 21
172.8451314029908019
 31
0.0
  0
LINE
  5
16E23
  8
0
 10
4864.5864047303148254
 20
172.8451314029908019
 30
0.0
 11
4864.5892078396518627
 21
172.849134657964612
 31
0.0
  0
LINE
  5
16E24
  8
0
 10
4864.5892078396518627
 20
172.849134657964612
 30
0.0
 11
4864.6070574295272309
 21
172.8451642845012941
 31
0.0
  0
LINE
  5
16E25
  8
0
 10
4864.5983398479829702
 20
172.8512684008119038
 30
0.0
 11
4864.5964279661293403
 21
172.8485379506325899
 31
0.0
  0
LINE
  5
16E26
  8
0
 10
4864.5964279661293403
 20
172.8485379506325899
 30
0.0
 11
4864.578820379742865
 21
172.8531135460956136
 31
0.0
  0
LINE
  5
16E27
  8
0
 10
4864.578820379742865
 20
172.8531135460956136
 30
0.0
 11
4864.5648556853529954
 21
172.8628917305915991
 31
0.0
  0
LINE
  5
16E28
  8
0
 10
4864.5648556853529954
 20
172.8628917305915991
 30
0.0
 11
4864.5679729205076001
 21
172.8673436036671944
 31
0.0
  0
LINE
  5
16E29
  8
0
 10
4864.5679729205076001
 20
172.8673436036671944
 30
0.0
 11
4864.5798878014720685
 21
172.864188662872408
 31
0.0
  0
LINE
  5
16E2A
  8
0
 10
4864.5755355973624319
 20
172.8672361089982132
 30
0.0
 11
4864.5752583362227597
 21
172.8668401389732878
 31
0.0
  0
LINE
  5
16E2B
  8
0
 10
4864.5752583362227597
 20
172.8668401389732878
 30
0.0
 11
4864.5578383579404544
 21
172.8716836665394112
 31
0.0
  0
LINE
  5
16E2C
  8
0
 10
4864.5578383579404544
 20
172.8716836665394112
 30
0.0
 11
4864.5571664747421892
 21
172.8721875386613931
 31
0.0
  0
LINE
  5
16E2D
  8
0
 10
4864.5571664747421892
 20
172.8721875386613931
 30
0.0
 11
4864.560883320064022
 21
172.877495744012009
 31
0.0
  0
LINE
  5
16E2E
  8
0
 10
4864.5690688046870491
 20
172.8580005718690984
 30
0.0
 11
4864.5662868833751418
 21
172.854027576520707
 31
0.0
  0
LINE
  5
16E2F
  8
0
 10
4864.5662868833751418
 20
172.854027576520707
 30
0.0
 11
4864.549509974405737
 21
172.8597895023341096
 31
0.0
  0
LINE
  5
16E30
  8
0
 10
4864.549509974405737
 20
172.8597895023341096
 30
0.0
 11
4864.5488223915990602
 21
172.8602709530007928
 31
0.0
  0
LINE
  5
16E31
  8
0
 10
4864.5488223915990602
 20
172.8602709530007928
 30
0.0
 11
4864.5542122774313611
 21
172.867968507670497
 31
0.0
  0
LINE
  5
16E32
  8
0
 10
4864.5542122774313611
 20
172.867968507670497
 30
0.0
 11
4864.5550493115897552
 21
172.8677004956090002
 31
0.0
  0
LINE
  5
16E33
  8
0
 10
4864.5550493115897552
 20
172.8677004956090002
 30
0.0
 11
4864.5690688046870491
 21
172.8580005718690984
 31
0.0
  0
LINE
  5
16E34
  8
0
 10
4864.562259959054245
 20
172.8482765325499884
 30
0.0
 11
4864.5606223256008889
 21
172.8459377495543094
 31
0.0
  0
LINE
  5
16E35
  8
0
 10
4864.5606223256008889
 20
172.8459377495543094
 30
0.0
 11
4864.5444335843239969
 21
172.8525396659277931
 31
0.0
  0
LINE
  5
16E36
  8
0
 10
4864.5444335843239969
 20
172.8525396659277931
 30
0.0
 11
4864.5437078072709483
 21
172.8529665696117092
 31
0.0
  0
LINE
  5
16E37
  8
0
 10
4864.5437078072709483
 20
172.8529665696117092
 30
0.0
 11
4864.5468880853431983
 21
172.8575084774315087
 31
0.0
  0
LINE
  5
16E38
  8
0
 10
4864.5468880853431983
 20
172.8575084774315087
 30
0.0
 11
4864.5476949063204302
 21
172.8571973164852977
 31
0.0
  0
LINE
  5
16E39
  8
0
 10
4864.5476949063204302
 20
172.8571973164852977
 30
0.0
 11
4864.5622599590606114
 21
172.8482765325867092
 31
0.0
  0
LINE
  5
16E3A
  8
0
 10
4864.5580961757368641
 20
172.8423300336374098
 30
0.0
 11
4864.5586370188266301
 21
172.8431024376415053
 31
0.0
  0
LINE
  5
16E3B
  8
0
 10
4864.5586370188266301
 20
172.8431024376415053
 30
0.0
 11
4864.5435397481960536
 21
172.8512609840257142
 31
0.0
  0
LINE
  5
16E3C
  8
0
 10
4864.5435397481960536
 20
172.8512609840257142
 30
0.0
 11
4864.5427608243453506
 21
172.851612242560293
 31
0.0
  0
LINE
  5
16E3D
  8
0
 10
4864.5427608243453506
 20
172.851612242560293
 30
0.0
 11
4864.5417250550217432
 21
172.8501354094887859
 31
0.0
  0
LINE
  5
16E3E
  8
0
 10
4864.5580961757368641
 20
172.8423300336374098
 30
0.0
 11
4864.551241880739326
 21
172.845446966002612
 31
0.0
  0
LINE
  5
16E3F
  8
0
 10
4864.5860398625200105
 20
172.8337022011158126
 30
0.0
 11
4864.5849439707581041
 21
172.8321371054894087
 31
0.0
  0
LINE
  5
16E40
  8
0
 10
4864.5849439707581041
 20
172.8321371054894087
 30
0.0
 11
4864.5685462377259682
 21
172.8384405506876078
 31
0.0
  0
LINE
  5
16E41
  8
0
 10
4864.5685462377259682
 20
172.8384405506876078
 30
0.0
 11
4864.5532461573184264
 21
172.8463116062993947
 31
0.0
  0
LINE
  5
16E42
  8
0
 10
4864.5532461573184264
 20
172.8463116062993947
 30
0.0
 11
4864.5543296195037328
 21
172.8478589506406138
 31
0.0
  0
LINE
  5
16E43
  8
0
 10
4864.5543296195037328
 20
172.8478589506406138
 30
0.0
 11
4864.5707254941944484
 21
172.8415528514406105
 31
0.0
  0
LINE
  5
16E44
  8
0
 10
4864.5707254941944484
 20
172.8415528514406105
 30
0.0
 11
4864.5860398625200105
 21
172.8337022011158126
 31
0.0
  0
LINE
  5
16E45
  8
0
 10
4864.5912878762892433
 20
172.8411971415702908
 30
0.0
 11
4864.5890644385599444
 21
172.8380217433459052
 31
0.0
  0
LINE
  5
16E46
  8
0
 10
4864.5890644385599444
 20
172.8380217433459052
 30
0.0
 11
4864.5720867929576343
 21
172.8434969876273897
 31
0.0
  0
LINE
  5
16E47
  8
0
 10
4864.5720867929576343
 20
172.8434969876273897
 30
0.0
 11
4864.5573194639437133
 21
172.8521288910824865
 31
0.0
  0
LINE
  5
16E48
  8
0
 10
4864.5573194639437133
 20
172.8521288910824865
 30
0.0
 11
4864.5595169624375558
 21
172.8552672441392133
 31
0.0
  0
LINE
  5
16E49
  8
0
 10
4864.5595169624375558
 20
172.8552672441392133
 30
0.0
 11
4864.5765075770586918
 21
172.8498105214887062
 31
0.0
  0
LINE
  5
16E4A
  8
0
 10
4864.5765075770586918
 20
172.8498105214887062
 30
0.0
 11
4864.5912878763010667
 21
172.841197141587088
 31
0.0
  0
LINE
  5
16E4B
  8
0
 10
4864.6150866229463645
 20
172.8266497209129966
 30
0.0
 11
4864.6134124938762398
 21
172.8242588167371139
 31
0.0
  0
LINE
  5
16E4C
  8
0
 10
4864.6134124938762398
 20
172.8242588167371139
 30
0.0
 11
4864.5962188393114047
 21
172.8294255682220069
 31
0.0
  0
LINE
  5
16E4D
  8
0
 10
4864.5962188393114047
 20
172.8294255682220069
 30
0.0
 11
4864.5806981420246302
 21
172.8369815502913127
 31
0.0
  0
LINE
  5
16E4E
  8
0
 10
4864.5806981420246302
 20
172.8369815502913127
 30
0.0
 11
4864.5823477764506606
 21
172.8393374724302873
 31
0.0
  0
LINE
  5
16E4F
  8
0
 10
4864.5823477764506606
 20
172.8393374724302873
 30
0.0
 11
4864.5995423645390474
 21
172.8341720542308906
 31
0.0
  0
LINE
  5
16E50
  8
0
 10
4864.5995423645390474
 20
172.8341720542308906
 30
0.0
 11
4864.6150866229463645
 21
172.8266497209129966
 31
0.0
  0
LINE
  5
16E51
  8
0
 10
4864.610806621746633
 20
172.8205372456714883
 30
0.0
 11
4864.6113834405095986
 21
172.8213610282311947
 31
0.0
  0
LINE
  5
16E52
  8
0
 10
4864.6113834405095986
 20
172.8213610282311947
 30
0.0
 11
4864.5953070058958474
 21
172.828123335098411
 31
0.0
  0
LINE
  5
16E53
  8
0
 10
4864.5953070058958474
 20
172.828123335098411
 30
0.0
 11
4864.5786984465612477
 21
172.834125689157986
 31
0.0
  0
LINE
  5
16E54
  8
0
 10
4864.5786984465612477
 20
172.834125689157986
 30
0.0
 11
4864.5781131264129726
 21
172.8332897653498037
 31
0.0
  0
LINE
  5
16E55
  8
0
 10
4864.6404797883833453
 20
172.8143793662885059
 30
0.0
 11
4864.6393537235617259
 21
172.8127711790596948
 31
0.0
  0
LINE
  5
16E56
  8
0
 10
4864.6393537235617259
 20
172.8127711790596948
 30
0.0
 11
4864.6219252194177898
 21
172.8176025304574921
 31
0.0
  0
LINE
  5
16E57
  8
0
 10
4864.6219252194177898
 20
172.8176025304574921
 30
0.0
 11
4864.6056356318849794
 21
172.8240604234898115
 31
0.0
  0
LINE
  5
16E58
  8
0
 10
4864.6056356318849794
 20
172.8240604234898115
 30
0.0
 11
4864.6067416674395645
 21
172.8256400060118949
 31
0.0
  0
LINE
  5
16E59
  8
0
 10
4864.6067416674395645
 20
172.8256400060118949
 30
0.0
 11
4864.6241570601478088
 21
172.8207899294818901
 31
0.0
  0
LINE
  5
16E5A
  8
0
 10
4864.6241570601478088
 20
172.8207899294818901
 30
0.0
 11
4864.6404797883833453
 21
172.8143793662885059
 31
0.0
  0
LINE
  5
16E5B
  8
0
 10
4864.6636278829237199
 20
172.8055532265979934
 30
0.0
 11
4864.6503785970971876
 21
172.8097026120429973
 31
0.0
  0
LINE
  5
16E5C
  8
0
 10
4864.6503785970971876
 20
172.8097026120429973
 30
0.0
 11
4864.6327217641492098
 21
172.8142078760820937
 31
0.0
  0
LINE
  5
16E5D
  8
0
 10
4864.6327217641492098
 20
172.8142078760820937
 30
0.0
 11
4864.6321282883536696
 21
172.8133603048140117
 31
0.0
  0
LINE
  5
16E5E
  8
0
 10
4864.6503785970971876
 20
172.8097026120429973
 30
0.0
 11
4864.6493262254989531
 21
172.8081996694048996
 31
0.0
  0
LINE
  5
16E5F
  8
0
 10
4864.6513175937916458
 20
172.8110436382102932
 30
0.0
 11
4864.6527879052900971
 21
172.8131434606501102
 31
0.0
  0
LINE
  5
16E60
  8
0
 10
4864.6255515735183508
 20
172.8227815009180119
 30
0.0
 11
4864.6299836546731967
 21
172.8291111688330943
 31
0.0
  0
LINE
  5
16E61
  8
0
 10
4864.6219252194177898
 20
172.8176025304574921
 30
0.0
 11
4864.6241570601478088
 21
172.8207899294818901
 31
0.0
  0
LINE
  5
16E62
  8
0
 10
4864.6013926024679677
 20
172.8368144678107114
 30
0.0
 11
4864.6071794040963141
 21
172.8450788769883957
 31
0.0
  0
LINE
  5
16E63
  8
0
 10
4864.5962188393114047
 20
172.8294255682220069
 30
0.0
 11
4864.5995423645390474
 21
172.8341720542308906
 31
0.0
  0
LINE
  5
16E64
  8
0
 10
4864.5943108344263237
 20
172.826700654795502
 30
0.0
 11
4864.5953070058958474
 21
172.828123335098411
 31
0.0
  0
LINE
  5
16E65
  8
0
 10
4864.5685462377259682
 20
172.8384405506876078
 30
0.0
 11
4864.5707254941944484
 21
172.8415528514406105
 31
0.0
  0
LINE
  5
16E66
  8
0
 10
4864.5720867929576343
 20
172.8434969876273897
 30
0.0
 11
4864.5765075770586918
 21
172.8498105214887062
 31
0.0
  0
LINE
  5
16E67
  8
0
 10
4864.578820379742865
 20
172.8531135460956136
 30
0.0
 11
4864.5843751535121555
 21
172.8610465851477045
 31
0.0
  0
LINE
  5
16E68
  8
0
 10
4864.629904596616143
 20
172.829166525880396
 30
0.0
 11
4864.629547358000309
 21
172.8293264124170037
 31
0.0
  0
LINE
  5
16E69
  8
0
 10
4864.6435385668282834
 20
172.8187477546555897
 30
0.0
 11
4864.6439483491649298
 21
172.819332984482287
 31
0.0
  0
LINE
  5
16E6A
  8
0
 10
4864.663805608716757
 20
172.8054287816582928
 30
0.0
 11
4864.6635270211218085
 21
172.8043497978075891
 31
0.0
  0
LINE
  5
16E6B
  8
0
 10
4868.7009466528015764
 20
181.3158187900571079
 30
0.0
 11
4869.5166921795389499
 21
181.5652172258683947
 31
0.0
  0
LINE
  5
16E6C
  8
0
 10
4868.7271055296041595
 20
181.2414784276575972
 30
0.0
 11
4869.5365760908052835
 21
181.4889584139575902
 31
0.0
  0
LINE
  5
16E6D
  8
0
 10
4869.5365760908052835
 20
181.4889584139575902
 30
0.0
 11
4869.655879558504239
 21
181.0314055429576001
 31
0.0
  0
LINE
  5
16E6E
  8
0
 10
4869.655879558504239
 20
181.0314055429576001
 30
0.0
 11
4868.8840587909053284
 21
180.7954362536576127
 31
0.0
  0
LINE
  5
16E6F
  8
0
 10
4868.8840587909053284
 20
180.7954362536576127
 30
0.0
 11
4868.7271055296041595
 21
181.2414784276575972
 31
0.0
  0
ARC
  5
16E70
  8
0
 10
4868.7399920651705543
 20
181.2869910534938924
 30
0.0
 40
0.0453157619484719
 50
137.6528776395778948
 51
258.320373005625413
  0
ARC
  5
16E71
  8
0
 10
4869.4997676220709764
 20
181.5186031937737994
 30
0.0
 40
0.0462185514172783
 50
319.1967980156143767
 51
76.0287218513864929
  0
LINE
  5
16E78
  8
0
 10
4869.3988573357237328
 20
174.1760814850576082
 30
0.0
 11
4869.8906790025403097
 21
174.1760814850576082
 31
0.0
  0
LINE
  5
16E7A
  8
0
 10
4869.396763784671748
 20
173.5172357614488874
 30
0.0
 11
4869.8906803046338609
 21
173.5172357614488874
 31
0.0
  0
ENDSEC
  0
EOF
