  0
SECTION
  2
HEADER
  9
$ACADVER
  1
AC1009
  9
$INSBASE
 10
475.7694628180332188
 20
12.23509653510229
 30
0.0
  9
$EXTMIN
 10
471.5325407404803855
 20
4.0707318230506964
 30
-0.0000000349181948
  9
$EXTMAX
 10
479.9916067561900945
 20
12.2418951342955893
 30
0.0000000814935746
  9
$LIMMIN
 10
0.0
 20
0.0
  9
$LIMMAX
 10
11.6929133858000007
 20
8.2677165353999982
  9
$ORTHOMODE
 70
     0
  9
$REGENMODE
 70
     1
  9
$FILLMODE
 70
     1
  9
$QTEXTMODE
 70
     0
  9
$MIRRTEXT
 70
     0
  9
$DRAGMODE
 70
     2
  9
$LTSCALE
 40
0.6431102362
  9
$OSMODE
 70
  4095
  9
$ATTMODE
 70
     1
  9
$TEXTSIZE
 40
0.2
  9
$TRACEWID
 40
0.05
  9
$TEXTSTYLE
  7
STANDARD
  9
$CLAYER
  8
0
  9
$CELTYPE
  6
BYLAYER
  9
$CECOLOR
 62
   256
  9
$DIMSCALE
 40
1.0
  9
$DIMASZ
 40
0.1875
  9
$DIMEXO
 40
0.0625
  9
$DIMDLI
 40
0.4443307087
  9
$DIMRND
 40
0.0
  9
$DIMDLE
 40
0.0
  9
$DIMEXE
 40
0.125
  9
$DIMTP
 40
0.01
  9
$DIMTM
 40
0.01
  9
$DIMTXT
 40
0.15625
  9
$DIMCEN
 40
0.1052362205
  9
$DIMTSZ
 40
0.0
  9
$DIMTOL
 70
     1
  9
$DIMLIM
 70
     0
  9
$DIMTIH
 70
     1
  9
$DIMTOH
 70
     1
  9
$DIMSE1
 70
     0
  9
$DIMSE2
 70
     0
  9
$DIMTAD
 70
     0
  9
$DIMZIN
 70
     0
  9
$DIMBLK
  1

  9
$DIMASO
 70
     1
  9
$DIMSHO
 70
     1
  9
$DIMPOST
  1
\X
  9
$DIMAPOST
  1

  9
$DIMALT
 70
     1
  9
$DIMALTD
 70
     2
  9
$DIMALTF
 40
25.3999999999999986
  9
$DIMLFAC
 40
1.0
  9
$DIMTOFL
 70
     0
  9
$DIMTVP
 40
0.0
  9
$DIMTIX
 70
     0
  9
$DIMSOXD
 70
     0
  9
$DIMSAH
 70
     0
  9
$DIMBLK1
  1

  9
$DIMBLK2
  1

  9
$DIMSTYLE
  2
STANDARD
  9
$DIMCLRD
 70
     0
  9
$DIMCLRE
 70
     0
  9
$DIMCLRT
 70
     0
  9
$DIMTFAC
 40
1.0
  9
$DIMGAP
 40
0.09
  9
$LUNITS
 70
     2
  9
$LUPREC
 70
     4
  9
$SKETCHINC
 40
0.1
  9
$FILLETRAD
 40
0.0
  9
$AUNITS
 70
     0
  9
$AUPREC
 70
     0
  9
$MENU
  1
.
  9
$ELEVATION
 40
0.0
  9
$PELEVATION
 40
0.0
  9
$THICKNESS
 40
0.0
  9
$LIMCHECK
 70
     0
  9
$BLIPMODE
 70
     0
  9
$CHAMFERA
 40
0.0
  9
$CHAMFERB
 40
0.0
  9
$SKPOLY
 70
     0
  9
$TDCREATE
 40
2458018.639108797069639
  9
$TDUPDATE
 40
2460217.7721527782268822
  9
$TDINDWG
 40
0.4169787037
  9
$TDUSRTIMER
 40
0.4169787037
  9
$USRTIMER
 70
     1
  9
$ANGBASE
 50
0.0
  9
$ANGDIR
 70
     0
  9
$PDMODE
 70
     0
  9
$PDSIZE
 40
0.3125
  9
$PLINEWID
 40
0.0
  9
$COORDS
 70
     1
  9
$SPLFRAME
 70
     0
  9
$SPLINETYPE
 70
     6
  9
$SPLINESEGS
 70
     8
  9
$ATTDIA
 70
     1
  9
$ATTREQ
 70
     1
  9
$HANDLING
 70
     1
  9
$HANDSEED
  5
C852
  9
$SURFTAB1
 70
     6
  9
$SURFTAB2
 70
     6
  9
$SURFTYPE
 70
     6
  9
$SURFU
 70
     6
  9
$SURFV
 70
     6
  9
$UCSNAME
  2

  9
$UCSORG
 10
0.0
 20
0.0
 30
0.0
  9
$UCSXDIR
 10
1.0
 20
0.0
 30
0.0
  9
$UCSYDIR
 10
0.0
 20
1.0
 30
0.0
  9
$PUCSNAME
  2

  9
$PUCSORG
 10
0.0
 20
0.0
 30
0.0
  9
$PUCSXDIR
 10
1.0
 20
0.0
 30
0.0
  9
$PUCSYDIR
 10
0.0
 20
1.0
 30
0.0
  9
$USERI1
 70
     0
  9
$USERI2
 70
     0
  9
$USERI3
 70
     0
  9
$USERI4
 70
     0
  9
$USERI5
 70
     0
  9
$USERR1
 40
0.0
  9
$USERR2
 40
0.0
  9
$USERR3
 40
0.0
  9
$USERR4
 40
0.0
  9
$USERR5
 40
0.0
  9
$WORLDVIEW
 70
     1
  9
$SHADEDGE
 70
     3
  9
$SHADEDIF
 70
    70
  9
$TILEMODE
 70
     1
  9
$MAXACTVP
 70
    64
  9
$PLIMCHECK
 70
     0
  9
$PEXTMIN
 10
1.0000000000000000E+20
 20
1.0000000000000000E+20
 30
1.0000000000000000E+20
  9
$PEXTMAX
 10
-1.0000000000000000E+20
 20
-1.0000000000000000E+20
 30
-1.0000000000000000E+20
  9
$PLIMMIN
 10
0.0
 20
0.0
  9
$PLIMMAX
 10
12.0
 20
9.0
  9
$UNITMODE
 70
     0
  9
$VISRETAIN
 70
     1
  9
$PLINEGEN
 70
     0
  9
$PSLTSCALE
 70
     1
  0
ENDSEC
  0
SECTION
  2
TABLES
  0
TABLE
  2
VPORT
 70
     1
  0
VPORT
  2
*ACTIVE
 70
     0
 10
0.0
 20
0.0
 11
1.0
 21
1.0
 12
380.4378127505975726
 22
1.1199814674503059
 13
0.0
 23
0.0
 14
1.0
 24
1.0
 15
0.0
 25
0.0
 16
-0.0000000000000142
 26
0.0
 36
39.3282560748450578
 17
95.3242609977377526
 27
7.0363320112228394
 37
0.0
 40
8.2415033110547551
 41
2.7227011494252871
 42
50.0
 43
0.0
 44
0.0
 50
0.0
 51
0.0
 71
     0
 72
   100
 73
     1
 74
     1
 75
     0
 76
     0
 77
     0
 78
     0
  0
ENDTAB
  0
TABLE
  2
LTYPE
 70
     2
  0
LTYPE
  2
CONTINUOUS
 70
     0
  3
Solid line
 72
    65
 73
     0
 40
0.0
  0
LTYPE
  2
PHANTOM2
 70
     0
  3
___ _ _ ___ _ _ ___ _ _ ___ _ _
 72
    65
 73
     6
 40
1.25
 49
0.625
 49
-0.125
 49
0.125
 49
-0.125
 49
0.125
 49
-0.125
  0
ENDTAB
  0
TABLE
  2
LAYER
 70
     2
  0
LAYER
  2
0
 70
     0
 62
   255
  6
CONTINUOUS
  0
LAYER
  2
DEFPOINTS
 70
     0
 62
     7
  6
CONTINUOUS
  0
ENDTAB
  0
TABLE
  2
STYLE
 70
     1
  0
STYLE
  2
STANDARD
 70
     0
 40
0.0
 41
0.8
 50
0.0
 71
     0
 42
0.2
  3
txt
  4

  0
ENDTAB
  0
TABLE
  2
VIEW
 70
     0
  0
ENDTAB
  0
TABLE
  2
UCS
 70
     0
  0
ENDTAB
  0
TABLE
  2
APPID
 70
    10
  0
APPID
  2
ACAD
 70
     0
  0
APPID
  2
ACAD_MLEADERVER
 70
     0
  0
APPID
  2
ACAD_DSTYLE_DIMJAG
 70
     0
  0
APPID
  2
ACAD_DSTYLE_DIMTALN
 70
     0
  0
APPID
  2
ACAD_NAV_VCDISPLAY
 70
     0
  0
APPID
  2
ACAD_EXEMPT_FROM_CAD_STANDARDS
 70
     0
  0
APPID
  2
ACAECLAYERSTANDARD
 70
     0
  0
APPID
  2
ACCMTRANSPARENCY
 70
     0
  0
APPID
  2
DCO15
 70
     0
  0
APPID
  2
ACDBATTR
 70
     0
  0
ENDTAB
  0
TABLE
  2
DIMSTYLE
 70
     1
  0
DIMSTYLE
  2
STANDARD
 70
     0
  3

  4

  5

  6

  7

 40
1.0
 41
0.1875
 42
0.0625
 43
0.38
 44
0.125
 45
0.0
 46
0.0
 47
0.01
 48
0.01
140
0.15625
141
0.09
142
0.0
143
25.3999999999999986
144
1.0
145
0.0
146
1.0
147
0.09
 71
     1
 72
     0
 73
     1
 74
     1
 75
     0
 76
     0
 77
     0
 78
     4
170
     0
171
     2
172
     0
173
     0
174
     0
175
     0
176
     0
177
     0
178
     0
  0
ENDTAB
  0
ENDSEC
  0
SECTION
  2
BLOCKS
  0
BLOCK
  8
0
  2
$MODEL_SPACE
 70
     0
 10
0.0
 20
0.0
 30
0.0
  3
$MODEL_SPACE
  1

  0
ENDBLK
  5
21
  8
0
  0
BLOCK
 67
     1
  8
0
  2
$PAPER_SPACE
 70
     0
 10
0.0
 20
0.0
 30
0.0
  3
$PAPER_SPACE
  1

  0
ENDBLK
  5
1D
 67
     1
  8
0
  0
BLOCK
  8
0
  2
_FILLED
 70
     0
 10
0.0
 20
0.0
 30
0.0
  3
_FILLED
  1

  0
SOLID
  5
A1C3
  8
0
  6
BYBLOCK
 62
     0
 10
0.0
 20
0.0
 30
0.0
 11
-1.0
 21
0.1666666667
 31
0.0
 12
-1.0
 22
-0.1666666667
 32
0.0
 13
-1.0
 23
-0.1666666667
 33
0.0
  0
ENDBLK
  5
A1C4
  8
0
  6
BYBLOCK
 62
     0
  0
ENDSEC
  0
SECTION
  2
ENTITIES
  0
ATTDEF
  5
7A6E
  8
DEFPOINTS
 10
475.7595304074060891
 20
12.2402313685857305
 30
0.0
 40
0.001
  1
K-31266T-4
  3

  2
MODELNUMBER
 70
     0
1001
ACDBATTR
1070
     0
1070
     1
  0
ATTDEF
  5
7A6F
  8
DEFPOINTS
 10
475.7595304074060891
 20
12.2385647019190706
 30
0.0
 40
0.001
  1
ATOM
  3

  2
TRADENAME
 70
     0
1001
ACDBATTR
1070
     0
1070
     1
  0
ATTDEF
  5
7A70
  8
DEFPOINTS
 10
475.7595304074060891
 20
12.2368980352524002
 30
0.0
 40
0.001
  1
SHOWER FAUCET
  3

  2
PRODUCT
 70
     0
1001
ACDBATTR
1070
     0
1070
     1
  0
LINE
  5
C0FF
  8
0
 10
471.5667069125332205
 20
12.0029600823386797
 30
0.0
 11
471.5667069125332205
 21
12.23509653510229
 31
0.0
  0
LINE
  5
C100
  8
0
 10
474.0038328503931098
 20
5.6189216326847271
 30
0.0
 11
474.0038328503932235
 21
5.6881626988628069
 31
0.0
  0
LINE
  5
C101
  8
0
 10
475.5726215962332049
 20
11.2193951953401605
 30
0.0
 11
475.5726215962332049
 21
11.5575416189518894
 31
0.0
  0
LINE
  5
C102
  8
0
 10
471.5667069125332205
 20
12.23509653510229
 30
0.0
 11
474.0667069125332773
 21
12.23509653510229
 31
0.0
  0
LINE
  5
C103
  8
0
 10
472.1070143850514
 20
11.6336145504959703
 30
0.0
 11
471.6050189046189871
 21
11.9352438655810307
 31
0.0
  0
LINE
  5
C104
  8
0
 10
472.1494734909729232
 20
11.5767253865111996
 30
0.0
 11
472.1367158925555145
 21
11.6017635832031107
 31
0.0
  0
LINE
  5
C105
  8
0
 10
472.1672936214586116
 20
11.5658051965022892
 30
0.0
 11
473.4661202036078862
 21
11.5658051965022892
 31
0.0
  0
ARC
  5
C106
  8
0
 10
472.1672936214584979
 20
11.5858051965022799
 30
0.0
 40
0.02
 50
206.9999999880801909
 51
270.0000000000064801
  0
ARC
  5
C107
  8
0
 10
472.0663263771371021
 20
11.5658983337382892
 30
0.0
 40
0.079
 50
26.99999998809799
 51
59.0000000030611815
  0
ARC
  5
C108
  8
0
 10
471.6457069125332282
 20
12.0029600823386708
 30
0.0
 40
0.079
 50
179.9999999999974136
 51
239.0000000030719036
  0
LINE
  5
C109
  8
0
 10
472.2359982511331964
 20
10.9752540154022906
 30
0.0
 11
472.2359982511331964
 21
11.5658051965022892
 31
0.0
  0
LINE
  5
C10A
  8
0
 10
472.2278263546177755
 20
10.9358839367022895
 30
0.0
 11
475.3714776712794787
 21
10.9358839367022895
 31
0.0
  0
LINE
  5
C10B
  8
0
 10
472.4242069125331795
 20
10.9752540154022906
 30
0.0
 11
472.4242069125331795
 21
10.9358839367022895
 31
0.0
  0
LINE
  5
C10C
  8
0
 10
472.2359982511331964
 20
10.9752540154022906
 30
0.0
 11
473.3974155739331877
 21
10.9752540154022906
 31
0.0
  0
LINE
  5
C10D
  8
0
 10
472.8217101489639163
 20
10.1550576137704898
 30
0.0
 11
474.7662126627938051
 21
9.9787152785063498
 31
0.0
  0
ARC
  5
C10E
  8
0
 10
473.0050181961273097
 20
10.9529080114600799
 30
0.0
 40
0.8186373417138534
 50
184.1523845221207978
 51
257.0607096570741987
  0
ARC
  5
C10F
  8
0
 10
472.2278263546177755
 20
10.8964839367022908
 30
0.0
 40
0.0394
 50
89.9999999999934914
 51
184.1523845221313991
  0
ARC
  5
C110
  8
0
 10
472.2397009213208889
 20
11.5657385631003997
 30
0.0
 40
0.048138721413285
 50
265.588642348740791
 51
289.390608088375302
  0
ARC
  5
C111
  8
0
 10
472.5546328080887974
 20
10.6002307590715805
 30
0.0
 40
0.9674472500169157
 50
93.5656706607794746
 51
107.9994941223106935
  0
ARC
  5
C112
  8
0
 10
472.4987557798028206
 20
10.6044636451935705
 30
0.0
 40
0.9632105653119499
 50
71.9613640319072942
 51
86.4301206433412261
  0
ARC
  5
C113
  8
0
 10
472.8152518608889068
 20
11.5763080764216699
 30
0.0
 40
0.0588713139188164
 50
251.9613640319072942
 51
271.4162552668681769
  0
LINE
  5
C114
  8
0
 10
472.2556832904331827
 20
11.5203304099022805
 30
0.0
 11
472.2556832904331827
 21
11.0207288020022904
 31
0.0
  0
LINE
  5
C115
  8
0
 10
472.7970218731331897
 20
11.5203304099022894
 30
0.0
 11
472.7970218731331897
 21
11.0207288020022904
 31
0.0
  0
ARC
  5
C116
  8
0
 10
472.2397009213208889
 20
10.9753206488041695
 30
0.0
 40
0.048138721413285
 50
70.6093919116247406
 51
94.4113576512591948
  0
ARC
  5
C117
  8
0
 10
472.5546328080887974
 20
11.9408284528329993
 30
0.0
 40
0.9674472500169157
 50
252.0005058776893065
 51
266.4343293392204828
  0
ARC
  5
C118
  8
0
 10
472.4987557798028206
 20
11.9365955667110093
 30
0.0
 40
0.9632105653119499
 50
273.5698793566588165
 51
288.0386359680925921
  0
ARC
  5
C119
  8
0
 10
472.8152518608889068
 20
10.9647511354829099
 30
0.0
 40
0.0588713139188164
 50
88.5837447331317662
 51
108.0386359680927058
  0
LINE
  5
C11A
  8
0
 10
471.6050189046189871
 20
11.93524386558102
 30
0.0
 11
474.028394920447397
 21
11.93524386558102
 31
0.0
  0
LINE
  5
C11B
  8
0
 10
472.1367158925554008
 20
11.6017635832031001
 30
0.0
 11
473.4966979325109264
 21
11.6017635832031001
 31
0.0
  0
LINE
  5
C11C
  8
0
 10
472.1070143850512864
 20
11.6336145504959294
 30
0.0
 11
473.5263994400149272
 21
11.6336145504959294
 31
0.0
  0
LINE
  5
C11D
  8
0
 10
473.3974155739331877
 20
10.9752540154022906
 30
0.0
 11
473.3974155739331877
 21
11.5658051965022892
 31
0.0
  0
LINE
  5
C11E
  8
0
 10
473.3777305346333151
 20
11.5203304099022805
 30
0.0
 11
473.3777305346333151
 21
11.0207288020022904
 31
0.0
  0
LINE
  5
C11F
  8
0
 10
472.8363919519331944
 20
11.5203304099022894
 30
0.0
 11
472.8363919519331944
 21
11.0207288020022904
 31
0.0
  0
ARC
  5
C120
  8
0
 10
473.3937129037454952
 20
10.9753206488041695
 30
0.0
 40
0.048138721413285
 50
85.5886423487408337
 51
109.3906080883752026
  0
ARC
  5
C121
  8
0
 10
473.0787810169775867
 20
11.9408284528329993
 30
0.0
 40
0.9674472500169157
 50
273.5656706607795172
 51
287.9994941223106935
  0
ARC
  5
C122
  8
0
 10
473.1346580452636204
 20
11.9365955667110093
 30
0.0
 40
0.9632105653119499
 50
251.9613640319072942
 51
266.4301206433411835
  0
ARC
  5
C123
  8
0
 10
472.818161964177591
 20
10.9647511354829099
 30
0.0
 40
0.0588713139188164
 50
71.9613640319073227
 51
91.416255266868248
  0
ARC
  5
C124
  8
0
 10
473.3937129037454952
 20
11.5657385631003997
 30
0.0
 40
0.048138721413285
 50
250.609391911624698
 51
274.4113576512590953
  0
ARC
  5
C125
  8
0
 10
473.0787810169775867
 20
10.6002307590715805
 30
0.0
 40
0.9674472500169157
 50
72.0005058776892213
 51
86.4343293392205254
  0
ARC
  5
C126
  8
0
 10
473.1346580452636204
 20
10.6044636451935705
 30
0.0
 40
0.9632105653119499
 50
93.5698793566587739
 51
108.0386359680927058
  0
ARC
  5
C127
  8
0
 10
472.818161964177591
 20
11.5763080764216699
 30
0.0
 40
0.0588713139188164
 50
268.5837447331317094
 51
288.0386359680925921
  0
LINE
  5
C128
  8
0
 10
473.5263994400150978
 20
11.6336145504959703
 30
0.0
 11
474.028394920447397
 21
11.9352438655810307
 31
0.0
  0
LINE
  5
C129
  8
0
 10
473.4839403340935178
 20
11.5767253865111996
 30
0.0
 11
473.4966979325109264
 21
11.6017635832031107
 31
0.0
  0
ARC
  5
C12A
  8
0
 10
473.4661202036078862
 20
11.5858051965022799
 30
0.0
 40
0.02
 50
269.9999999999935199
 51
333.0000000119197807
  0
ARC
  5
C12B
  8
0
 10
473.5670874479293957
 20
11.5658983337382892
 30
0.0
 40
0.079
 50
120.9999999969387972
 51
153.0000000119019887
  0
ARC
  5
C12C
  8
0
 10
473.9877069125332127
 20
12.0029600823386708
 30
0.0
 40
0.079
 50
300.9999999969281248
 51
0.0000000000025444
  0
LINE
  5
C12D
  8
0
 10
474.0667069125332773
 20
12.0029600823386797
 30
0.0
 11
474.0667069125332773
 21
12.23509653510229
 31
0.0
  0
LINE
  5
C12E
  8
0
 10
473.2092069125332046
 20
10.9752540154022906
 30
0.0
 11
473.2092069125332046
 21
10.9358839367022895
 31
0.0
  0
LINE
  5
C12F
  8
0
 10
474.942691164533187
 20
8.9673799997022918
 30
0.0
 11
475.1901039622242138
 21
8.9673799997022918
 31
0.0
  0
LINE
  5
C130
  8
0
 10
474.942691164533187
 20
8.8610807871022921
 30
0.0
 11
475.0240209038752255
 21
8.8610807871022921
 31
0.0
  0
LINE
  5
C131
  8
0
 10
474.942691164533187
 20
8.8610807871022921
 30
0.0
 11
474.942691164533187
 21
7.9162288186022911
 31
0.0
  0
LINE
  5
C132
  8
0
 10
474.942691164533187
 20
8.9673799997022918
 30
0.0
 11
474.942691164533187
 21
9.7855081432894977
 31
0.0
  0
ARC
  5
C133
  8
0
 10
474.748691164533227
 20
9.7855081432894977
 30
0.0
 40
0.194
 50
0.0
 51
84.8181557980798289
  0
LINE
  5
C134
  8
0
 10
474.9820911645331876
 20
7.8768288186022906
 30
0.0
 11
475.227241323200019
 21
7.8768288186022906
 31
0.0
  0
ARC
  5
C135
  8
0
 10
474.9820911645331876
 20
7.916228818602284
 30
0.0
 40
0.0394
 50
179.9999999999895977
 51
270.0000000000032969
  0
ARC
  5
C136
  8
0
 10
475.7352449448331981
 20
9.0928381661023003
 30
0.0
 40
0.748031496100065
 50
189.6551511850265967
 51
207.0986919129032913
  0
ARC
  5
C137
  8
0
 10
475.1603701902499211
 20
8.9136186205691832
 30
0.0
 40
0.1843761233325818
 50
196.5558135502975858
 51
233.2721544033425971
  0
ARC
  5
C138
  8
0
 10
475.4046153033189057
 20
9.2409664399336791
 30
0.0
 40
0.5928027019251406
 50
233.2721544033425971
 51
249.7803106274691913
  0
LINE
  5
C139
  8
0
 10
475.0079335240641853
 20
8.8098996847022875
 30
0.0
 11
475.042787772944223
 21
8.809899684702291
 31
0.0
  0
LINE
  5
C13A
  8
0
 10
475.2417179606416084
 20
7.4517174578198642
 30
0.0
 11
475.1651524541832146
 21
9.7000894828022908
 31
0.0
  0
ARC
  5
C13B
  8
0
 10
457.450065343691108
 20
8.90188402665175
 30
0.0
 40
17.7330607420871615
 50
2.579885230607561
 51
3.4802289779668079
  0
ARC
  5
C13C
  8
0
 10
478.2799563454672125
 20
9.8444689991222845
 30
0.0
 40
3.1323960361912571
 50
170.3490936157893998
 51
177.550320678594403
  0
ARC
  5
C13D
  8
0
 10
476.4022988381817072
 20
10.2108498167707094
 30
0.0
 40
1.2207730484621531
 50
156.5062523156711904
 51
172.5281189833090991
  0
ARC
  5
C13E
  8
0
 10
475.7450107274287916
 20
10.4428869595726805
 30
0.0
 40
0.5277710210061854
 50
126.2447334787585049
 51
151.1545022153609068
  0
ARC
  5
C13F
  8
0
 10
475.8031588972723966
 20
10.3021255712436606
 30
0.0
 40
0.6766500194256851
 50
92.8544179756358261
 51
123.1672675378115969
  0
ARC
  5
C140
  8
0
 10
475.8001979547893256
 20
10.6881539252247801
 30
0.0
 40
0.4714655001574509
 50
93.7377991118779619
 51
168.9965366826567958
  0
ARC
  5
C141
  8
0
 10
475.7337941040926239
 20
10.8360657045717801
 30
0.0
 40
0.3758149504104984
 50
155.6123801143124865
 51
177.4776471765651991
  0
ARC
  5
C142
  8
0
 10
580.0897177778431342
 20
11.0122123731863795
 30
0.0
 40
104.6982078462149985
 50
179.9942457554161876
 51
180.0114756613791087
  0
ARC
  5
C143
  8
0
 10
475.775047927674791
 20
10.8512547330677194
 30
0.0
 40
0.4201235766093782
 50
90.7617107318400542
 51
155.9114613170629866
  0
ARC
  5
C144
  8
0
 10
474.8417376007340067
 20
7.8630623156969364
 30
0.0
 40
0.573808099264515
 50
295.3616046177565977
 51
313.1378073545416214
  0
ARC
  5
C145
  8
0
 10
475.7853414219804904
 20
5.6049238905699141
 30
0.0
 40
1.874374735346382
 50
111.8573717330836956
 51
137.4989506808232136
  0
ARC
  5
C146
  8
0
 10
475.548399295638319
 20
5.846564652448115
 30
0.0
 40
1.5365385194183929
 50
138.1729359324986035
 51
156.5410096448788977
  0
ARC
  5
C147
  8
0
 10
475.443740159725678
 20
5.8960628215367521
 30
0.0
 40
1.420830034896793
 50
156.6919437800640935
 51
176.5683277371979898
  0
ARC
  5
C148
  8
0
 10
475.4052380167477736
 20
5.906659888631359
 30
0.0
 40
1.3817873778567951
 50
176.9113860028637077
 51
198.4315138661106062
  0
ARC
  5
C149
  8
0
 10
475.5274344858436848
 20
5.956350086639449
 30
0.0
 40
1.5134499422879379
 50
198.7535423643527963
 51
227.8031883559569906
  0
ARC
  5
C14A
  8
0
 10
475.7123792120465851
 20
6.157960212601437
 30
0.0
 40
1.7870354562585109
 50
227.7519708864624022
 51
253.3385111483731862
  0
ARC
  5
C14B
  8
0
 10
475.8107627522676921
 20
6.6081893202896138
 30
0.0
 40
2.2468401476099471
 50
254.2268662750342969
 51
268.9467674409318079
  0
ARC
  5
C14C
  8
0
 10
475.3917907876266895
 20
5.6393504461428341
 30
0.0
 40
1.3881082709749559
 50
180.8432534211056861
 51
194.2151990778411061
  0
ARC
  5
C14D
  8
0
 10
475.4871358427100176
 20
5.6635033679092066
 30
0.0
 40
1.486464984821471
 50
194.2151990778409925
 51
214.4936593225897923
  0
ARC
  5
C14E
  8
0
 10
475.5892100005474958
 20
5.7336403623387957
 30
0.0
 40
1.6103130033193369
 50
214.493659322589707
 51
236.6036622755185022
  0
ARC
  5
C14F
  8
0
 10
475.7687608742510861
 20
6.0059814322673901
 30
0.0
 40
1.9365156621336821
 50
236.6036622755185022
 51
252.2260875835532943
  0
ARC
  5
C150
  8
0
 10
475.8390899866922723
 20
6.5061062682235473
 30
0.0
 40
2.4357455695323211
 50
254.2423399728691891
 51
268.3619445074854752
  0
LINE
  5
C151
  8
0
 10
474.023893685198118
 20
5.9416483910283944
 30
0.0
 11
474.0038328503931098
 21
5.6881626988627971
 31
0.0
  0
LINE
  5
C152
  8
0
 10
475.2478177976022948
 20
10.6076625721025906
 30
0.0
 11
475.328079517733272
 21
7.664349755402295
 31
0.0
  0
ARC
  5
C153
  8
0
 10
474.9900500997703148
 20
7.6614636071300657
 30
0.0
 40
0.3380452817913253
 50
333.1128938377100894
 51
0.4897502224119307
  0
ARC
  5
C154
  8
0
 10
474.8795414510734076
 20
7.8193549454789242
 30
0.0
 40
0.5160708734420379
 50
313.3930787873852069
 51
322.9738986965820118
  0
ARC
  5
C155
  8
0
 10
475.7694628180332188
 20
11.5575416189518894
 30
0.0
 40
0.1968412217999997
 50
0.0
 51
180.0
  0
LINE
  5
C156
  8
0
 10
479.972218723533274
 20
12.0029600823386797
 30
0.0
 11
479.972218723533274
 21
12.23509653510229
 31
0.0
  0
LINE
  5
C157
  8
0
 10
477.5350927856733279
 20
5.6189216326847271
 30
0.0
 11
477.5350927856733279
 21
5.6881626988628069
 31
0.0
  0
LINE
  5
C158
  8
0
 10
475.9663040398332896
 20
11.2193951953401605
 30
0.0
 11
475.9663040398332896
 21
11.5575416189518894
 31
0.0
  0
LINE
  5
C159
  8
0
 10
479.972218723533274
 20
12.23509653510229
 30
0.0
 11
477.4722187235332171
 21
12.23509653510229
 31
0.0
  0
LINE
  5
C15A
  8
0
 10
479.4319112510150944
 20
11.6336145504959703
 30
0.0
 11
479.9339067314475074
 21
11.9352438655810307
 31
0.0
  0
LINE
  5
C15B
  8
0
 10
479.3894521450936281
 20
11.5767253865111996
 30
0.0
 11
479.4022097435109799
 21
11.6017635832031107
 31
0.0
  0
LINE
  5
C15C
  8
0
 10
479.3716320146078829
 20
11.5658051965022892
 30
0.0
 11
478.0728054324586083
 21
11.5658051965022892
 31
0.0
  0
ARC
  5
C15D
  8
0
 10
479.3716320146078829
 20
11.5858051965022799
 30
0.0
 40
0.02
 50
269.9999999999935199
 51
333.0000000119197807
  0
ARC
  5
C15E
  8
0
 10
479.4725992589292787
 20
11.5658983337382892
 30
0.0
 40
0.079
 50
120.9999999969387972
 51
153.0000000119019887
  0
ARC
  5
C15F
  8
0
 10
479.8932187235332094
 20
12.0029600823386708
 30
0.0
 40
0.079
 50
300.9999999969281248
 51
0.0000000000025444
  0
LINE
  5
C160
  8
0
 10
479.3029273849331844
 20
10.9752540154022906
 30
0.0
 11
479.3029273849331844
 21
11.5658051965022892
 31
0.0
  0
LINE
  5
C161
  8
0
 10
479.311099281448719
 20
10.9358839367022895
 30
0.0
 11
476.1674479647870157
 21
10.9358839367022895
 31
0.0
  0
LINE
  5
C162
  8
0
 10
479.1147187235332012
 20
10.9752540154022906
 30
0.0
 11
479.1147187235332012
 21
10.9358839367022895
 31
0.0
  0
LINE
  5
C163
  8
0
 10
479.3029273849331844
 20
10.9752540154022906
 30
0.0
 11
478.1415100621331931
 21
10.9752540154022906
 31
0.0
  0
LINE
  5
C164
  8
0
 10
478.7172154871025782
 20
10.1550576137704898
 30
0.0
 11
476.7727129732725757
 21
9.9787152785063498
 31
0.0
  0
ARC
  5
C165
  8
0
 10
478.5339074399391279
 20
10.9529080114600799
 30
0.0
 40
0.8186373417138534
 50
282.9392903429258013
 51
355.847615477879117
  0
ARC
  5
C166
  8
0
 10
479.311099281448719
 20
10.8964839367022908
 30
0.0
 40
0.0394
 50
355.8476154778686009
 51
90.0000000000065086
  0
ARC
  5
C167
  8
0
 10
479.2992247147454918
 20
11.5657385631003997
 30
0.0
 40
0.048138721413285
 50
250.609391911624698
 51
274.4113576512590953
  0
ARC
  5
C168
  8
0
 10
478.9842928279775833
 20
10.6002307590715805
 30
0.0
 40
0.9674472500169157
 50
72.0005058776892213
 51
86.4343293392205254
  0
ARC
  5
C169
  8
0
 10
479.040169856263617
 20
10.6044636451935705
 30
0.0
 40
0.9632105653119499
 50
93.5698793566587739
 51
108.0386359680927058
  0
ARC
  5
C16A
  8
0
 10
478.7236737751775877
 20
11.5763080764216699
 30
0.0
 40
0.0588713139188164
 50
268.5837447331317094
 51
288.0386359680925921
  0
LINE
  5
C16B
  8
0
 10
479.2832423456331981
 20
11.5203304099022805
 30
0.0
 11
479.2832423456331981
 21
11.0207288020022904
 31
0.0
  0
LINE
  5
C16C
  8
0
 10
478.741903762933191
 20
11.5203304099022894
 30
0.0
 11
478.741903762933191
 21
11.0207288020022904
 31
0.0
  0
ARC
  5
C16D
  8
0
 10
479.2992247147454918
 20
10.9753206488041695
 30
0.0
 40
0.048138721413285
 50
85.5886423487408337
 51
109.3906080883752026
  0
ARC
  5
C16E
  8
0
 10
478.9842928279775833
 20
11.9408284528329993
 30
0.0
 40
0.9674472500169157
 50
273.5656706607795172
 51
287.9994941223106935
  0
ARC
  5
C16F
  8
0
 10
479.040169856263617
 20
11.9365955667110093
 30
0.0
 40
0.9632105653119499
 50
251.9613640319072942
 51
266.4301206433411835
  0
ARC
  5
C170
  8
0
 10
478.7236737751775877
 20
10.9647511354829099
 30
0.0
 40
0.0588713139188164
 50
71.9613640319073227
 51
91.416255266868248
  0
LINE
  5
C171
  8
0
 10
479.9339067314475074
 20
11.93524386558102
 30
0.0
 11
477.5105307156189838
 21
11.93524386558102
 31
0.0
  0
LINE
  5
C172
  8
0
 10
479.4022097435109799
 20
11.6017635832031001
 30
0.0
 11
478.0422277035555112
 21
11.6017635832031001
 31
0.0
  0
LINE
  5
C173
  8
0
 10
479.4319112510150944
 20
11.6336145504959294
 30
0.0
 11
478.0125261960515104
 21
11.6336145504959294
 31
0.0
  0
LINE
  5
C174
  8
0
 10
478.1415100621331931
 20
10.9752540154022906
 30
0.0
 11
478.1415100621331931
 21
11.5658051965022892
 31
0.0
  0
LINE
  5
C175
  8
0
 10
478.1611951014331794
 20
11.5203304099022805
 30
0.0
 11
478.1611951014331794
 21
11.0207288020022904
 31
0.0
  0
LINE
  5
C176
  8
0
 10
478.7025336841331864
 20
11.5203304099022894
 30
0.0
 11
478.7025336841331864
 21
11.0207288020022904
 31
0.0
  0
ARC
  5
C177
  8
0
 10
478.1452127323208856
 20
10.9753206488041695
 30
0.0
 40
0.048138721413285
 50
70.6093919116247548
 51
94.4113576512591948
  0
ARC
  5
C178
  8
0
 10
478.4601446190889078
 20
11.9408284528329993
 30
0.0
 40
0.9674472500169157
 50
252.0005058776891929
 51
266.4343293392204828
  0
ARC
  5
C179
  8
0
 10
478.4042675908028173
 20
11.9365955667110093
 30
0.0
 40
0.9632105653119499
 50
273.5698793566588165
 51
288.0386359680925921
  0
ARC
  5
C17A
  8
0
 10
478.7207636718889034
 20
10.9647511354829099
 30
0.0
 40
0.0588713139188164
 50
88.5837447331317662
 51
108.0386359680927058
  0
ARC
  5
C17B
  8
0
 10
478.1452127323208856
 20
11.5657385631003997
 30
0.0
 40
0.048138721413285
 50
265.588642348740791
 51
289.390608088375302
  0
ARC
  5
C17C
  8
0
 10
478.4601446190889078
 20
10.6002307590715805
 30
0.0
 40
0.9674472500169157
 50
93.5656706607794746
 51
107.9994941223106935
  0
ARC
  5
C17D
  8
0
 10
478.4042675908028173
 20
10.6044636451935705
 30
0.0
 40
0.9632105653119499
 50
71.9613640319072942
 51
86.4301206433412261
  0
ARC
  5
C17E
  8
0
 10
478.7207636718889034
 20
11.5763080764216699
 30
0.0
 40
0.0588713139188164
 50
251.9613640319072942
 51
271.4162552668681769
  0
LINE
  5
C17F
  8
0
 10
478.0125261960513967
 20
11.6336145504959703
 30
0.0
 11
477.5105307156189838
 21
11.9352438655810307
 31
0.0
  0
LINE
  5
C180
  8
0
 10
478.0549853019729198
 20
11.5767253865111996
 30
0.0
 11
478.0422277035555112
 21
11.6017635832031107
 31
0.0
  0
ARC
  5
C181
  8
0
 10
478.0728054324586083
 20
11.5858051965022799
 30
0.0
 40
0.02
 50
206.9999999880801056
 51
270.0000000000064801
  0
ARC
  5
C182
  8
0
 10
477.9718381881370988
 20
11.5658983337382892
 30
0.0
 40
0.079
 50
26.99999998809799
 51
59.0000000030612171
  0
ARC
  5
C183
  8
0
 10
477.5512187235332249
 20
12.0029600823386708
 30
0.0
 40
0.079
 50
179.9999999999974136
 51
239.0000000030719036
  0
LINE
  5
C184
  8
0
 10
477.4722187235332171
 20
12.0029600823386797
 30
0.0
 11
477.4722187235332171
 21
12.23509653510229
 31
0.0
  0
LINE
  5
C185
  8
0
 10
478.3297187235331762
 20
10.9752540154022906
 30
0.0
 11
478.3297187235331762
 21
10.9358839367022895
 31
0.0
  0
LINE
  5
C186
  8
0
 10
476.5962344715331938
 20
8.9673799997022918
 30
0.0
 11
476.3488216738422807
 21
8.9673799997022918
 31
0.0
  0
LINE
  5
C187
  8
0
 10
476.5962344715331938
 20
8.8610807871022921
 30
0.0
 11
476.5149047321912121
 21
8.8610807871022921
 31
0.0
  0
LINE
  5
C188
  8
0
 10
476.5962344715331938
 20
8.8610807871022921
 30
0.0
 11
476.5962344715331938
 21
7.9162288186022911
 31
0.0
  0
LINE
  5
C189
  8
0
 10
476.5962344715331938
 20
8.9673799997022918
 30
0.0
 11
476.5962344715331938
 21
9.7855081432894977
 31
0.0
  0
ARC
  5
C18A
  8
0
 10
476.7902344715333243
 20
9.7855081432894977
 30
0.0
 40
0.194
 50
95.1818442019201854
 51
180.0
  0
LINE
  5
C18B
  8
0
 10
476.5568344715331932
 20
7.8768288186022906
 30
0.0
 11
476.3116843128664755
 21
7.8768288186022906
 31
0.0
  0
ARC
  5
C18C
  8
0
 10
476.5568344715331932
 20
7.916228818602284
 30
0.0
 40
0.0394
 50
269.9999999999968168
 51
0.0000000000103813
  0
ARC
  5
C18D
  8
0
 10
475.8036806912331826
 20
9.0928381661023003
 30
0.0
 40
0.748031496100065
 50
332.9013080870967087
 51
350.344848814973318
  0
ARC
  5
C18E
  8
0
 10
476.3785554458165734
 20
8.9136186205691832
 30
0.0
 40
0.1843761233325818
 50
306.7278455966574029
 51
343.4441864497022721
  0
ARC
  5
C18F
  8
0
 10
476.1343103327474751
 20
9.2409664399336791
 30
0.0
 40
0.5928027019251406
 50
290.2196893725308087
 51
306.7278455966574029
  0
LINE
  5
C190
  8
0
 10
476.5309921120023091
 20
8.8098996847022875
 30
0.0
 11
476.4961378631223283
 21
8.809899684702291
 31
0.0
  0
LINE
  5
C191
  8
0
 10
476.297207675424886
 20
7.4517174578198642
 30
0.0
 11
476.3737731818832231
 21
9.7000894828022908
 31
0.0
  0
ARC
  5
C192
  8
0
 10
494.0888602923752728
 20
8.90188402665175
 30
0.0
 40
17.7330607420871615
 50
176.5197710220332112
 51
177.4201147693923986
  0
ARC
  5
C193
  8
0
 10
473.2589692905992251
 20
9.8444689991222845
 30
0.0
 40
3.1323960361912571
 50
2.449679321405581
 51
9.6509063842105878
  0
ARC
  5
C194
  8
0
 10
475.1366267978846736
 20
10.2108498167707094
 30
0.0
 40
1.2207730484621531
 50
7.4718810166908911
 51
23.4937476843287492
  0
ARC
  5
C195
  8
0
 10
475.7939149086375892
 20
10.4428869595726805
 30
0.0
 40
0.5277710210061854
 50
28.8454977846391287
 51
53.7552665212414809
  0
ARC
  5
C196
  8
0
 10
475.7357667387940978
 20
10.3021255712436606
 30
0.0
 40
0.6766500194256851
 50
56.8327324621883818
 51
87.1455820243641881
  0
ARC
  5
C197
  8
0
 10
475.738727681277112
 20
10.6881539252247801
 30
0.0
 40
0.4714655001574509
 50
11.0034633173431704
 51
86.2622008881220523
  0
ARC
  5
C198
  8
0
 10
475.8051315319739274
 20
10.8360657045717801
 30
0.0
 40
0.3758149504104984
 50
2.5223528234347761
 51
24.3876198856874495
  0
ARC
  5
C199
  8
0
 10
371.4492078582234171
 20
11.0122123731863795
 30
0.0
 40
104.6982078462149985
 50
359.9885243386207776
 51
0.0057542445837473
  0
ARC
  5
C19A
  8
0
 10
475.7638777083917034
 20
10.8512547330677194
 30
0.0
 40
0.4201235766093782
 50
24.0885386829370098
 51
89.2382892681599458
  0
ARC
  5
C19B
  8
0
 10
476.6971880353323741
 20
7.8630623156969364
 30
0.0
 40
0.573808099264515
 50
226.8621926454584923
 51
244.6383953822432886
  0
ARC
  5
C19C
  8
0
 10
475.7535842140860041
 20
5.6049238905699141
 30
0.0
 40
1.874374735346382
 50
42.5010493191768006
 51
68.1426282669162333
  0
ARC
  5
C19D
  8
0
 10
475.9905263404281754
 20
5.846564652448115
 30
0.0
 40
1.5365385194183929
 50
23.4589903551210313
 51
41.8270640675013397
  0
ARC
  5
C19E
  8
0
 10
476.0951854763407027
 20
5.8960628215367521
 30
0.0
 40
1.420830034896793
 50
3.43167226280194
 51
23.3080562199359314
  0
ARC
  5
C19F
  8
0
 10
476.1336876193187209
 20
5.906659888631359
 30
0.0
 40
1.3817873778567951
 50
341.5684861338892802
 51
3.0886139971361639
  0
ARC
  5
C1A0
  8
0
 10
476.011491150222696
 20
5.956350086639449
 30
0.0
 40
1.5134499422879379
 50
312.1968116440430094
 51
341.2464576356470047
  0
ARC
  5
C1A1
  8
0
 10
475.8265464240197957
 20
6.157960212601437
 30
0.0
 40
1.7870354562585109
 50
286.6614888516267001
 51
312.2480291135374841
  0
ARC
  5
C1A2
  8
0
 10
475.7281628837988023
 20
6.6081893202896138
 30
0.0
 40
2.2468401476099471
 50
271.0532325590683058
 51
285.7731337249655894
  0
ARC
  5
C1A3
  8
0
 10
476.1471348484396913
 20
5.6393504461428341
 30
0.0
 40
1.3881082709749559
 50
345.7848009221589223
 51
359.1567465788941149
  0
ARC
  5
C1A4
  8
0
 10
476.05178979335642
 20
5.6635033679092066
 30
0.0
 40
1.486464984821471
 50
325.506340677410094
 51
345.7848009221589223
  0
ARC
  5
C1A5
  8
0
 10
475.9497156355188849
 20
5.7336403623387957
 30
0.0
 40
1.6103130033193369
 50
303.3963377244814978
 51
325.5063406774103214
  0
ARC
  5
C1A6
  8
0
 10
475.7701647618154084
 20
6.0059814322673901
 30
0.0
 40
1.9365156621336821
 50
287.7739124164435793
 51
303.3963377244814978
  0
ARC
  5
C1A7
  8
0
 10
475.6998356493741085
 20
6.5061062682235473
 30
0.0
 40
2.4357455695323211
 50
271.6380554925145248
 51
285.7576600271307825
  0
LINE
  5
C1A8
  8
0
 10
477.5150319508683197
 20
5.9416483910283944
 30
0.0
 11
477.5350927856733279
 21
5.6881626988627971
 31
0.0
  0
LINE
  5
C1A9
  8
0
 10
476.2911078384640859
 20
10.6076625721025906
 30
0.0
 11
476.2108461183332224
 21
7.664349755402295
 31
0.0
  0
ARC
  5
C1AA
  8
0
 10
476.5488755362961797
 20
7.6614636071300657
 30
0.0
 40
0.3380452817913253
 50
179.5102497775880863
 51
206.8871061622899958
  0
ARC
  5
C1AB
  8
0
 10
476.6593841849930868
 20
7.8193549454789242
 30
0.0
 40
0.5160708734420379
 50
217.026101303417903
 51
226.6069212126147931
  0
ENDSEC
  0
EOF
