  0
SECTION
  2
HEADER
  9
$ACADVER
  1
AC1009
  9
$INSBASE
 10
2713.2100902758420489
 20
113.3559511577906989
 30
0.0
  9
$EXTMIN
 10
2709.931859795156015
 20
113.3483223558963999
 30
-0.0015258207003583
  9
$EXTMAX
 10
2716.5638902917130508
 20
126.3855103246704061
 30
0.0000000349246037
  9
$LIMMIN
 10
0.0
 20
0.0
  9
$LIMMAX
 10
11.6929133858000007
 20
8.2677165353999982
  9
$ORTHOMODE
 70
     1
  9
$REGENMODE
 70
     1
  9
$FILLMODE
 70
     1
  9
$QTEXTMODE
 70
     0
  9
$MIRRTEXT
 70
     0
  9
$DRAGMODE
 70
     2
  9
$LTSCALE
 40
0.6431102362
  9
$OSMODE
 70
  4095
  9
$ATTMODE
 70
     1
  9
$TEXTSIZE
 40
0.2
  9
$TRACEWID
 40
0.05
  9
$TEXTSTYLE
  7
STANDARD
  9
$CLAYER
  8
0
  9
$CELTYPE
  6
BYLAYER
  9
$CECOLOR
 62
   256
  9
$DIMSCALE
 40
1.0
  9
$DIMASZ
 40
0.1875
  9
$DIMEXO
 40
0.0625
  9
$DIMDLI
 40
0.4443307087
  9
$DIMRND
 40
0.0
  9
$DIMDLE
 40
0.0
  9
$DIMEXE
 40
0.125
  9
$DIMTP
 40
0.01
  9
$DIMTM
 40
0.01
  9
$DIMTXT
 40
2.0
  9
$DIMCEN
 40
0.1052362205
  9
$DIMTSZ
 40
0.0
  9
$DIMTOL
 70
     1
  9
$DIMLIM
 70
     0
  9
$DIMTIH
 70
     1
  9
$DIMTOH
 70
     1
  9
$DIMSE1
 70
     0
  9
$DIMSE2
 70
     0
  9
$DIMTAD
 70
     0
  9
$DIMZIN
 70
     0
  9
$DIMBLK
  1

  9
$DIMASO
 70
     1
  9
$DIMSHO
 70
     1
  9
$DIMPOST
  1
\X
  9
$DIMAPOST
  1

  9
$DIMALT
 70
     1
  9
$DIMALTD
 70
     2
  9
$DIMALTF
 40
25.3999999999999986
  9
$DIMLFAC
 40
1.0
  9
$DIMTOFL
 70
     0
  9
$DIMTVP
 40
0.0
  9
$DIMTIX
 70
     0
  9
$DIMSOXD
 70
     0
  9
$DIMSAH
 70
     0
  9
$DIMBLK1
  1

  9
$DIMBLK2
  1

  9
$DIMSTYLE
  2
STANDARD
  9
$DIMCLRD
 70
     0
  9
$DIMCLRE
 70
     0
  9
$DIMCLRT
 70
     0
  9
$DIMTFAC
 40
1.0
  9
$DIMGAP
 40
0.09
  9
$LUNITS
 70
     2
  9
$LUPREC
 70
     4
  9
$SKETCHINC
 40
0.1
  9
$FILLETRAD
 40
0.0
  9
$AUNITS
 70
     0
  9
$AUPREC
 70
     0
  9
$MENU
  1
.
  9
$ELEVATION
 40
0.0
  9
$PELEVATION
 40
0.0
  9
$THICKNESS
 40
0.0
  9
$LIMCHECK
 70
     0
  9
$BLIPMODE
 70
     0
  9
$CHAMFERA
 40
0.0
  9
$CHAMFERB
 40
0.0
  9
$SKPOLY
 70
     0
  9
$TDCREATE
 40
2458060.468368056230247
  9
$TDUPDATE
 40
2459907.4282523151487112
  9
$TDINDWG
 40
0.6929353009
  9
$TDUSRTIMER
 40
0.6929353009
  9
$USRTIMER
 70
     1
  9
$ANGBASE
 50
0.0
  9
$ANGDIR
 70
     0
  9
$PDMODE
 70
     0
  9
$PDSIZE
 40
0.3125
  9
$PLINEWID
 40
0.0
  9
$COORDS
 70
     1
  9
$SPLFRAME
 70
     0
  9
$SPLINETYPE
 70
     6
  9
$SPLINESEGS
 70
     8
  9
$ATTDIA
 70
     1
  9
$ATTREQ
 70
     1
  9
$HANDLING
 70
     1
  9
$HANDSEED
  5
3D441
  9
$SURFTAB1
 70
     6
  9
$SURFTAB2
 70
     6
  9
$SURFTYPE
 70
     6
  9
$SURFU
 70
     6
  9
$SURFV
 70
     6
  9
$UCSNAME
  2

  9
$UCSORG
 10
0.0
 20
0.0
 30
0.0
  9
$UCSXDIR
 10
1.0
 20
0.0
 30
0.0
  9
$UCSYDIR
 10
0.0
 20
1.0
 30
0.0
  9
$PUCSNAME
  2

  9
$PUCSORG
 10
0.0
 20
0.0
 30
0.0
  9
$PUCSXDIR
 10
1.0
 20
0.0
 30
0.0
  9
$PUCSYDIR
 10
0.0
 20
1.0
 30
0.0
  9
$USERI1
 70
     0
  9
$USERI2
 70
     0
  9
$USERI3
 70
     0
  9
$USERI4
 70
     0
  9
$USERI5
 70
     0
  9
$USERR1
 40
0.0
  9
$USERR2
 40
0.0
  9
$USERR3
 40
0.0
  9
$USERR4
 40
0.0
  9
$USERR5
 40
0.0
  9
$WORLDVIEW
 70
     1
  9
$SHADEDGE
 70
     3
  9
$SHADEDIF
 70
    70
  9
$TILEMODE
 70
     1
  9
$MAXACTVP
 70
    64
  9
$PLIMCHECK
 70
     0
  9
$PEXTMIN
 10
1.0000000000000000E+20
 20
1.0000000000000000E+20
 30
1.0000000000000000E+20
  9
$PEXTMAX
 10
-1.0000000000000000E+20
 20
-1.0000000000000000E+20
 30
-1.0000000000000000E+20
  9
$PLIMMIN
 10
0.0
 20
0.0
  9
$PLIMMAX
 10
12.0
 20
9.0
  9
$UNITMODE
 70
     0
  9
$VISRETAIN
 70
     1
  9
$PLINEGEN
 70
     0
  9
$PSLTSCALE
 70
     1
  0
ENDSEC
  0
SECTION
  2
TABLES
  0
TABLE
  2
VPORT
 70
     1
  0
VPORT
  2
*ACTIVE
 70
     0
 10
0.0
 20
0.0
 11
1.0
 21
1.0
 12
-590.4452401909406944
 22
-75.3945952356042994
 13
0.0
 23
0.0
 14
1.0
 24
1.0
 15
0.0
 25
0.0
 16
0.0
 26
0.0
 36
96.5995694866707311
 17
3303.693115234375
 27
195.2615115758877096
 37
0.0
 40
13.1240060906526104
 41
2.1211111111111101
 42
50.0
 43
0.0
 44
0.0
 50
0.0
 51
0.0
 71
     0
 72
   100
 73
     1
 74
     1
 75
     0
 76
     0
 77
     0
 78
     0
  0
ENDTAB
  0
TABLE
  2
LTYPE
 70
     2
  0
LTYPE
  2
CONTINUOUS
 70
     0
  3
Solid line
 72
    65
 73
     0
 40
0.0
  0
LTYPE
  2
PHANTOM2
 70
     0
  3
___ _ _ ___ _ _ ___ _ _ ___ _ _
 72
    65
 73
     6
 40
1.25
 49
0.625
 49
-0.125
 49
0.125
 49
-0.125
 49
0.125
 49
-0.125
  0
ENDTAB
  0
TABLE
  2
LAYER
 70
     2
  0
LAYER
  2
0
 70
     0
 62
   255
  6
CONTINUOUS
  0
LAYER
  2
DEFPOINTS
 70
     0
 62
     7
  6
CONTINUOUS
  0
ENDTAB
  0
TABLE
  2
STYLE
 70
     1
  0
STYLE
  2
STANDARD
 70
     0
 40
0.0
 41
0.8
 50
0.0
 71
     0
 42
0.2
  3
txt
  4

  0
ENDTAB
  0
TABLE
  2
VIEW
 70
     0
  0
ENDTAB
  0
TABLE
  2
UCS
 70
     0
  0
ENDTAB
  0
TABLE
  2
APPID
 70
     9
  0
APPID
  2
ACAD
 70
     0
  0
APPID
  2
ACAD_MLEADERVER
 70
     0
  0
APPID
  2
ACAD_EXEMPT_FROM_CAD_STANDARDS
 70
     0
  0
APPID
  2
ACAD_NAV_VCDISPLAY
 70
     0
  0
APPID
  2
ACAECLAYERSTANDARD
 70
     0
  0
APPID
  2
ACCMTRANSPARENCY
 70
     0
  0
APPID
  2
ACAD_DSTYLE_DIMJAG
 70
     0
  0
APPID
  2
ACAD_DSTYLE_DIMTALN
 70
     0
  0
APPID
  2
ACDBATTR
 70
     0
  0
ENDTAB
  0
TABLE
  2
DIMSTYLE
 70
     1
  0
DIMSTYLE
  2
STANDARD
 70
     0
  3

  4

  5

  6

  7

 40
1.0
 41
0.1875
 42
0.0625
 43
0.38
 44
0.125
 45
0.0
 46
0.0
 47
0.01
 48
0.01
140
0.15625
141
0.09
142
0.0
143
25.3999999999999986
144
1.0
145
0.0
146
1.0
147
0.09
 71
     1
 72
     0
 73
     1
 74
     1
 75
     0
 76
     0
 77
     0
 78
     4
170
     0
171
     2
172
     0
173
     0
174
     0
175
     0
176
     0
177
     0
178
     0
  0
ENDTAB
  0
ENDSEC
  0
SECTION
  2
BLOCKS
  0
BLOCK
  8
0
  2
$MODEL_SPACE
 70
     0
 10
0.0
 20
0.0
 30
0.0
  3
$MODEL_SPACE
  1

  0
ENDBLK
  5
21
  8
0
  0
BLOCK
 67
     1
  8
0
  2
$PAPER_SPACE
 70
     0
 10
0.0
 20
0.0
 30
0.0
  3
$PAPER_SPACE
  1

  0
ENDBLK
  5
1D
 67
     1
  8
0
  0
ENDSEC
  0
SECTION
  2
ENTITIES
  0
ATTDEF
  5
3D0AE
  8
DEFPOINTS
 10
2713.2101188478382028
 20
113.3599842407630973
 30
0.0
 40
0.001
  1
K-31313
  3

  2
MODELNUMBER
 70
     0
1001
ACDBATTR
1070
     0
1070
     1
  0
ATTDEF
  5
3D0AF
  8
DEFPOINTS
 10
2713.2101188478382028
 20
113.3583175740964037
 30
0.0
 40
0.001
  1

  3

  2
TRADENAME
 70
     0
1001
ACDBATTR
1070
     0
1070
     1
  0
ATTDEF
  5
3D0B0
  8
DEFPOINTS
 10
2713.2101188478382028
 20
113.356650907429696
 30
0.0
 40
0.001
  1
STEP CAN
  3

  2
PRODUCT
 70
     0
1001
ACDBATTR
1070
     0
1070
     1
  0
LINE
  5
3D21C
  8
0
 10
2710.0970835248840558
 20
126.3849676094907011
 30
0.0
 11
2713.2100902758420489
 21
126.3849676094907011
 31
0.0
  0
LINE
  5
3D21D
  8
0
 10
2709.9623519717088129
 20
125.5803606065907019
 30
0.0
 11
2713.2100902758420489
 21
125.5803606065907019
 31
0.0
  0
LINE
  5
3D21E
  8
0
 10
2709.9623499875251582
 20
125.4622503703907057
 30
0.0
 11
2713.2100902758420489
 21
125.4622503703907057
 31
0.0
  0
LINE
  5
3D21F
  8
0
 10
2709.9577127337088314
 20
113.3953212364907017
 30
0.0
 11
2716.4624679653002204
 21
113.3953212364907017
 31
0.0
  0
LINE
  5
3D220
  8
0
 10
2709.9618365008091132
 20
113.5921716301907054
 30
0.0
 11
2716.4583447367140252
 21
113.5921716301907054
 31
0.0
  0
LINE
  5
3D221
  8
0
 10
2710.2821827292091257
 20
113.3756361970906994
 30
0.0
 11
2716.1379978224558727
 21
113.3756361970906994
 31
0.0
  0
LINE
  5
3D222
  8
0
 10
2710.8272393128090698
 20
113.3756361970906994
 30
0.0
 11
2710.8272393128090698
 21
113.3638251734906959
 31
0.0
  0
ARC
  5
3D223
  8
0
 10
2710.819365297109016
 20
113.3638251734906959
 30
0.0
 40
0.0078740156999997
 50
269.9999992723331275
 51
359.9999999999968168
  0
LINE
  5
3D224
  8
0
 10
2710.819365297109016
 20
113.3559511577906989
 30
0.0
 11
2710.7878026203029549
 21
113.3559511577906989
 31
0.0
  0
LINE
  5
3D225
  8
0
 10
2710.711955214208956
 20
113.3559511577906989
 30
0.0
 11
2710.6804591512091065
 21
113.3559511577906989
 31
0.0
  0
LINE
  5
3D226
  8
0
 10
2710.6010803670092173
 20
113.3559511577906989
 30
0.0
 11
2710.569584304008913
 21
113.3559511577906989
 31
0.0
  0
LINE
  5
3D227
  8
0
 10
2710.4902055197089794
 20
113.3559511577906989
 30
0.0
 11
2710.4587094567091299
 21
113.3559511577906989
 31
0.0
  0
LINE
  5
3D228
  8
0
 10
2710.3827954369089639
 20
113.3559511577906989
 30
0.0
 11
2710.3512993739091144
 21
113.3559511577906989
 31
0.0
  0
LINE
  5
3D229
  8
0
 10
2710.7799952183090682
 20
113.3756361970906994
 30
0.0
 11
2710.7799952183090682
 21
113.3638251734906959
 31
0.0
  0
ARC
  5
3D22A
  8
0
 10
2710.7878695181561852
 20
113.363825173459901
 30
0.0
 40
0.0078742998470842
 50
179.9999997760106965
 51
270.4867748009647244
  0
ARC
  5
3D22B
  8
0
 10
2710.2821827292282251
 20
113.3874472208095057
 30
0.0
 40
0.0118110237187978
 50
180.0000005762933029
 51
269.9999999088071263
  0
LINE
  5
3D22C
  8
0
 10
2710.2703717055092056
 20
113.3874472206907029
 30
0.0
 11
2710.2703717054300796
 21
113.3953212364907017
 31
0.0
  0
LINE
  5
3D22D
  8
0
 10
2710.3434253582090605
 20
113.3756361970906994
 30
0.0
 11
2710.3434253582090605
 21
113.3638251734906959
 31
0.0
  0
ARC
  5
3D22E
  8
0
 10
2710.3511604594318669
 20
113.3636862590134058
 30
0.0
 40
0.0077363485028588
 50
178.9711372201948052
 51
271.0288627797929166
  0
ARC
  5
3D22F
  8
0
 10
2710.3827954368898645
 20
113.3638251736098965
 30
0.0
 40
0.0078740158192452
 50
270.0000001400462111
 51
359.9999991323056179
  0
LINE
  5
3D230
  8
0
 10
2710.3906694527090622
 20
113.3638251734906959
 30
0.0
 11
2710.3906694528877779
 21
113.3756361970906994
 31
0.0
  0
LINE
  5
3D231
  8
0
 10
2710.450835441009076
 20
113.3756361970906994
 30
0.0
 11
2710.450835441009076
 21
113.3638251734906959
 31
0.0
  0
ARC
  5
3D232
  8
0
 10
2710.4587094567091299
 20
113.3638251734906959
 30
0.0
 40
0.0078740157000023
 50
180.0000000000032117
 51
269.9999999999739089
  0
LINE
  5
3D233
  8
0
 10
2710.4980795355090777
 20
113.3756361970906994
 30
0.0
 11
2710.4980795354090333
 21
113.3638251734906959
 31
0.0
  0
ARC
  5
3D234
  8
0
 10
2710.4902055196589572
 20
113.3638251735412013
 30
0.0
 40
0.0078740157504984
 50
270.0000003674550726
 51
359.9999996325457232
  0
LINE
  5
3D235
  8
0
 10
2710.5617102882088147
 20
113.3756361970906994
 30
0.0
 11
2710.5617102882088147
 21
113.3638251734906959
 31
0.0
  0
ARC
  5
3D236
  8
0
 10
2710.5695843039320607
 20
113.3638251735133053
 30
0.0
 40
0.0078740157225963
 50
180.000000164415809
 51
270.0000005632331863
  0
LINE
  5
3D237
  8
0
 10
2710.6089543827088164
 20
113.3756361970906994
 30
0.0
 11
2710.6089543827088164
 21
113.3638251734906959
 31
0.0
  0
ARC
  5
3D238
  8
0
 10
2710.6010803670092173
 20
113.3638251734906959
 30
0.0
 40
0.0078740157000001
 50
270.0
 51
0.0
  0
LINE
  5
3D239
  8
0
 10
2710.6725851355090526
 20
113.3756361970906994
 30
0.0
 11
2710.6725851355090526
 21
113.3638251734906959
 31
0.0
  0
ARC
  5
3D23A
  8
0
 10
2710.6804591512091065
 20
113.3638251734906959
 30
0.0
 40
0.0078740156999997
 50
180.0000000000032117
 51
270.0
  0
LINE
  5
3D23B
  8
0
 10
2710.7198292300090543
 20
113.3756361970906994
 30
0.0
 11
2710.7198292300090543
 21
113.3638251734906959
 31
0.0
  0
ARC
  5
3D23C
  8
0
 10
2710.7119552142730754
 20
113.3638251735263935
 30
0.0
 40
0.0078740157357378
 50
269.9999995323889834
 51
359.9999997399530116
  0
ARC
  5
3D23D
  8
0
 10
2709.9577125863847868
 20
113.4150061285664037
 30
0.0
 40
0.019684892076236
 50
179.9995711908647138
 51
270.0004288111227879
  0
LINE
  5
3D23E
  8
0
 10
2709.9380276943088575
 20
113.415006275890704
 30
0.0
 11
2709.9421582070081058
 21
113.5730018850391048
 31
0.0
  0
ARC
  5
3D23F
  8
0
 10
2709.961835814970982
 20
113.572487294848699
 30
0.0
 40
0.0196843353507442
 50
89.9982947822419845
 51
178.5019963915009953
  0
ARC
  5
3D240
  8
0
 10
2710.0510619225069604
 20
113.6808345489266969
 30
0.0
 40
0.0887076166899895
 50
180.0518277132266007
 51
268.181056395425685
  0
LINE
  5
3D241
  8
0
 10
2709.962354342108938
 20
113.6807543071998055
 30
0.0
 11
2709.9623519717088129
 21
125.3736676664907037
 31
0.0
  0
ARC
  5
3D242
  8
0
 10
2710.0507696166951064
 20
125.3738680279402047
 30
0.0
 40
0.0884178720034094
 50
91.6243402887695737
 51
180.1298365929625902
  0
ARC
  5
3D243
  8
0
 10
2709.9619415322831628
 20
125.4815250116327974
 30
0.0
 40
0.0192789686108059
 50
178.7802328340063127
 51
271.2139919489097792
  0
LINE
  5
3D244
  8
0
 10
2709.942666932308839
 20
125.4819354096907063
 30
0.0
 11
2709.942666932308839
 21
125.5606755671906996
 31
0.0
  0
ARC
  5
3D245
  8
0
 10
2709.9623519717088129
 20
125.5606755671906996
 30
0.0
 40
0.0196850394000028
 50
90.0
 51
179.9999999999951115
  0
ARC
  5
3D246
  8
0
 10
2709.9826013512829377
 20
125.6000727620991029
 30
0.0
 40
0.0197271794105219
 50
180.0787565600386984
 51
267.7637308549790873
  0
LINE
  5
3D247
  8
0
 10
2709.9628741905089555
 20
125.6000456458907024
 30
0.0
 11
2709.9804318331221111
 21
126.2691115608198942
 31
0.0
  0
ARC
  5
3D248
  8
0
 10
2710.1025797634001719
 20
126.2627792016700994
 30
0.0
 40
0.1223119603454811
 50
92.5755236629840965
 51
177.0323447625582958
  0
LINE
  5
3D24A
  8
0
 10
2716.3230970268009514
 20
126.3849676094907011
 30
0.0
 11
2713.2100902758420489
 21
126.3849676094907011
 31
0.0
  0
LINE
  5
3D24B
  8
0
 10
2716.4578285799748301
 20
125.5803606065907019
 30
0.0
 11
2713.2100902758420489
 21
125.5803606065907019
 31
0.0
  0
LINE
  5
3D24C
  8
0
 10
2716.457830564159849
 20
125.4622503703907057
 30
0.0
 11
2713.2100902758420489
 21
125.4622503703907057
 31
0.0
  0
LINE
  5
3D24D
  8
0
 10
2715.5929412388750279
 20
113.3756361970906994
 30
0.0
 11
2715.5929412388750279
 21
113.3638251734906959
 31
0.0
  0
ARC
  5
3D24E
  8
0
 10
2715.6008152545750818
 20
113.3638251734906959
 30
0.0
 40
0.0078740156999997
 50
180.0000000000032117
 51
270.0000007276668725
  0
LINE
  5
3D24F
  8
0
 10
2715.6008152545750818
 20
113.3559511577906989
 30
0.0
 11
2715.6323779313820523
 21
113.3559511577906989
 31
0.0
  0
LINE
  5
3D250
  8
0
 10
2715.7082253374760512
 20
113.3559511577906989
 30
0.0
 11
2715.7397214004749912
 21
113.3559511577906989
 31
0.0
  0
LINE
  5
3D251
  8
0
 10
2715.8191001846748804
 20
113.3559511577906989
 30
0.0
 11
2715.8505962476751847
 21
113.3559511577906989
 31
0.0
  0
LINE
  5
3D252
  8
0
 10
2715.9299750319751183
 20
113.3559511577906989
 30
0.0
 11
2715.9614710949749679
 21
113.3559511577906989
 31
0.0
  0
LINE
  5
3D253
  8
0
 10
2716.0373851147760433
 20
113.3559511577906989
 30
0.0
 11
2716.0688811777749834
 21
113.3559511577906989
 31
0.0
  0
LINE
  5
3D254
  8
0
 10
2715.6401853333750296
 20
113.3756361970906994
 30
0.0
 11
2715.6401853333750296
 21
113.3638251734906959
 31
0.0
  0
ARC
  5
3D255
  8
0
 10
2715.6323110335279125
 20
113.363825173459901
 30
0.0
 40
0.0078742998470842
 50
269.5132251990352756
 51
0.0000002239892149
  0
ARC
  5
3D256
  8
0
 10
2716.1379978224558727
 20
113.3874472208095057
 30
0.0
 40
0.0118110237187978
 50
270.0000000911928737
 51
359.9999994237066971
  0
LINE
  5
3D257
  8
0
 10
2716.1498088461748921
 20
113.3874472206907029
 30
0.0
 11
2716.1498088462549276
 21
113.3953212364907017
 31
0.0
  0
LINE
  5
3D258
  8
0
 10
2716.0767551934750372
 20
113.3756361970906994
 30
0.0
 11
2716.0767551934750372
 21
113.3638251734906959
 31
0.0
  0
ARC
  5
3D259
  8
0
 10
2716.0690200922531403
 20
113.3636862590134058
 30
0.0
 40
0.0077363485028588
 50
268.9711372202070834
 51
1.0288627798051631
  0
ARC
  5
3D25A
  8
0
 10
2716.0373851147937785
 20
113.3638251736098965
 30
0.0
 40
0.0078740158192452
 50
180.0000008676944105
 51
269.9999998599537889
  0
LINE
  5
3D25B
  8
0
 10
2716.0295110989750356
 20
113.3638251734906959
 30
0.0
 11
2716.0295110987958651
 21
113.3756361970906994
 31
0.0
  0
LINE
  5
3D25C
  8
0
 10
2715.9693451106750217
 20
113.3756361970906994
 30
0.0
 11
2715.9693451106750217
 21
113.3638251734906959
 31
0.0
  0
ARC
  5
3D25D
  8
0
 10
2715.9614710949749679
 20
113.3638251734906959
 30
0.0
 40
0.0078740157000023
 50
270.0000000000259774
 51
359.9999999999968168
  0
LINE
  5
3D25E
  8
0
 10
2715.92210101617502
 20
113.3756361970906994
 30
0.0
 11
2715.9221010162750645
 21
113.3638251734906959
 31
0.0
  0
ARC
  5
3D25F
  8
0
 10
2715.92997503202605
 20
113.3638251735412013
 30
0.0
 40
0.0078740157504984
 50
180.0000003674535094
 51
269.9999996325449274
  0
LINE
  5
3D260
  8
0
 10
2715.8584702634761925
 20
113.3756361970906994
 30
0.0
 11
2715.8584702634761925
 21
113.3638251734906959
 31
0.0
  0
ARC
  5
3D261
  8
0
 10
2715.8505962477529465
 20
113.3638251735133053
 30
0.0
 40
0.0078740157225963
 50
269.9999994367668137
 51
359.9999998355841058
  0
LINE
  5
3D262
  8
0
 10
2715.8112261689748266
 20
113.3756361970906994
 30
0.0
 11
2715.8112261689748266
 21
113.3638251734906959
 31
0.0
  0
ARC
  5
3D263
  8
0
 10
2715.8191001846748804
 20
113.3638251734906959
 30
0.0
 40
0.0078740157000001
 50
180.0
 51
270.0
  0
LINE
  5
3D264
  8
0
 10
2715.7475954161750451
 20
113.3756361970906994
 30
0.0
 11
2715.7475954161750451
 21
113.3638251734906959
 31
0.0
  0
ARC
  5
3D265
  8
0
 10
2715.7397214004749912
 20
113.3638251734906959
 30
0.0
 40
0.0078740156999997
 50
270.0
 51
359.9999999999968168
  0
LINE
  5
3D266
  8
0
 10
2715.7003513216750434
 20
113.3756361970906994
 30
0.0
 11
2715.7003513216750434
 21
113.3638251734906959
 31
0.0
  0
ARC
  5
3D267
  8
0
 10
2715.7082253374110223
 20
113.3638251735263935
 30
0.0
 40
0.0078740157357378
 50
180.0000002600469884
 51
270.0000004676109029
  0
ARC
  5
3D268
  8
0
 10
2716.4624679653002204
 20
113.4150061285664037
 30
0.0
 40
0.019684892076236
 50
269.9995711888770984
 51
0.0004288091353163
  0
LINE
  5
3D269
  8
0
 10
2716.4821528573761498
 20
113.415006275890704
 30
0.0
 11
2716.4780223446769014
 21
113.5730018850391048
 31
0.0
  0
ARC
  5
3D26A
  8
0
 10
2716.4583447367140252
 20
113.572487294848699
 30
0.0
 40
0.0196843353507442
 50
1.4980036084990329
 51
90.0017052177580155
  0
ARC
  5
3D26B
  8
0
 10
2716.3691186291771373
 20
113.6808345489266969
 30
0.0
 40
0.0887076166899895
 50
271.818943604574315
 51
359.9481722867733993
  0
LINE
  5
3D26C
  8
0
 10
2716.4578262095751597
 20
113.6807543071998055
 30
0.0
 11
2716.4578285799748301
 21
125.3736676664907037
 31
0.0
  0
ARC
  5
3D26D
  8
0
 10
2716.3694109349889914
 20
125.3738680279402047
 30
0.0
 40
0.0884178720034094
 50
359.870163407036614
 51
88.3756597112304121
  0
ARC
  5
3D26E
  8
0
 10
2716.4582390194018444
 20
125.4815250116327974
 30
0.0
 40
0.0192789686108059
 50
268.7860080510902208
 51
1.219767165993688
  0
LINE
  5
3D26F
  8
0
 10
2716.4775136193761682
 20
125.4819354096907063
 30
0.0
 11
2716.4775136193761682
 21
125.5606755671906996
 31
0.0
  0
ARC
  5
3D270
  8
0
 10
2716.4578285799748301
 20
125.5606755671906996
 30
0.0
 40
0.0196850394000028
 50
0.0000000000048853
 51
90.0
  0
ARC
  5
3D271
  8
0
 10
2716.4375792004011601
 20
125.6000727620991029
 30
0.0
 40
0.0197271794105219
 50
272.2362691450209127
 51
359.921243439961188
  0
LINE
  5
3D272
  8
0
 10
2716.4573063611751422
 20
125.6000456458907024
 30
0.0
 11
2716.4397487185619866
 21
126.2691115608198942
 31
0.0
  0
ARC
  5
3D273
  8
0
 10
2716.3176007882839258
 20
126.2627792016700994
 30
0.0
 40
0.1223119603454811
 50
2.967655237441706
 51
87.4244763370159177
  0
ENDSEC
  0
EOF
