  0
SECTION
  2
HEADER
  9
$ACADVER
  1
AC1009
  9
$INSBASE
 10
467.6789110300612151
 20
87.8776586374005717
 30
0.0
  9
$EXTMIN
 10
446.9882907701040722
 20
87.2507968355589441
 30
-0.0000000000000058
  9
$EXTMAX
 10
467.6964818257692968
 20
92.98923668369099
 30
0.0000000000000104
  9
$LIMMIN
 10
0.0
 20
0.0
  9
$LIMMAX
 10
11.6929133858000007
 20
8.2677165353999982
  9
$ORTHOMODE
 70
     0
  9
$REGENMODE
 70
     1
  9
$FILLMODE
 70
     1
  9
$QTEXTMODE
 70
     0
  9
$MIRRTEXT
 70
     0
  9
$DRAGMODE
 70
     2
  9
$LTSCALE
 40
0.6431102362
  9
$OSMODE
 70
   575
  9
$ATTMODE
 70
     1
  9
$TEXTSIZE
 40
0.2
  9
$TRACEWID
 40
0.05
  9
$TEXTSTYLE
  7
STANDARD
  9
$CLAYER
  8
0
  9
$CELTYPE
  6
BYLAYER
  9
$CECOLOR
 62
   256
  9
$DIMSCALE
 40
1.0
  9
$DIMASZ
 40
0.1875
  9
$DIMEXO
 40
0.0625
  9
$DIMDLI
 40
0.4443307087
  9
$DIMRND
 40
0.0
  9
$DIMDLE
 40
0.0
  9
$DIMEXE
 40
0.125
  9
$DIMTP
 40
0.01
  9
$DIMTM
 40
0.01
  9
$DIMTXT
 40
1.0
  9
$DIMCEN
 40
0.1052362205
  9
$DIMTSZ
 40
0.0
  9
$DIMTOL
 70
     1
  9
$DIMLIM
 70
     0
  9
$DIMTIH
 70
     0
  9
$DIMTOH
 70
     1
  9
$DIMSE1
 70
     0
  9
$DIMSE2
 70
     0
  9
$DIMTAD
 70
     0
  9
$DIMZIN
 70
     0
  9
$DIMBLK
  1

  9
$DIMASO
 70
     1
  9
$DIMSHO
 70
     1
  9
$DIMPOST
  1
\X
  9
$DIMAPOST
  1

  9
$DIMALT
 70
     1
  9
$DIMALTD
 70
     2
  9
$DIMALTF
 40
25.3999999999999986
  9
$DIMLFAC
 40
1.0
  9
$DIMTOFL
 70
     0
  9
$DIMTVP
 40
0.0
  9
$DIMTIX
 70
     0
  9
$DIMSOXD
 70
     0
  9
$DIMSAH
 70
     0
  9
$DIMBLK1
  1

  9
$DIMBLK2
  1

  9
$DIMSTYLE
  2
STANDARD
  9
$DIMCLRD
 70
     0
  9
$DIMCLRE
 70
     0
  9
$DIMCLRT
 70
     0
  9
$DIMTFAC
 40
1.0
  9
$DIMGAP
 40
0.09
  9
$LUNITS
 70
     2
  9
$LUPREC
 70
     4
  9
$SKETCHINC
 40
0.1
  9
$FILLETRAD
 40
0.0
  9
$AUNITS
 70
     0
  9
$AUPREC
 70
     0
  9
$MENU
  1
.
  9
$ELEVATION
 40
0.0
  9
$PELEVATION
 40
0.0
  9
$THICKNESS
 40
0.0
  9
$LIMCHECK
 70
     0
  9
$BLIPMODE
 70
     0
  9
$CHAMFERA
 40
0.0
  9
$CHAMFERB
 40
0.0
  9
$SKPOLY
 70
     0
  9
$TDCREATE
 40
2458172.5207638889551163
  9
$TDUPDATE
 40
2459401.0740972221828997
  9
$TDINDWG
 40
0.3038896065
  9
$TDUSRTIMER
 40
0.3038896065
  9
$USRTIMER
 70
     1
  9
$ANGBASE
 50
0.0
  9
$ANGDIR
 70
     0
  9
$PDMODE
 70
     0
  9
$PDSIZE
 40
0.3125
  9
$PLINEWID
 40
0.0
  9
$COORDS
 70
     2
  9
$SPLFRAME
 70
     0
  9
$SPLINETYPE
 70
     6
  9
$SPLINESEGS
 70
     8
  9
$ATTDIA
 70
     1
  9
$ATTREQ
 70
     1
  9
$HANDLING
 70
     1
  9
$HANDSEED
  5
CC69
  9
$SURFTAB1
 70
     6
  9
$SURFTAB2
 70
     6
  9
$SURFTYPE
 70
     6
  9
$SURFU
 70
     6
  9
$SURFV
 70
     6
  9
$UCSNAME
  2

  9
$UCSORG
 10
0.0
 20
0.0
 30
0.0
  9
$UCSXDIR
 10
1.0
 20
0.0
 30
0.0
  9
$UCSYDIR
 10
0.0
 20
1.0
 30
0.0
  9
$PUCSNAME
  2

  9
$PUCSORG
 10
0.0
 20
0.0
 30
0.0
  9
$PUCSXDIR
 10
1.0
 20
0.0
 30
0.0
  9
$PUCSYDIR
 10
0.0
 20
1.0
 30
0.0
  9
$USERI1
 70
     0
  9
$USERI2
 70
     0
  9
$USERI3
 70
     0
  9
$USERI4
 70
     0
  9
$USERI5
 70
     0
  9
$USERR1
 40
0.0
  9
$USERR2
 40
0.0
  9
$USERR3
 40
0.0
  9
$USERR4
 40
0.0
  9
$USERR5
 40
0.0
  9
$WORLDVIEW
 70
     1
  9
$SHADEDGE
 70
     3
  9
$SHADEDIF
 70
    70
  9
$TILEMODE
 70
     1
  9
$MAXACTVP
 70
    64
  9
$PLIMCHECK
 70
     0
  9
$PEXTMIN
 10
1.0000000000000000E+20
 20
1.0000000000000000E+20
 30
1.0000000000000000E+20
  9
$PEXTMAX
 10
-1.0000000000000000E+20
 20
-1.0000000000000000E+20
 30
-1.0000000000000000E+20
  9
$PLIMMIN
 10
0.0
 20
0.0
  9
$PLIMMAX
 10
12.0
 20
9.0
  9
$UNITMODE
 70
     0
  9
$VISRETAIN
 70
     1
  9
$PLINEGEN
 70
     0
  9
$PSLTSCALE
 70
     1
  0
ENDSEC
  0
SECTION
  2
TABLES
  0
TABLE
  2
VPORT
 70
     1
  0
VPORT
  2
*ACTIVE
 70
     0
 10
0.0
 20
0.0
 11
1.0
 21
1.0
 12
-44.2995994616904625
 22
-4.8143384182248319
 13
0.0
 23
0.0
 14
1.0
 24
1.0
 15
0.0
 25
0.0
 16
0.0
 26
0.0
 36
25.7967328817476016
 17
503.5405462211870145
 27
93.8464159794164061
 37
0.0
 40
14.5058556461527406
 41
2.3500000000000001
 42
50.0
 43
0.0
 44
0.0
 50
0.0
 51
0.0
 71
     0
 72
   100
 73
     1
 74
     1
 75
     0
 76
     0
 77
     0
 78
     0
  0
ENDTAB
  0
TABLE
  2
LTYPE
 70
     2
  0
LTYPE
  2
CONTINUOUS
 70
     0
  3
Solid line
 72
    65
 73
     0
 40
0.0
  0
LTYPE
  2
PHANTOM2
 70
     0
  3
___ _ _ ___ _ _ ___ _ _ ___ _ _
 72
    65
 73
     6
 40
1.25
 49
0.625
 49
-0.125
 49
0.125
 49
-0.125
 49
0.125
 49
-0.125
  0
ENDTAB
  0
TABLE
  2
LAYER
 70
     2
  0
LAYER
  2
0
 70
     0
 62
   255
  6
CONTINUOUS
  0
LAYER
  2
DEFPOINTS
 70
     0
 62
     7
  6
CONTINUOUS
  0
ENDTAB
  0
TABLE
  2
STYLE
 70
     1
  0
STYLE
  2
STANDARD
 70
     0
 40
0.0
 41
0.8
 50
0.0
 71
     0
 42
0.2
  3
txt
  4

  0
ENDTAB
  0
TABLE
  2
VIEW
 70
     3
  0
ENDTAB
  0
TABLE
  2
UCS
 70
     0
  0
ENDTAB
  0
TABLE
  2
APPID
 70
    10
  0
APPID
  2
ACAD
 70
     0
  0
APPID
  2
ACAD_MLEADERVER
 70
     0
  0
APPID
  2
ACAD_EXEMPT_FROM_CAD_STANDARDS
 70
     0
  0
APPID
  2
ACAD_DSTYLE_DIMJAG
 70
     0
  0
APPID
  2
ACAD_DSTYLE_DIMTALN
 70
     0
  0
APPID
  2
ACAD_NAV_VCDISPLAY
 70
     0
  0
APPID
  2
ACAECLAYERSTANDARD
 70
     0
  0
APPID
  2
ACCMTRANSPARENCY
 70
     0
  0
APPID
  2
DCO15
 70
     0
  0
APPID
  2
ACDBATTR
 70
     0
  0
ENDTAB
  0
TABLE
  2
DIMSTYLE
 70
     1
  0
DIMSTYLE
  2
STANDARD
 70
     0
  3

  4

  5

  6

  7

 40
1.0
 41
0.1875
 42
0.0625
 43
0.38
 44
0.125
 45
0.0
 46
0.0
 47
0.01
 48
0.01
140
0.15625
141
0.09
142
0.0
143
25.3999999999999986
144
1.0
145
0.0
146
1.0
147
0.09
 71
     1
 72
     0
 73
     1
 74
     1
 75
     0
 76
     0
 77
     0
 78
     4
170
     0
171
     2
172
     0
173
     0
174
     0
175
     0
176
     0
177
     0
178
     0
  0
ENDTAB
  0
ENDSEC
  0
SECTION
  2
BLOCKS
  0
BLOCK
  8
0
  2
$MODEL_SPACE
 70
     0
 10
0.0
 20
0.0
 30
0.0
  3
$MODEL_SPACE
  1

  0
ENDBLK
  5
21
  8
0
  0
BLOCK
 67
     1
  8
0
  2
$PAPER_SPACE
 70
     0
 10
0.0
 20
0.0
 30
0.0
  3
$PAPER_SPACE
  1

  0
ENDBLK
  5
1D
 67
     1
  8
0
  0
BLOCK
  8
0
  2
_FILLED
 70
     0
 10
0.0
 20
0.0
 30
0.0
  3
_FILLED
  1

  0
SOLID
  5
8C29
  8
0
  6
BYBLOCK
 62
     0
 10
0.0
 20
0.0
 30
0.0
 11
-1.0
 21
0.1666666667
 31
0.0
 12
-1.0
 22
-0.1666666667
 32
0.0
 13
-1.0
 23
-0.1666666667
 33
0.0
  0
ENDBLK
  5
8C2A
  8
0
  6
BYBLOCK
 62
     0
  0
ENDSEC
  0
SECTION
  2
ENTITIES
  0
ATTDEF
  5
AF70
  8
DEFPOINTS
 10
467.6788219984309762
 20
87.8811386400102776
 30
0.0
 40
0.001
  1
K-31322T
  3

  2
MODELNUMBER
 70
     0
1001
ACDBATTR
1070
     0
1070
     1
  0
ATTDEF
  5
AF71
  8
DEFPOINTS
 10
467.6788219984309762
 20
87.8794719733436125
 30
0.0
 40
0.001
  1
C3-150
  3

  2
TRADENAME
 70
     0
1001
ACDBATTR
1070
     0
1070
     1
  0
ATTDEF
  5
AF72
  8
DEFPOINTS
 10
467.6788219984309762
 20
87.8778053066769331
 30
0.0
 40
0.001
  1
TOILET SEAT
  3

  2
PRODUCT
 70
     0
1001
ACDBATTR
1070
     0
1070
     1
  0
ARC
  5
CA49
  8
0
 10
447.7627791691431867
 20
132.7830829671540869
 30
0.0
 40
43.2231584964953797
 50
269.7952394433814902
 51
272.5512132871642166
  0
ARC
  5
CA4A
  8
0
 10
448.7295903466534241
 20
111.0855843816064947
 30
0.0
 40
21.5041306932410698
 50
272.5510905960712194
 51
281.2581917821850084
  0
ARC
  5
CA4B
  8
0
 10
446.7204455809790034
 20
118.7484123586961005
 30
0.0
 40
29.4155789452827996
 50
282.1823975329058953
 51
288.7573098401010157
  0
ARC
  5
CA4C
  8
0
 10
265.8513287379960275
 20
664.9405423420355419
 30
0.0
 40
604.7750762379797607
 50
288.3432312156188004
 51
288.5680221952796956
  0
ARC
  5
CA4D
  8
0
 10
465.9100382038369048
 20
70.1505287539634139
 30
0.0
 40
22.7599843859480018
 50
103.412438561583798
 51
109.1866854367732032
  0
ARC
  5
CA4E
  8
0
 10
466.4488824003425975
 20
67.1329558265879598
 30
0.0
 40
25.8208429693650388
 50
97.1582345387619171
 51
103.0223267556539071
  0
ARC
  5
CA4F
  8
0
 10
467.1118247525541847
 20
63.8264368448677075
 30
0.0
 40
29.1852341939677693
 50
92.5366601483607241
 51
97.6406907916098135
  0
ARC
  5
CA50
  8
0
 10
466.1306050099576055
 20
81.321178353728385
 30
0.0
 40
11.6660265418692202
 50
90.6985027569581774
 51
91.5250426555404033
  0
ARC
  5
CA51
  8
0
 10
466.2071973464200028
 20
75.0388835919781769
 30
0.0
 40
17.9487881846119208
 50
89.8028006351784853
 51
90.6985027569581774
  0
ARC
  5
CA52
  8
0
 10
466.7047445514405126
 20
219.9875519460134967
 30
0.0
 40
127.000734101877697
 50
269.8034033308143194
 51
270.1905980100224269
  0
ARC
  5
CA53
  8
0
 10
467.1273673705439933
 20
92.9511444668633686
 30
0.0
 40
0.0363763727359003
 50
32.0029835485912599
 51
90.2326052916960606
  0
LINE
  5
CA54
  8
0
 10
467.1582152803636063
 20
92.9704226139005669
 30
0.0
 11
467.426592149063481
 21
92.5132388042005687
 31
0.0
  0
ARC
  5
CA55
  8
0
 10
467.3077446988447718
 20
92.4613571283980065
 30
0.0
 40
0.1296781581747239
 50
358.1927520160555787
 51
23.5831982137368286
  0
ARC
  5
CA56
  8
0
 10
-57454.6015455274609849
 20
-1437.6043178398219879
 30
0.0
 40
57942.2443406995007535
 50
1.5089401733465859
 51
1.513166496449168
  0
LINE
  5
CA57
  8
0
 10
462.7747248392532242
 20
88.1847452515005585
 30
0.0
 11
457.8213627209635774
 21
88.1847452515005585
 31
0.0
  0
ARC
  5
CA58
  8
0
 10
457.8213627209635774
 20
88.1336957361465068
 30
0.0
 40
0.0510495153540549
 50
90.0
 51
150.1566185259426902
  0
ARC
  5
CA59
  8
0
 10
465.1619730648750988
 20
84.3581242080320948
 30
0.0
 40
8.3056616683993241
 50
152.7652890800611942
 51
153.5000134786990884
  0
ARC
  5
CA5A
  8
0
 10
447.6063861808992215
 20
89.4276816811933202
 30
0.0
 40
0.1325203292035064
 50
89.448725332753682
 51
132.2113565661275913
  0
ARC
  5
CA5B
  8
0
 10
-2964.415500736370177
 20
4260.2510529713217693
 30
0.0
 40
5388.528056575224582
 50
309.2796250530091129
 51
309.2854675143922236
  0
ARC
  5
CA5C
  8
0
 10
447.2117361379544036
 20
89.0477350365327425
 30
0.0
 40
0.1768625343639301
 50
132.5909426642080859
 51
180.1224908030540064
  0
LINE
  5
CA5D
  8
0
 10
447.0348740077636194
 20
89.0473569281005553
 30
0.0
 11
447.0175403257812832
 21
88.4047018716917705
 31
0.0
  0
ARC
  5
CA5E
  8
0
 10
447.1072067970185913
 20
88.4002985197646751
 30
0.0
 40
0.0897745263893635
 50
177.1885679074906079
 51
189.0735025306811963
  0
ARC
  5
CA5F
  8
0
 10
447.0413954566848247
 20
88.3893410505004766
 30
0.0
 40
0.0230629176541287
 50
187.9758208123934935
 51
225.7311944680839986
  0
ARC
  5
CA60
  8
0
 10
447.0395676087090919
 20
88.3913416257453264
 30
0.0
 40
0.0233766588527879
 50
232.3767889305987069
 51
258.4672570080879268
  0
ARC
  5
CA61
  8
0
 10
447.0502319222995879
 20
88.4690450241346156
 30
0.0
 40
0.1017705367728287
 50
261.3318559875611982
 51
269.3970871296543805
  0
ARC
  5
CA62
  8
0
 10
447.9141666431410158
 20
124.492095673624803
 30
0.0
 40
36.1368820988969972
 50
271.4806959288300732
 51
274.1304805566043115
  0
ARC
  5
CA63
  8
0
 10
447.9542969224482931
 20
122.7266701056183962
 30
0.0
 40
34.3732619703365998
 50
274.275722033374393
 51
282.8139325131563169
  0
ARC
  5
CA64
  8
0
 10
395.7395239090395194
 20
361.9095142770789835
 30
0.0
 40
279.1879987515847006
 50
282.3762027564260961
 51
284.4114953097832768
  0
ARC
  5
CA65
  8
0
 10
461.4932437165530814
 20
106.9525788371339985
 30
0.0
 40
15.8903309798285104
 50
283.5824859226414105
 51
285.8903394837378755
  0
ARC
  5
CA66
  8
0
 10
465.554669170662919
 20
92.7584261292255263
 30
0.0
 40
1.126742108921964
 50
284.87779904563331
 51
306.2903284158032875
  0
ARC
  5
CA67
  8
0
 10
465.8103222440274749
 20
92.3568231726643205
 30
0.0
 40
0.652490979500181
 50
309.0694029443329782
 51
332.5413582719714896
  0
ARC
  5
CA68
  8
0
 10
465.5348276312863049
 20
92.4999839333166989
 30
0.0
 40
0.9629620490703258
 50
332.5413582719714896
 51
348.8329827146960156
  0
ARC
  5
CA69
  8
0
 10
466.3511031513098146
 20
92.338845289798968
 30
0.0
 40
0.1309335717786518
 50
348.8329827146945945
 51
22.0128529261004218
  0
ARC
  5
CA6A
  8
0
 10
405.7986628656053085
 20
64.3499716008405471
 30
0.0
 40
66.8389116474151876
 50
24.8021047123929215
 51
25.3436218701340401
  0
ARC
  5
CA6B
  8
0
 10
466.1672661086125231
 20
92.9483571199123588
 30
0.0
 40
0.0393214529207866
 50
17.3823529357015794
 51
87.1971583694542147
  0
LINE
  5
CA6C
  8
0
 10
447.3528181546357132
 20
88.3664447956849131
 30
0.0
 11
447.3482604658635751
 21
88.2327084635005718
 31
0.0
  0
ARC
  5
CA6D
  8
0
 10
447.3683589716627012
 20
88.232180655634167
 30
0.0
 40
0.0201054349991218
 50
178.4956984141244902
 51
268.4635997982812228
  0
LINE
  5
CA6E
  8
0
 10
447.3678199041635821
 20
88.212082448680917
 30
0.0
 11
451.5016482637706758
 21
88.212082448680917
 31
0.0
  0
ARC
  5
CA6F
  8
0
 10
451.4360690502542752
 20
151.5889562642940973
 30
0.0
 40
63.3769077446462816
 50
270.0592867806657864
 51
271.9280474982980991
  0
ARC
  5
CA70
  8
0
 10
452.2625028308958122
 20
126.8612269163074018
 30
0.0
 40
38.6353731771504272
 50
271.9369222346467723
 51
275.4986229833514244
  0
ARC
  5
CA71
  8
0
 10
454.3107823837145816
 20
105.5836703838908051
 30
0.0
 40
17.2594553929549903
 50
275.4986229833514244
 51
285.1672499910304737
  0
ARC
  5
CA72
  8
0
 10
442.7261316918716716
 20
141.9520962452018011
 30
0.0
 40
55.417051479823229
 50
286.8897496469774069
 51
290.8769960767421026
  0
ARC
  5
CA73
  8
0
 10
160.5851232956894989
 20
888.3983638124692561
 30
0.0
 40
853.4052773892399273
 50
290.7166727704736218
 51
290.7957725903791015
  0
ARC
  5
CA74
  8
0
 10
463.2760248025705891
 20
91.250045580559572
 30
0.0
 40
0.7244211512161312
 50
294.4981322244474882
 51
311.606487874768618
  0
ARC
  5
CA75
  8
0
 10
462.7704393124384978
 20
91.7970935175852958
 30
0.0
 40
1.4692501567454621
 50
312.183338134284611
 51
324.4544275535453153
  0
ARC
  5
CA76
  8
0
 10
463.4273702674419155
 20
91.3392738169063421
 30
0.0
 40
0.6686485256309079
 50
323.6488847838941183
 51
349.390150870008199
  0
LINE
  5
CA77
  8
0
 10
447.4065329913697155
 20
88.212082448680917
 30
0.0
 11
447.4080861410935768
 21
88.152771351908541
 31
0.0
  0
ARC
  5
CA78
  8
0
 10
447.4278023028663824
 20
88.1532876490751534
 30
0.0
 40
0.0197229206208656
 50
181.5000328179426106
 51
270.1585837442772231
  0
LINE
  5
CA79
  8
0
 10
447.4278568920635735
 20
88.133564804000585
 30
0.0
 11
451.4597932573635717
 21
88.1335948520005843
 31
0.0
  0
ARC
  5
CA7A
  8
0
 10
451.5227277218854169
 20
146.9547716963888888
 30
0.0
 40
58.8212105120732218
 50
269.9386976252354771
 51
271.9994048597811229
  0
ARC
  5
CA7B
  8
0
 10
452.168745585496481
 20
128.4497295077316892
 30
0.0
 40
40.3048953958280833
 50
271.9994048597811229
 51
274.9001256764249774
  0
ARC
  5
CA7C
  8
0
 10
454.3751651255990964
 20
105.1218778915568066
 30
0.0
 40
16.8750880261332483
 50
274.2016602503675813
 51
280.9970753143105071
  0
ARC
  5
CA7D
  8
0
 10
454.7338185073620025
 20
103.7066370265862929
 30
0.0
 40
15.4176376023437207
 50
280.691978646186783
 51
288.6243524457626108
  0
ARC
  5
CA7E
  8
0
 10
433.839529610328384
 20
167.0162770298302064
 30
0.0
 40
82.0858377884095347
 50
288.3321776731056048
 51
291.2040153226703865
  0
ARC
  5
CA7F
  8
0
 10
463.2895417753003926
 20
91.2221346982402963
 30
0.0
 40
0.7724586686247755
 50
288.0705186107406917
 51
306.5097722704650778
  0
ARC
  5
CA80
  8
0
 10
462.9116136928070091
 20
91.676437701358708
 30
0.0
 40
1.3628702467024321
 50
307.9169964083295099
 51
325.9234487744699891
  0
ARC
  5
CA81
  8
0
 10
463.412433924468985
 20
91.3444433499184925
 30
0.0
 40
0.7620502865535163
 50
325.5007398511555721
 51
351.8908317214182944
  0
ARC
  5
CA82
  8
0
 10
463.4340813206454186
 20
91.3267480502646265
 30
0.0
 40
0.8884919143220479
 50
339.1285734736238737
 51
356.7251794998257992
  0
ARC
  5
CA83
  8
0
 10
463.2166912300486956
 20
91.4096370558938531
 30
0.0
 40
1.121148396595574
 50
322.0080321326781245
 51
339.1285734736238737
  0
ARC
  5
CA84
  8
0
 10
463.3773279819097866
 20
91.2841701317036751
 30
0.0
 40
0.9173197550501837
 50
294.2142629423564131
 51
322.0080321326781245
  0
ARC
  5
CA85
  8
0
 10
429.687157441566228
 20
177.7201688080538986
 30
0.0
 40
93.6857985343343387
 50
289.9243733405044736
 51
291.3229287797050802
  0
ARC
  5
CA86
  8
0
 10
421.3732820963172117
 20
203.3070247910114858
 30
0.0
 40
120.5776898953258041
 50
287.5205264658843021
 51
289.4951689709886864
  0
ARC
  5
CA87
  8
0
 10
457.6822574782058268
 20
88.2723452714435979
 30
0.0
 40
0.0515484431067889
 50
100.4716633814248041
 51
150.5200400431903915
  0
ARC
  5
CA88
  8
0
 10
457.6979273519439175
 20
88.2698377429996128
 30
0.0
 40
0.0666531879691665
 50
155.2779239132310067
 51
178.6050356879703997
  0
LINE
  5
CA89
  8
0
 10
457.6312939177636281
 20
88.2714603692005682
 30
0.0
 11
457.6087108167396877
 21
88.048982894838673
 31
0.0
  0
ARC
  5
CA8A
  8
0
 10
458.2193310848081751
 20
88.0211758589449573
 30
0.0
 40
0.6112530924427143
 50
177.392608949701895
 51
188.8221245851985941
  0
ARC
  5
CA8B
  8
0
 10
457.9560300975562086
 20
87.9886903792460089
 30
0.0
 40
0.3461839932032353
 50
190.1927574537403132
 51
196.3488558659774981
  0
ARC
  5
CA8C
  8
0
 10
457.674490264391693
 20
87.9074270875992312
 30
0.0
 40
0.0531688613331794
 50
197.7194887345204108
 51
206.9540042620263023
  0
ARC
  5
CA8D
  8
0
 10
457.6368200767070107
 20
87.8882712444746943
 30
0.0
 40
0.0109078939281666
 50
206.9540042620118072
 51
234.0993734533757049
  0
ARC
  5
CA8E
  8
0
 10
457.6359190451848917
 20
87.887026546901879
 30
0.0
 40
0.0093712970871739
 50
234.0993734533593909
 51
268.458128055232919
  0
LINE
  5
CA8F
  8
0
 10
457.6356668870636213
 20
87.8776586429005562
 30
0.0
 11
467.1513519749566967
 21
87.8776586374005717
 31
0.0
  0
ARC
  5
CA90
  8
0
 10
467.1513519749635748
 20
87.8894696610005752
 30
0.0
 40
0.0118110236000078
 50
269.9999999668415853
 51
334.6649417692507882
  0
ARC
  5
CA91
  8
0
 10
467.1513519749618126
 20
87.8894696610013852
 30
0.0
 40
0.011811023601916
 50
334.6649417692507882
 51
0.0003274413609393
  0
LINE
  5
CA92
  8
0
 10
467.1631629985636209
 20
87.8894697285005719
 30
0.0
 11
467.1631614460829951
 21
88.1611232042961319
 31
0.0
  0
ARC
  5
CA93
  8
0
 10
467.1513503548681001
 20
88.1611231367965757
 30
0.0
 40
0.0118110912151021
 50
0.0003274413772238
 51
89.9921408912003358
  0
LINE
  5
CA94
  8
0
 10
467.1513519749638021
 20
88.172934227900555
 30
0.0
 11
466.4177492994153909
 21
88.1729342246820949
 31
0.0
  0
ARC
  5
CA95
  8
0
 10
457.6230901210503248
 20
88.0467001323838332
 30
0.0
 40
0.0149870597320508
 50
110.6060232719015062
 51
160.1251688355216913
  0
ARC
  5
CA96
  8
0
 10
457.6343609344307879
 20
88.0167241879486681
 30
0.0
 40
0.0470118700990123
 50
91.8955267120935559
 51
110.6060232719015062
  0
ARC
  5
CA97
  8
0
 10
457.6666256181371182
 20
87.0418206412715847
 30
0.0
 40
1.022449174664632
 50
91.0321022624893033
 51
91.8955267120902732
  0
LINE
  5
CA98
  8
0
 10
457.6482086414309265
 20
88.0641039335841356
 30
0.0
 11
457.7289501701636141
 21
88.0640905323005683
 31
0.0
  0
ARC
  5
CA99
  8
0
 10
457.8296924613667898
 20
88.1349047815001683
 30
0.0
 40
0.0522176905215848
 50
110.8927617194568001
 51
129.8204876125886926
  0
ARC
  5
CA9A
  8
0
 10
457.8223466708857927
 20
88.1453493737817837
 30
0.0
 40
0.0395054096620538
 50
131.3385571287660127
 51
169.6978559231976078
  0
LINE
  5
CA9B
  8
0
 10
457.7834781537595177
 20
88.1524144830499239
 30
0.0
 11
457.7723087681634979
 21
88.0418929728005679
 31
0.0
  0
LINE
  5
CA9C
  8
0
 10
457.7723087681634979
 20
88.0418929728005679
 30
0.0
 11
462.7772192490878069
 21
88.0418406083553577
 31
0.0
  0
LINE
  5
CA9D
  8
0
 10
463.3916263209060276
 20
88.0418341800514952
 30
0.0
 11
466.3522298252635778
 21
88.0418032044005656
 31
0.0
  0
ARC
  5
CA9E
  8
0
 10
466.461790743258689
 20
73.1663060072937697
 30
0.0
 40
14.8759006603258808
 50
90.2467040559376272
 51
90.4219868830936662
  0
ARC
  5
CA9F
  8
0
 10
466.3976885779326267
 20
88.0536203613007018
 30
0.0
 40
0.0115516993836355
 50
270.2467040559441216
 51
295.4911934169393817
  0
ARC
  5
CAA0
  8
0
 10
466.3890150614093955
 20
88.0676218612368444
 30
0.0
 40
0.02798118454057
 50
299.1862959079222151
 51
343.7801396822471816
  0
ARC
  5
CAA1
  8
0
 10
466.3830317320304744
 20
88.0710406594580206
 30
0.0
 40
0.0347187278379248
 50
341.119862133753486
 51
359.5643278516640748
  0
LINE
  5
CAA2
  8
0
 10
466.4177494561636195
 20
88.070776663800558
 30
0.0
 11
466.4177492993636065
 21
88.1847452515005585
 31
0.0
  0
LINE
  5
CAA3
  8
0
 10
467.0706433135634938
 20
87.8776586374005717
 30
0.0
 11
467.0706433135634938
 21
87.8382885586005671
 31
0.0
  0
LINE
  5
CAA4
  8
0
 10
467.0706433135634938
 20
87.8382885586005671
 30
0.0
 11
466.8147378017636129
 21
87.8382885586005671
 31
0.0
  0
LINE
  5
CAA5
  8
0
 10
466.8147378017636129
 20
87.8382885586005671
 30
0.0
 11
466.8147378017636129
 21
87.8776586374005717
 31
0.0
  0
LINE
  5
CAA6
  8
0
 10
466.0765488253636022
 20
87.8776586380217992
 30
0.0
 11
466.0765488253636022
 21
87.8382885586005671
 31
0.0
  0
LINE
  5
CAA7
  8
0
 10
466.0765488253636022
 20
87.8382885586005671
 30
0.0
 11
464.1080448883636222
 21
87.8382885586005671
 31
0.0
  0
LINE
  5
CAA8
  8
0
 10
464.1080448883636222
 20
87.8382885586005671
 30
0.0
 11
464.1080448883636222
 21
87.8776586374005717
 31
0.0
  0
LINE
  5
CAA9
  8
0
 10
461.2930842584635798
 20
87.8776586374005717
 30
0.0
 11
461.2930842584635798
 21
87.3697846216006724
 31
0.0
  0
ARC
  5
CAAA
  8
0
 10
461.3052732875930815
 20
87.3699411966175745
 30
0.0
 40
0.0121900347356153
 50
180.7359564215385035
 51
268.2230080179782021
  0
LINE
  5
CAAB
  8
0
 10
461.3048952820636259
 20
87.3577570241518373
 30
0.0
 11
461.3206433135636075
 21
87.3577570241518373
 31
0.0
  0
ARC
  5
CAAC
  8
0
 10
461.3202653080346067
 20
87.369941196617134
 30
0.0
 40
0.0121900347351625
 50
271.7769919799819718
 51
359.2640435800598766
  0
LINE
  5
CAAD
  8
0
 10
461.3324543371635968
 20
87.3697846216005587
 30
0.0
 11
461.3324543371531945
 21
87.8776586374005717
 31
0.0
  0
ARC
  5
CAAE
  8
0
 10
463.1628685130961003
 20
87.8560489360550037
 30
0.0
 40
0.0216136999943357
 50
91.1021390673035256
 51
128.2166789839425007
  0
ARC
  5
CAAF
  8
0
 10
102.0428275172536985
 20
517.5647783924165424
 30
0.0
 40
561.2780286545762465
 50
309.9789323218648747
 51
310.0432033304505808
  0
ARC
  5
CAB0
  8
0
 10
462.6098723631737926
 20
87.5260638911668991
 30
0.0
 40
0.0814780183933442
 50
270.3911246580735224
 51
314.7832498502032763
  0
LINE
  5
CAB1
  8
0
 10
462.6104285614636069
 20
87.4445877712005739
 30
0.0
 11
462.151262096263622
 21
87.4445877712005739
 31
0.0
  0
LINE
  5
CAB2
  8
0
 10
462.4545015812635143
 20
87.8776586374005717
 30
0.0
 11
462.2063965480327283
 21
87.523327928700553
 31
0.0
  0
LINE
  5
CAB3
  8
0
 10
462.2063965480327283
 20
87.523327928700553
 30
0.0
 11
462.151262096263622
 21
87.4445877712005739
 31
0.0
  0
ARC
  5
CAB4
  8
0
 10
460.9148263491460966
 20
88.3103494007102228
 30
0.0
 40
1.5094093400668891
 50
322.7058019702150773
 51
325.0000000352583243
  0
ARC
  5
CAB5
  8
0
 10
461.8117941399635811
 20
87.646173662300555
 30
0.0
 40
0.3937007873999834
 50
287.4999999007001747
 51
320.5070297555949992
  0
ARC
  5
CAB6
  8
0
 10
461.8422742762119242
 20
87.8182881942722275
 30
0.0
 40
0.5666669055297314
 50
253.0573047309704862
 51
266.858461363481922
  0
ARC
  5
CAB7
  8
0
 10
461.8042634628938004
 20
87.6953297275726555
 30
0.0
 40
0.4429114774186423
 50
270.8998670381340048
 51
286.5168830523862766
  0
LINE
  5
CAB8
  8
0
 10
461.6771389807263972
 20
87.2762165052793364
 30
0.0
 11
461.3650917361636061
 21
87.3897924139005653
 31
0.0
  0
LINE
  5
CAB9
  8
0
 10
461.3650917361636061
 20
87.3897924139005653
 30
0.0
 11
461.3324543371635968
 21
87.4016714557005656
 31
0.0
  0
LINE
  5
CABA
  8
0
 10
461.3521393765636276
 20
87.8765065338005655
 30
0.0
 11
461.3521393765636276
 21
87.408290300300564
 31
0.0
  0
ARC
  5
CABB
  8
0
 10
461.3718244159636015
 20
87.408290300300564
 30
0.0
 40
0.0196850394000023
 50
180.0000000000057128
 51
231.7479543957580859
  0
ARC
  5
CABC
  8
0
 10
461.3742191010354077
 20
87.4113277207765265
 30
0.0
 40
0.0235529121669004
 50
231.7479543957580859
 51
242.6296713646291039
  0
LINE
  5
CABD
  8
0
 10
461.9734539622635907
 20
87.8776586374005717
 30
0.0
 11
461.9734539622635907
 21
87.7804064259005656
 31
0.0
  0
LINE
  5
CABE
  8
0
 10
461.9734539622635907
 20
87.7804064259005656
 30
0.0
 11
461.9974738427636112
 21
87.6726138411005707
 31
0.0
  0
LINE
  5
CABF
  8
0
 10
461.9974738427636112
 20
87.6726138411005707
 30
0.0
 11
462.0801964629634995
 21
87.7027224126005649
 31
0.0
  0
LINE
  5
CAC0
  8
0
 10
462.0801964629634995
 20
87.7027224126005649
 30
0.0
 11
462.0801964630646808
 21
87.8776586403316742
 31
0.0
  0
LINE
  5
CAC1
  8
0
 10
462.0561765824635927
 20
87.8776586374005717
 30
0.0
 11
462.0561765824635927
 21
87.8105149974005741
 31
0.0
  0
LINE
  5
CAC2
  8
0
 10
462.0561765824635927
 20
87.8105149974005741
 30
0.0
 11
461.9734539622635907
 21
87.7804064259005656
 31
0.0
  0
LINE
  5
CAC3
  8
0
 10
462.0561765824635927
 20
87.8105149974005741
 30
0.0
 11
462.0801964629634995
 21
87.7027224126005649
 31
0.0
  0
LINE
  5
CAC4
  8
0
 10
462.1748655592635942
 20
87.877658640276934
 30
0.0
 11
462.1748655592635942
 21
87.8537142521005592
 31
0.0
  0
LINE
  5
CAC5
  8
0
 10
462.1748655592635942
 20
87.8537142521005592
 30
0.0
 11
462.1988854397636146
 21
87.7459216673005642
 31
0.0
  0
LINE
  5
CAC6
  8
0
 10
462.1988854397636146
 20
87.7459216673005642
 30
0.0
 11
462.2816080599636166
 21
87.7760302387005709
 31
0.0
  0
LINE
  5
CAC7
  8
0
 10
462.2816080599636166
 20
87.7760302387005709
 30
0.0
 11
462.2816080599636166
 21
87.8776586402152446
 31
0.0
  0
LINE
  5
CAC8
  8
0
 10
462.2589617706335048
 20
87.8776586402283328
 30
0.0
 11
462.2816080599636166
 21
87.7760302387005709
 31
0.0
  0
LINE
  5
CAC9
  8
0
 10
462.1748655592635942
 20
87.8537142521005592
 30
0.0
 11
462.2388100630220151
 21
87.8776586374005717
 31
0.0
  0
LINE
  5
CACA
  8
0
 10
462.7789710299634862
 20
87.9414811496005768
 30
0.0
 11
463.389895852263578
 21
87.9420119532005629
 31
0.0
  0
LINE
  5
CACB
  8
0
 10
463.389895852263578
 20
87.9420119532005629
 30
0.0
 11
463.3946018880636188
 21
88.2123043067005455
 31
0.0
  0
ARC
  5
CACC
  8
0
 10
4192.1266618894969724
 20
23.2916865543116209
 30
0.0
 40
3729.2971806885921069
 50
178.9974708888682926
 51
179.0025291309860904
  0
ARC
  5
CACD
  8
0
 10
463.3803261590203988
 20
88.5075254728244971
 30
0.0
 40
0.0394245393530248
 50
1.07766482445783
 51
89.9222733747321143
  0
LINE
  5
CACE
  8
0
 10
463.4197437249509903
 20
88.5082669573563265
 30
0.0
 11
463.4253894803634921
 21
88.1847452515005585
 31
0.0
  0
LINE
  5
CACF
  8
0
 10
463.3803796212636144
 20
88.5469499759005743
 30
0.0
 11
462.7884846008636259
 21
88.5469499759005743
 31
0.0
  0
ARC
  5
CAD0
  8
0
 10
462.7884846008636259
 20
88.5076974945927333
 30
0.0
 40
0.0392524813078143
 50
90.0
 51
153.4237319337227063
  0
ARC
  5
CAD1
  8
0
 10
462.7897351764752898
 20
88.5070719007228348
 30
0.0
 40
0.0406508042500392
 50
153.4237319337227063
 51
178.3135945967235045
  0
LINE
  5
CAD2
  8
0
 10
462.7491019791934832
 20
88.5082682137376082
 30
0.0
 11
462.7434548648582791
 21
88.1847452515005585
 31
0.0
  0
LINE
  5
CAD3
  8
0
 10
462.7684980094635989
 20
88.5414800898005581
 30
0.0
 11
462.7789710299634862
 21
87.9414811496005768
 31
0.0
  0
LINE
  5
CAD4
  8
0
 10
462.8169253206916096
 20
88.5174224169005583
 30
0.0
 11
463.3519328664635282
 21
88.5174219864005636
 31
0.0
  0
ARC
  5
CAD5
  8
0
 10
463.3519328506249053
 20
88.4977383017500046
 30
0.0
 40
0.019683684650573
 50
1.0233959565340811
 51
89.9999538962882468
  0
LINE
  5
CAD6
  8
0
 10
463.3716133954392831
 20
88.4980898657280477
 30
0.0
 11
463.3793489448707987
 21
88.0544870075363235
 31
0.0
  0
ARC
  5
CAD7
  8
0
 10
463.3596667853623785
 20
88.0548239942512367
 30
0.0
 40
0.0196850445802565
 50
317.1088178624689817
 51
358.9999914067527129
  0
ARC
  5
CAD8
  8
0
 10
463.3594802914951174
 20
88.0549972415689695
 30
0.0
 40
0.0199395924061263
 50
275.1758397832952028
 51
317.108817862463809
  0
ARC
  5
CAD9
  8
0
 10
462.8169089035063735
 20
88.4977421735290761
 30
0.0
 40
0.0196802502190681
 50
89.9522040862768648
 51
178.9786062283878039
  0
LINE
  5
CADA
  8
0
 10
462.7972317803044007
 20
88.498092988554518
 30
0.0
 11
462.7894968888211906
 21
88.0551676830613417
 31
0.0
  0
ARC
  5
CADB
  8
0
 10
462.809178515426197
 20
88.0548237684456865
 30
0.0
 40
0.0196846311390438
 50
178.9989216177525861
 51
231.8592486426678931
  0
ARC
  5
CADC
  8
0
 10
462.8098602513214814
 20
88.055691946069544
 30
0.0
 40
0.0207884863005035
 50
231.8592486426597077
 51
261.3677184929147757
  0
LINE
  5
CADD
  8
0
 10
462.7773362270635857
 20
88.0351389523005707
 30
0.0
 11
463.3915102180636154
 21
88.0351389523005707
 31
0.0
  0
LINE
  5
CADE
  8
0
 10
462.7697769468634874
 20
88.4682098185005543
 30
0.0
 11
462.7967099246445741
 21
88.4682098185005543
 31
0.0
  0
LINE
  5
CADF
  8
0
 10
462.7708077577635777
 20
88.4091547004005633
 30
0.0
 11
462.7956786335345214
 21
88.4091547004005633
 31
0.0
  0
ARC
  5
CAE0
  8
0
 10
462.9484647429745223
 20
88.5080417916699957
 30
0.0
 40
0.0390442735636578
 50
94.7851683906671525
 51
166.0984573171039926
  0
LINE
  5
CAE1
  8
0
 10
463.2199768912636273
 20
88.5469499759005743
 30
0.0
 11
463.2199768912636273
 21
88.5174224169005583
 31
0.0
  0
ARC
  5
CAE2
  8
0
 10
463.1878984524631164
 20
88.5093061777006369
 30
0.0
 40
0.0390134356843548
 50
34.690259788695549
 51
74.7730765748650441
  0
LINE
  5
CAE3
  8
0
 10
457.2562778627257103
 20
88.4945574433994295
 30
0.0
 11
457.2027863837092809
 21
87.9720924150190768
 31
0.0
  0
ARC
  5
CAE4
  8
0
 10
457.1645573689139042
 20
87.9758621158637766
 30
0.0
 40
0.0384144271945106
 50
313.7538954526440875
 51
354.3683627529720752
  0
ARC
  5
CAE5
  8
0
 10
457.162580288198285
 20
87.9779271202444164
 30
0.0
 40
0.0412732890744285
 50
283.6733283270747279
 51
313.7538954526401085
  0
ARC
  5
CAE6
  8
0
 10
457.1613447457813209
 20
87.9916370874404237
 30
0.0
 40
0.0549246799063382
 50
269.5985843523337735
 51
281.5444419286180278
  0
LINE
  5
CAE7
  8
0
 10
457.1609599452639827
 20
87.9367137555005627
 30
0.0
 11
454.9112103994635845
 21
87.9367137555005627
 31
0.0
  0
ARC
  5
CAE8
  8
0
 10
454.925245545290295
 20
88.1172385710152355
 30
0.0
 40
0.1810768516730926
 50
232.3115524621537986
 51
265.5249245709629804
  0
ARC
  5
CAE9
  8
0
 10
461.3176392527573739
 20
96.3914770053828533
 30
0.0
 40
10.6369708344959104
 50
230.2507150158151035
 51
232.3115524621537986
  0
ARC
  5
CAEA
  8
0
 10
444.7295411601987212
 20
83.8899378406731131
 30
0.0
 40
6.0967105693384456
 50
40.9264938661154929
 51
44.1112630529981402
  0
ARC
  5
CAEB
  8
0
 10
449.350268543265372
 20
87.8974290618308203
 30
0.0
 40
0.0197704818049063
 50
223.4458584284076039
 51
269.8619650273677166
  0
LINE
  5
CAEC
  8
0
 10
449.3502209129636071
 20
87.8776586374005717
 30
0.0
 11
450.675439600063612
 21
87.8776586374005717
 31
0.0
  0
ARC
  5
CAED
  8
0
 10
450.6752962636037978
 20
87.8976517231159278
 30
0.0
 40
0.0199935995199155
 50
270.410763681634819
 51
315.8935501121611082
  0
ARC
  5
CAEE
  8
0
 10
448.5972901854693191
 20
90.1770477102175079
 30
0.0
 40
3.1043933041028331
 50
312.3765763663903954
 51
318.8337040402128082
  0
ARC
  5
CAEF
  8
0
 10
466.2614095844089093
 20
93.2279164829884763
 30
0.0
 40
0.9400899425299272
 50
279.2866315038684206
 51
283.4178112559487772
  0
ARC
  5
CAF0
  8
0
 10
471.9232032212735248
 20
60.8732829055898179
 30
0.0
 40
31.9062519674551304
 50
99.9446180733943947
 51
101.5743859078349942
  0
ARC
  5
CAF1
  8
0
 10
523.3806672741924331
 20
-186.3272855320450105
 30
0.0
 40
284.4055936195613867
 50
101.7381233764961053
 51
102.3979732442892043
  0
ARC
  5
CAF2
  8
0
 10
493.512785217578994
 20
-45.7928252358867169
 30
0.0
 40
140.7393205258233877
 50
102.8056925464393032
 51
104.4103318842406054
  0
ARC
  5
CAF3
  8
0
 10
447.032837261378404
 20
131.5351588551498878
 30
0.0
 40
42.5860724054247513
 50
273.9226201714657805
 51
285.603746829087072
  0
ARC
  5
CAF4
  8
0
 10
448.47012467316722
 20
128.6258690412867054
 30
0.0
 40
39.6045316042078568
 50
267.9231515944429134
 51
272.1358062568262994
  0
ARC
  5
CAF5
  8
0
 10
465.615736956699493
 20
92.921183894459503
 30
0.0
 40
1.4751053682352411
 50
254.0558492240566011
 51
264.8877426803019262
  0
ARC
  5
CAF6
  8
0
 10
465.5961259549944771
 20
92.7019765743501836
 30
0.0
 40
1.25502256432412
 50
264.8877426803019262
 51
289.5326592958671199
  0
ARC
  5
CAF7
  8
0
 10
465.6939460326526046
 20
92.3598558118413422
 30
0.0
 40
0.9001586003593457
 50
290.9455584734728859
 51
358.377529882012027
  0
ARC
  5
CAF8
  8
0
 10
466.3892166247754858
 20
92.3351171289959751
 30
0.0
 40
0.204528491958443
 50
359.7904290596176224
 51
15.9791522600319809
  0
LINE
  5
CAF9
  8
0
 10
466.5858425297636245
 20
92.3914212808005573
 30
0.0
 11
466.2756288629635719
 21
92.9702114268005033
 31
0.0
  0
ARC
  5
CAFA
  8
0
 10
466.243991436773797
 20
92.9570099020630778
 30
0.0
 40
0.034281292239794
 50
22.6495846841457507
 51
63.1509224090977526
  0
LINE
  5
CAFB
  8
0
 10
461.4709126891170854
 20
89.7207956963246573
 30
0.0
 11
461.4402563568247047
 21
89.5809641272340542
 31
0.0
  0
ARC
  5
CAFC
  8
0
 10
482.8830335689632989
 20
16.0171575853232717
 30
0.0
 40
76.6811059991235879
 50
106.2278590440640045
 51
107.6308472176348943
  0
ARC
  5
CAFD
  8
0
 10
464.3755103599403924
 20
89.7625718782343256
 30
0.0
 40
0.1301126298812171
 50
140.3807772498169868
 51
180.3471041044527965
  0
ARC
  5
CAFE
  8
0
 10
464.3639488037600245
 20
89.7721429646745435
 30
0.0
 40
0.1151034567874546
 50
113.5512691042695934
 51
140.3807772498169868
  0
ARC
  5
CAFF
  8
0
 10
464.3652332388707009
 20
89.7691961797766851
 30
0.0
 40
0.1183180041564685
 50
90.8502316751823571
 51
113.5512691042695934
  0
LINE
  5
CB00
  8
0
 10
464.3634775419636185
 20
89.8875011570005711
 30
0.0
 11
466.1662257984913253
 21
89.8875011570005711
 31
0.0
  0
ARC
  5
CB01
  8
0
 10
466.1625737191566827
 20
89.8141198903532256
 30
0.0
 40
0.073472089790846
 50
31.82283009147665
 51
87.1508228894077064
  0
ARC
  5
CB02
  8
0
 10
466.0656169867150993
 20
89.753950670716776
 30
0.0
 40
0.1875814362853397
 50
2.3927836675230281
 51
31.82283009147665
  0
LINE
  5
CB03
  8
0
 10
466.2530348700635727
 20
89.7617821610005677
 30
0.0
 11
466.284271141930617
 21
88.6869786985313766
 31
0.0
  0
ARC
  5
CB04
  8
0
 10
466.1163748782773837
 20
88.6792540734743824
 30
0.0
 40
0.1680753597186708
 50
329.0541780035721899
 51
2.663816994354729
  0
ARC
  5
CB05
  8
0
 10
466.193128850305925
 20
88.6332343584966083
 30
0.0
 40
0.0785824192775796
 50
299.8120119124263283
 51
329.054178003573611
  0
ARC
  5
CB06
  8
0
 10
466.2011272614872723
 20
88.6192751321170249
 30
0.0
 40
0.0624940824293365
 50
271.0966045122185051
 51
299.8120119124263283
  0
LINE
  5
CB07
  8
0
 10
466.2023232851635726
 20
88.5567924956005612
 30
0.0
 11
464.3700922308635768
 21
88.5567924974005649
 31
0.0
  0
ARC
  5
CB08
  8
0
 10
464.370145699789191
 20
88.6687385181831047
 30
0.0
 40
0.1119460335517647
 50
245.7940996450016939
 51
269.9726337432969103
  0
ARC
  5
CB09
  8
0
 10
464.3776495044901935
 20
88.685430643243663
 30
0.0
 40
0.1302472390865825
 50
216.0766008785128918
 51
245.7940996450016939
  0
ARC
  5
CB0A
  8
0
 10
464.3769941016270195
 20
88.6849531251236698
 30
0.0
 40
0.129436328198742
 50
189.3748220713115984
 51
216.0766008785128918
  0
ARC
  5
CB0B
  8
0
 10
464.4013164274895757
 20
88.6889686797851766
 30
0.0
 40
0.154087904509428
 50
180.7400626493497953
 51
189.3748220713115984
  0
LINE
  5
CB0C
  8
0
 10
464.2472413765635793
 20
88.6869784541005686
 30
0.0
 11
464.24540613676362
 21
89.7617815824005589
 31
0.0
  0
ARC
  5
CB0D
  8
0
 10
466.0958823164818909
 20
89.8143394855768378
 30
0.0
 40
0.0732847748072127
 50
35.4717198259180932
 51
86.6785588739551116
  0
ARC
  5
CB0E
  8
0
 10
466.054609055894673
 20
89.7616793287942443
 30
0.0
 40
0.1387546760076725
 50
0.0422396888713727
 51
43.315256303916577
  0
LINE
  5
CB0F
  8
0
 10
466.1933636941960799
 20
89.7617816217355937
 30
0.0
 11
466.2247157754634941
 21
88.6869784864005624
 31
0.0
  0
ARC
  5
CB10
  8
0
 10
466.0734913999249898
 20
88.681255924395785
 30
0.0
 40
0.1513331293955068
 50
330.6881131648826795
 51
2.1892455414452239
  0
ARC
  5
CB11
  8
0
 10
466.100046125283086
 20
88.6663468625923059
 30
0.0
 40
0.1208793354988076
 50
310.3684590152216742
 51
330.6881131648826795
  0
ARC
  5
CB12
  8
0
 10
466.1246199940688939
 20
88.6374404391835355
 30
0.0
 40
0.0829391675841969
 50
283.4988405237485267
 51
310.3684590152258238
  0
ARC
  5
CB13
  8
0
 10
464.4327317634683254
 20
89.6577690668490561
 30
0.0
 40
0.0373569883855842
 50
92.0738046627131297
 51
183.1282999059199881
  0
LINE
  5
CB14
  8
0
 10
464.4313799329635799
 20
89.6951015880005684
 30
0.0
 11
466.0277923649636023
 21
89.6951022161005653
 31
0.0
  0
ARC
  5
CB15
  8
0
 10
466.0256510870793818
 20
89.669903751197964
 30
0.0
 40
0.0252892804252206
 50
36.8973189128807135
 51
85.1428726763343633
  0
ARC
  5
CB16
  8
0
 10
466.0082171579142027
 20
89.656815262566127
 30
0.0
 40
0.047089519433077
 50
358.683390394692708
 51
36.8973189128807135
  0
LINE
  5
CB17
  8
0
 10
466.0552942452634966
 20
89.6557332796005539
 30
0.0
 11
466.056704897928114
 21
89.5743669111885481
 31
0.0
  0
LINE
  5
CB18
  8
0
 10
466.056704897928114
 20
89.5743669111885481
 30
0.0
 11
464.3968911024635986
 21
89.5746930031005633
 31
0.0
  0
LINE
  5
CB19
  8
0
 10
464.3968911024635986
 20
89.5746930031005633
 30
0.0
 11
464.3954304430636171
 21
89.6557304209005537
 31
0.0
  0
LINE
  5
CB1A
  8
0
 10
464.3970704916636123
 20
89.5651803906005455
 30
0.0
 11
466.0568845797635049
 21
89.5652009915005607
 31
0.0
  0
LINE
  5
CB1B
  8
0
 10
466.0568845797635049
 20
89.5652009915005607
 30
0.0
 11
466.0604463895336949
 21
89.36177467066004
 31
0.0
  0
LINE
  5
CB1C
  8
0
 10
466.0604463895336949
 20
89.36177467066004
 30
0.0
 11
464.4007502336635866
 21
89.3620911280005714
 31
0.0
  0
LINE
  5
CB1D
  8
0
 10
464.4007502336635866
 20
89.3620911280005714
 30
0.0
 11
464.3970704916636123
 21
89.5651803906005455
 31
0.0
  0
ARC
  5
CB1E
  8
0
 10
464.3492663189385894
 20
89.5197606266394672
 30
0.0
 40
0.0659426594847979
 50
28.8390737995761199
 51
43.5333478082818317
  0
ARC
  5
CB1F
  8
0
 10
464.397085985173419
 20
89.5460921941124894
 30
0.0
 40
0.0113526244564875
 50
354.3828265496418908
 51
28.839073799577541
  0
LINE
  5
CB20
  8
0
 10
464.4083840955356095
 20
89.5449809856289249
 30
0.0
 11
464.411147601063476
 21
89.3923577179005662
 31
0.0
  0
ARC
  5
CB21
  8
0
 10
464.3709308399170936
 20
89.391164132898723
 30
0.0
 40
0.0402344693300094
 50
344.1935050046577089
 51
1.699970671723714
  0
LINE
  5
CB22
  8
0
 10
464.4096439281635753
 20
89.3802046931005663
 30
0.0
 11
464.4007519991453137
 21
89.3620939908536087
 31
0.0
  0
LINE
  5
CB23
  8
0
 10
464.4087405229229262
 20
89.5252961643005705
 30
0.0
 11
465.2119445015778751
 21
89.5252967038007341
 31
0.0
  0
LINE
  5
CB24
  8
0
 10
465.2119445015778751
 20
89.5252967038007341
 30
0.0
 11
465.2508107831636153
 21
89.4246909718005583
 31
0.0
  0
ARC
  5
CB25
  8
0
 10
465.3326784920898262
 20
89.4563183290558612
 30
0.0
 40
0.0877645229679102
 50
201.1226800521810105
 51
217.6511733403181097
  0
ARC
  5
CB26
  8
0
 10
465.2882493322362052
 20
89.422040011201716
 30
0.0
 40
0.0316489875057612
 50
217.6511733403116011
 51
238.881826738172208
  0
ARC
  5
CB27
  8
0
 10
465.2775085610172141
 20
89.4042475933348157
 30
0.0
 40
0.0108659583730574
 50
238.8818267381608962
 51
269.6607524051564724
  0
ARC
  5
CB28
  8
0
 10
465.2774786076125224
 20
89.3991887995655645
 30
0.0
 40
0.0058070759266974
 50
269.6607524051433984
 51
323.0097769403811867
  0
ARC
  5
CB29
  8
0
 10
465.2704633969739234
 20
89.4044732633707042
 30
0.0
 40
0.0145899420881845
 50
323.009776940375275
 51
344.4283733245557073
  0
ARC
  5
CB2A
  8
0
 10
465.2224727319402859
 20
89.411514422422897
 30
0.0
 40
0.0630052791842304
 50
349.9843271832771165
 51
4.6732451004364153
  0
LINE
  5
CB2B
  8
0
 10
465.2830201187636021
 20
89.5449815743002517
 30
0.0
 11
465.2852685526099776
 21
89.4166476583910281
 31
0.0
  0
ARC
  5
CB2C
  8
0
 10
465.273624636936006
 20
89.5230083666444756
 30
0.0
 40
0.0238976344740625
 50
66.8490251294847866
 51
102.1714159314281005
  0
ARC
  5
CB2D
  8
0
 10
465.2509893805993215
 20
89.6465725391854278
 30
0.0
 40
0.1017370761341427
 50
273.0709934364472247
 51
279.9601374775213003
  0
LINE
  5
CB2E
  8
0
 10
465.2564397701635812
 20
89.5449815656005654
 30
0.0
 11
464.4083840955356095
 21
89.5449809856288823
 31
0.0
  0
LINE
  5
CB2F
  8
0
 10
465.2833650008636255
 20
89.5252967286005656
 30
0.0
 11
465.986300011263495
 21
89.5252966447005605
 31
0.0
  0
LINE
  5
CB30
  8
0
 10
465.986300011263495
 20
89.5252966447005605
 30
0.0
 11
466.03035534966358
 21
89.4112589897005705
 31
0.0
  0
ARC
  5
CB31
  8
0
 10
466.1408210314572216
 20
89.4539343936537961
 30
0.0
 40
0.118422366792332
 50
201.1226798681396133
 51
218.3954036384153881
  0
ARC
  5
CB32
  8
0
 10
465.9793065997166082
 20
89.3210040077648841
 30
0.0
 40
0.0908070065825202
 50
26.6783545955294414
 51
40.8374116611647509
  0
LINE
  5
CB33
  8
0
 10
465.2830201187636021
 20
89.5449815743002517
 30
0.0
 11
466.028493235663575
 21
89.5449848446005632
 31
0.0
  0
ARC
  5
CB34
  8
0
 10
466.0254228465634014
 20
89.5743699316967934
 30
0.0
 40
0.0295450610572989
 50
275.9650760967045926
 51
312.3463367427427215
  0
ARC
  5
CB35
  8
0
 10
466.0097534557602899
 20
89.5966030254542858
 30
0.0
 40
0.0566341821361919
 50
308.9092024937122005
 51
326.3256865259921256
  0
LINE
  5
CB36
  8
0
 10
464.4009218229817861
 20
89.3525786160475093
 30
0.0
 11
466.0607359110819061
 21
89.3525992169475103
 31
0.0
  0
LINE
  5
CB37
  8
0
 10
466.0607359110819061
 20
89.3525992169475103
 30
0.0
 11
466.0642977208519824
 21
89.1491728961069754
 31
0.0
  0
LINE
  5
CB38
  8
0
 10
466.0642977208519824
 20
89.1491728961069754
 30
0.0
 11
464.4046015649818173
 21
89.1494893534475068
 31
0.0
  0
LINE
  5
CB39
  8
0
 10
464.4046015649818173
 20
89.1494893534475068
 30
0.0
 11
464.4009218229817861
 21
89.3525786160475093
 31
0.0
  0
ARC
  5
CB3A
  8
0
 10
464.3531176502568769
 20
89.3071588520864168
 30
0.0
 40
0.0659426594847979
 50
28.8390737995761199
 51
43.5333478082818317
  0
ARC
  5
CB3B
  8
0
 10
464.4009373164917065
 20
89.333490419559439
 30
0.0
 40
0.0113526244564875
 50
354.3828265496418908
 51
28.8390737995782516
  0
LINE
  5
CB3C
  8
0
 10
464.412235426853897
 20
89.3323792110758603
 30
0.0
 11
464.4149989323818204
 21
89.1797559433475158
 31
0.0
  0
ARC
  5
CB3D
  8
0
 10
464.3747821712353812
 20
89.1785623583456868
 30
0.0
 40
0.0402344693300094
 50
344.1935050046577089
 51
1.699970671723714
  0
LINE
  5
CB3E
  8
0
 10
464.4134952594819197
 20
89.1676029185475159
 30
0.0
 11
464.4046033304634875
 21
89.1494922163005583
 31
0.0
  0
LINE
  5
CB3F
  8
0
 10
464.4125918542412137
 20
89.3126943897475059
 30
0.0
 11
465.2157958328962195
 21
89.3126949292476837
 31
0.0
  0
LINE
  5
CB40
  8
0
 10
465.2157958328962195
 20
89.3126949292476837
 30
0.0
 11
465.2546621144819028
 21
89.2120891972475079
 31
0.0
  0
ARC
  5
CB41
  8
0
 10
465.3365298234080001
 20
89.2437165545028108
 30
0.0
 40
0.0877645229679102
 50
201.1226800521810105
 51
217.6511733403181097
  0
ARC
  5
CB42
  8
0
 10
465.2921006635544927
 20
89.2094382366486656
 30
0.0
 40
0.0316489875057612
 50
217.6511733403116011
 51
238.881826738172208
  0
ARC
  5
CB43
  8
0
 10
465.2813598923355016
 20
89.1916458187817653
 30
0.0
 40
0.0108659583730574
 50
238.8818267381608962
 51
269.6607524051564724
  0
ARC
  5
CB44
  8
0
 10
465.2813299389306962
 20
89.1865870250125141
 30
0.0
 40
0.0058070759266974
 50
269.6607524051433984
 51
323.0097769403811867
  0
ARC
  5
CB45
  8
0
 10
465.2743147282920972
 20
89.1918714888176396
 30
0.0
 40
0.0145899420881845
 50
323.009776940375275
 51
344.4283733245557073
  0
ARC
  5
CB46
  8
0
 10
465.2263240632585735
 20
89.1989126478698324
 30
0.0
 40
0.0630052791842304
 50
349.9843271832771165
 51
4.6732451004364153
  0
LINE
  5
CB47
  8
0
 10
465.2868714500818896
 20
89.3323797997472013
 30
0.0
 11
465.289119883928322
 21
89.2040458838379777
 31
0.0
  0
ARC
  5
CB48
  8
0
 10
465.2774759682541799
 20
89.3104065920914252
 30
0.0
 40
0.0238976344740625
 50
66.8490251294847866
 51
102.1714159314281005
  0
ARC
  5
CB49
  8
0
 10
465.254840711917609
 20
89.4339707646323774
 30
0.0
 40
0.1017370761341427
 50
273.0709934364472247
 51
279.9601374775213003
  0
LINE
  5
CB4A
  8
0
 10
465.2602911014819256
 20
89.332379791047515
 30
0.0
 11
464.412235426853897
 21
89.3323792110758035
 31
0.0
  0
LINE
  5
CB4B
  8
0
 10
465.287216332181913
 20
89.3126949540475152
 30
0.0
 11
465.9901513425817825
 21
89.3126948701474959
 31
0.0
  0
LINE
  5
CB4C
  8
0
 10
465.9901513425817825
 20
89.3126948701474959
 30
0.0
 11
466.0342066809818107
 21
89.1986572151475059
 31
0.0
  0
ARC
  5
CB4D
  8
0
 10
466.1446723627753954
 20
89.2413326191007457
 30
0.0
 40
0.118422366792332
 50
201.1226798681396133
 51
218.3954036384153881
  0
ARC
  5
CB4E
  8
0
 10
465.983157931034782
 20
89.1084022332118337
 30
0.0
 40
0.0908070065825202
 50
26.6783545955294414
 51
40.8374116611647509
  0
LINE
  5
CB4F
  8
0
 10
465.2868714500818896
 20
89.3323797997472013
 30
0.0
 11
466.0323445669819193
 21
89.3323830700475128
 31
0.0
  0
ARC
  5
CB50
  8
0
 10
466.029274177881689
 20
89.3617681571437288
 30
0.0
 40
0.0295450610572989
 50
275.9650760967045926
 51
312.3463367427427215
  0
ARC
  5
CB51
  8
0
 10
466.0136047870785774
 20
89.384001250901207
 30
0.0
 40
0.0566341821361919
 50
308.9092024937122005
 51
326.3256865259921256
  0
LINE
  5
CB52
  8
0
 10
464.4047748596818224
 20
89.1399796826475068
 30
0.0
 11
466.0645889477818855
 21
89.1400002835475078
 31
0.0
  0
LINE
  5
CB53
  8
0
 10
466.0645889477818855
 20
89.1400002835475078
 30
0.0
 11
466.0681507575520186
 21
88.9365739627069871
 31
0.0
  0
LINE
  5
CB54
  8
0
 10
466.0681507575520186
 20
88.9365739627069871
 30
0.0
 11
464.4084546016819104
 21
88.9368904200475043
 31
0.0
  0
LINE
  5
CB55
  8
0
 10
464.4084546016819104
 20
88.9368904200475043
 30
0.0
 11
464.4047748596818224
 21
89.1399796826475068
 31
0.0
  0
ARC
  5
CB56
  8
0
 10
464.3569706869569131
 20
89.0945599186864143
 30
0.0
 40
0.0659426594847979
 50
28.8390737995761199
 51
43.5333478082818317
  0
ARC
  5
CB57
  8
0
 10
464.4047903531916859
 20
89.1208914861594366
 30
0.0
 40
0.0113526244564875
 50
354.3828265496418908
 51
28.8390737995782516
  0
LINE
  5
CB58
  8
0
 10
464.4160884635538196
 20
89.1197802776758579
 30
0.0
 11
464.4188519690819135
 21
88.9671570099475133
 31
0.0
  0
ARC
  5
CB59
  8
0
 10
464.3786352079354174
 20
88.9659634249456843
 30
0.0
 40
0.0402344693300094
 50
344.1935050046577089
 51
1.699970671723714
  0
LINE
  5
CB5A
  8
0
 10
464.4173482961818991
 20
88.9550039851475134
 30
0.0
 11
464.4084563671635806
 21
88.9368932829005558
 31
0.0
  0
LINE
  5
CB5B
  8
0
 10
464.4164448909410794
 20
89.1000954563475034
 30
0.0
 11
465.2196488695960852
 21
89.1000959958476813
 31
0.0
  0
LINE
  5
CB5C
  8
0
 10
465.2196488695960852
 20
89.1000959958476813
 30
0.0
 11
465.2585151511818822
 21
88.9994902638475054
 31
0.0
  0
ARC
  5
CB5D
  8
0
 10
465.3403828601080932
 20
89.0311176211028084
 30
0.0
 40
0.0877645229679102
 50
201.1226800521810105
 51
217.6511733403181097
  0
ARC
  5
CB5E
  8
0
 10
465.2959537002544721
 20
88.9968393032486631
 30
0.0
 40
0.0316489875057612
 50
217.6511733403116011
 51
238.881826738172208
  0
ARC
  5
CB5F
  8
0
 10
465.285212929035481
 20
88.9790468853817629
 30
0.0
 40
0.0108659583730574
 50
238.8818267381608962
 51
269.6607524051564724
  0
ARC
  5
CB60
  8
0
 10
465.2851829756306756
 20
88.9739880916125259
 30
0.0
 40
0.0058070759266974
 50
269.6607524051433984
 51
323.0097769403811867
  0
ARC
  5
CB61
  8
0
 10
465.2781677649921903
 20
88.9792725554176371
 30
0.0
 40
0.0145899420881845
 50
323.009776940375275
 51
344.4283733245557073
  0
ARC
  5
CB62
  8
0
 10
465.2301770999586097
 20
88.98631371446983
 30
0.0
 40
0.0630052791842304
 50
349.9843271832771165
 51
4.6732451004364153
  0
LINE
  5
CB63
  8
0
 10
465.2907244867819259
 20
89.1197808663471989
 30
0.0
 11
465.2929729206284151
 21
88.9914469504379753
 31
0.0
  0
ARC
  5
CB64
  8
0
 10
465.2813290049542161
 20
89.0978076586914369
 30
0.0
 40
0.0238976344740625
 50
66.8490251294847866
 51
102.1714159314281005
  0
ARC
  5
CB65
  8
0
 10
465.2586937486175884
 20
89.2213718312323749
 30
0.0
 40
0.1017370761341427
 50
273.0709934364472247
 51
279.9601374775213003
  0
LINE
  5
CB66
  8
0
 10
465.264144138181905
 20
89.1197808576475126
 30
0.0
 11
464.4160884635538196
 21
89.1197802776758152
 31
0.0
  0
LINE
  5
CB67
  8
0
 10
465.2910693688817787
 20
89.100096020647527
 30
0.0
 11
465.9940043792818187
 21
89.1000959367474934
 31
0.0
  0
LINE
  5
CB68
  8
0
 10
465.9940043792818187
 20
89.1000959367474934
 30
0.0
 11
466.0380597176819037
 21
88.9860582817474892
 31
0.0
  0
ARC
  5
CB69
  8
0
 10
466.1485253994753748
 20
89.0287336857007432
 30
0.0
 40
0.118422366792332
 50
201.1226798681396133
 51
218.3954036384153881
  0
ARC
  5
CB6A
  8
0
 10
465.9870109677348182
 20
88.8958032998118455
 30
0.0
 40
0.0908070065825202
 50
26.6783545955294414
 51
40.8374116611647509
  0
LINE
  5
CB6B
  8
0
 10
465.2907244867819259
 20
89.1197808663471989
 30
0.0
 11
466.0361976036818987
 21
89.1197841366475103
 31
0.0
  0
ARC
  5
CB6C
  8
0
 10
466.0331272145817252
 20
89.1491692237437405
 30
0.0
 40
0.0295450610572989
 50
275.9650760967045926
 51
312.3463367427427215
  0
ARC
  5
CB6D
  8
0
 10
466.0174578237787273
 20
89.1714023175012187
 30
0.0
 40
0.0566341821361919
 50
308.9092024937122005
 51
326.3256865259921256
  0
LINE
  5
CB6E
  8
0
 10
464.4086296741239153
 20
88.9273837048605316
 30
0.0
 11
466.0684437622239216
 21
88.9274043057605184
 31
0.0
  0
LINE
  5
CB6F
  8
0
 10
466.0684437622239216
 20
88.9274043057605184
 30
0.0
 11
466.0720055719941115
 21
88.7239779849199977
 31
0.0
  0
LINE
  5
CB70
  8
0
 10
466.0720055719941115
 20
88.7239779849199977
 30
0.0
 11
464.4123094161238896
 21
88.7242944422605291
 31
0.0
  0
LINE
  5
CB71
  8
0
 10
464.4123094161238896
 20
88.7242944422605291
 30
0.0
 11
464.4086296741239153
 21
88.9273837048605316
 31
0.0
  0
ARC
  5
CB72
  8
0
 10
464.3608255013988924
 20
88.8819639408994249
 30
0.0
 40
0.0659426594847979
 50
28.8390737995761199
 51
43.5333478082818317
  0
ARC
  5
CB73
  8
0
 10
464.4086451676336083
 20
88.9082955083724613
 30
0.0
 40
0.0113526244564875
 50
354.3828265496418908
 51
28.8390737995782516
  0
LINE
  5
CB74
  8
0
 10
464.4199432779957988
 20
88.9071842998888826
 30
0.0
 11
464.422706783523779
 21
88.7545610321605238
 31
0.0
  0
ARC
  5
CB75
  8
0
 10
464.3824900223775103
 20
88.7533674471587091
 30
0.0
 40
0.0402344693300094
 50
344.1935050046577089
 51
1.699970671723714
  0
LINE
  5
CB76
  8
0
 10
464.4212031106238783
 20
88.7424080073605239
 30
0.0
 11
464.4123111816056166
 21
88.7242973051135806
 31
0.0
  0
LINE
  5
CB77
  8
0
 10
464.4202997053831723
 20
88.8874994785605281
 30
0.0
 11
465.2235036840381781
 21
88.887500018060706
 31
0.0
  0
LINE
  5
CB78
  8
0
 10
465.2235036840381781
 20
88.887500018060706
 30
0.0
 11
465.2623699656238045
 21
88.7868942860605301
 31
0.0
  0
ARC
  5
CB79
  8
0
 10
465.3442376745500724
 20
88.8185216433158331
 30
0.0
 40
0.0877645229679102
 50
201.1226800521810105
 51
217.6511733403181097
  0
ARC
  5
CB7A
  8
0
 10
465.2998085146966218
 20
88.7842433254616878
 30
0.0
 40
0.0316489875057612
 50
217.6511733403116011
 51
238.881826738172208
  0
ARC
  5
CB7B
  8
0
 10
465.2890677434775171
 20
88.7664509075947876
 30
0.0
 40
0.0108659583730574
 50
238.8818267381608962
 51
269.6607524051564724
  0
ARC
  5
CB7C
  8
0
 10
465.2890377900727117
 20
88.7613921138255648
 30
0.0
 40
0.0058070759266974
 50
269.6607524051433984
 51
323.0097769403811867
  0
ARC
  5
CB7D
  8
0
 10
465.2820225794342264
 20
88.7666765776306619
 30
0.0
 40
0.0145899420881845
 50
323.009776940375275
 51
344.4283733245557073
  0
ARC
  5
CB7E
  8
0
 10
465.2340319144005889
 20
88.7737177366828547
 30
0.0
 40
0.0630052791842304
 50
349.9843271832771165
 51
4.6732451004364153
  0
LINE
  5
CB7F
  8
0
 10
465.2945793012237914
 20
88.9071848885602236
 30
0.0
 11
465.2968277350702806
 21
88.778850972651
 31
0.0
  0
ARC
  5
CB80
  8
0
 10
465.285183819396309
 20
88.8852116809044759
 30
0.0
 40
0.0238976344740625
 50
66.8490251294847866
 51
102.1714159314281005
  0
ARC
  5
CB81
  8
0
 10
465.2625485630595108
 20
89.0087758534453997
 30
0.0
 40
0.1017370761341427
 50
273.0709934364472247
 51
279.9601374775213003
  0
LINE
  5
CB82
  8
0
 10
465.2679989526238273
 20
88.9071848798605373
 30
0.0
 11
464.4199432779957988
 21
88.9071842998888542
 31
0.0
  0
LINE
  5
CB83
  8
0
 10
465.2949241833238716
 20
88.8875000428605375
 30
0.0
 11
465.9978591937239116
 21
88.8874999589605466
 31
0.0
  0
LINE
  5
CB84
  8
0
 10
465.9978591937239116
 20
88.8874999589605466
 30
0.0
 11
466.0419145321238261
 21
88.7734623039605282
 31
0.0
  0
ARC
  5
CB85
  8
0
 10
466.1523802139175245
 20
88.8161377079137679
 30
0.0
 40
0.118422366792332
 50
201.1226798681396133
 51
218.3954036384153881
  0
ARC
  5
CB86
  8
0
 10
465.9908657821769111
 20
88.683207322024856
 30
0.0
 40
0.0908070065825202
 50
26.6783545955294414
 51
40.8374116611647509
  0
LINE
  5
CB87
  8
0
 10
465.2945793012237914
 20
88.9071848885602236
 30
0.0
 11
466.0400524181238779
 21
88.9071881588605351
 31
0.0
  0
ARC
  5
CB88
  8
0
 10
466.0369820290237044
 20
88.9365732459567653
 30
0.0
 40
0.0295450610572989
 50
275.9650760967045926
 51
312.3463367427427215
  0
ARC
  5
CB89
  8
0
 10
466.0213126382207065
 20
88.958806339714215
 30
0.0
 40
0.0566341821361919
 50
308.9092024937122005
 51
326.3256865259921256
  0
LINE
  5
CB8A
  8
0
 10
466.1128224386516194
 20
89.320571725928815
 30
0.0
 11
466.1162852546635804
 21
89.1237219454005611
 31
0.0
  0
LINE
  5
CB8B
  8
0
 10
466.1162852546635804
 20
89.1237219454005611
 30
0.0
 11
466.1671705447636214
 21
89.2221462784005723
 31
0.0
  0
LINE
  5
CB8C
  8
0
 10
466.1671705447636214
 20
89.2221462784005723
 30
0.0
 11
466.1128221955635809
 21
89.3205721601005536
 31
0.0
  0
LINE
  5
CB8D
  8
0
 10
467.5377114546636221
 20
88.6552176925005568
 30
0.0
 11
467.5967271622935755
 21
88.6552176925005568
 31
0.0
  0
LINE
  5
CB8E
  8
0
 10
467.5967271622935755
 20
88.6552176925005568
 30
0.0
 11
467.6091072936634987
 21
88.1847446209005739
 31
0.0
  0
LINE
  5
CB8F
  8
0
 10
467.6091072936634987
 20
88.1847446209005739
 30
0.0
 11
463.3941208429289986
 21
88.1847452515005585
 31
0.0
  0
LINE
  5
CB90
  8
0
 10
467.599317144465374
 20
88.5567924956005612
 30
0.0
 11
467.6237929198346137
 21
88.5567924956405079
 31
0.0
  0
LINE
  5
CB91
  8
0
 10
467.6237929198346137
 20
88.5567924956405079
 30
0.0
 11
467.6237929198634902
 21
88.2418318657005614
 31
0.0
  0
LINE
  5
CB92
  8
0
 10
467.6237929198634902
 20
88.2418318657005614
 30
0.0
 11
467.6076050874103203
 21
88.2418318657005614
 31
0.0
  0
ARC
  5
CB93
  8
0
 10
467.4263800963150857
 20
88.399312180652359
 30
0.0
 40
0.2525309337461378
 50
321.4199075846095184
 51
38.5800924259448905
  0
LINE
  5
CB94
  8
0
 10
447.0491610295603095
 20
88.3672801218167052
 30
0.0
 11
448.8479488326412934
 21
88.3672801218167052
 31
0.0
  0
LINE
  5
CB96
  8
0
 10
466.6826271710805827
 20
88.1847447595103517
 30
0.0
 11
466.6798755378184183
 21
88.2739374858516186
 31
0.0
  0
LINE
  5
CB97
  8
0
 10
466.7307083996577148
 20
88.184744752316945
 30
0.0
 11
466.7199518260454738
 21
88.4094069524582551
 31
0.0
  0
LINE
  5
CB98
  8
0
 10
466.7638376636593875
 20
88.1847447473605257
 30
0.0
 11
466.7516977325652192
 21
88.4318058716394404
 31
0.0
  0
LINE
  5
CB99
  8
0
 10
466.4825492512508163
 20
88.1847447894438119
 30
0.0
 11
466.4859037890453806
 21
88.4094070808582586
 31
0.0
  0
LINE
  5
CB9A
  8
0
 10
466.445299183773102
 20
88.1847447950167549
 30
0.0
 11
466.4488139012453871
 21
88.4124965939582665
 31
0.0
  0
LINE
  5
CB9B
  8
0
 10
466.4057580879007219
 20
88.1847448009324637
 30
0.0
 11
466.4092541329454775
 21
88.4124965964582543
 31
0.0
  0
ARC
  5
CB9C
  8
0
 10
466.7238390952929876
 20
88.4180505447432807
 30
0.0
 40
0.3146339855718562
 50
142.6432368552343064
 51
181.0114429438511934
  0
ARC
  5
CB9D
  8
0
 10
466.565299450320083
 20
88.5411115375999458
 30
0.0
 40
0.1139561769032811
 50
91.8225651586988363
 51
143.4576536914246105
  0
ARC
  5
CB9E
  8
0
 10
466.5352474637460887
 20
88.4759962705432201
 30
0.0
 40
0.2020146538222083
 50
20.5689472782400316
 51
52.4424041909877729
  0
ARC
  5
CB9F
  8
0
 10
466.3609337606168879
 20
88.3999488646359168
 30
0.0
 40
0.3920603916082013
 50
4.6607273237920364
 51
22.0242232472350992
  0
ARC
  5
CBA0
  8
0
 10
466.8172785041360839
 20
88.4090988641377891
 30
0.0
 40
0.3684802683337555
 50
160.5184758132523086
 51
179.4716722869426917
  0
ARC
  5
CBA1
  8
0
 10
466.6837163759644227
 20
88.4606136038219404
 30
0.0
 40
0.2254202664896698
 50
132.1544464744453933
 51
161.5408449708642138
  0
ARC
  5
CBA2
  8
0
 10
466.6041734504967167
 20
88.5471897608526888
 30
0.0
 40
0.1078577432470021
 50
91.5085408106891833
 51
131.6953381142510011
  0
ARC
  5
CBA3
  8
0
 10
466.599033876029182
 20
88.5523643808625991
 30
0.0
 40
0.1026715086105848
 50
54.683691092961169
 51
88.7163143523048774
  0
LINE
  5
CBA4
  8
0
 10
466.561675142645413
 20
88.6550100654582565
 30
0.0
 11
466.6013339916246991
 21
88.6550101218781066
 31
0.0
  0
ARC
  5
CBA5
  8
0
 10
466.755541163695284
 20
88.4094021443883662
 30
0.0
 40
0.2696373746950979
 50
154.445731941077014
 51
179.99895103974211
  0
ARC
  5
CBA6
  8
0
 10
466.6314543096498255
 20
88.4739980302459657
 30
0.0
 40
0.1299114696795548
 50
119.5789811698228959
 51
156.5411720524988937
  0
ARC
  5
CBA7
  8
0
 10
466.6034371158825138
 20
88.5192689221075142
 30
0.0
 40
0.0767370996381653
 50
93.7984841677965449
 51
118.0712187209748976
  0
ARC
  5
CBA8
  8
0
 10
466.6020876723000015
 20
88.5224267656140853
 30
0.0
 40
0.0735055944825495
 50
62.5338863802021123
 51
92.9119674423266417
  0
ARC
  5
CBA9
  8
0
 10
466.5812759054896901
 20
88.4861939197849523
 30
0.0
 40
0.1152666487649253
 50
41.05156669044176
 51
61.6617468092855177
  0
ARC
  5
CBAA
  8
0
 10
466.5173345005272836
 20
88.4377751802729364
 30
0.0
 40
0.1953613451120396
 50
20.6544778173099992
 51
39.4443903627837003
  0
ARC
  5
CBAB
  8
0
 10
466.4129112768086998
 20
88.3975280953140867
 30
0.0
 40
0.3072702493289299
 50
2.215567658895973
 51
20.8086536333641305
  0
ARC
  5
CBAC
  8
0
 10
466.5462409624428801
 20
88.4953234192324629
 30
0.0
 40
0.1033933801186377
 50
36.1815998070842824
 51
70.3143132139941969
  0
ARC
  5
CBAD
  8
0
 10
466.6174584091272095
 20
88.3595524640658141
 30
0.0
 40
0.140504790093943
 50
198.840735382294298
 51
225.8248600702185911
  0
ARC
  5
CBAE
  8
0
 10
466.5652329527309234
 20
88.3080359894792792
 30
0.0
 40
0.0671810385645976
 50
227.1531475228738941
 51
252.8519118244720119
  0
ARC
  5
CBAF
  8
0
 10
466.5606711253980166
 20
88.2949307173938109
 30
0.0
 40
0.0533156278235454
 50
253.3839211832685976
 51
269.8740156278656741
  0
ARC
  5
CBB0
  8
0
 10
466.5620800727783717
 20
88.4953263242215939
 30
0.0
 40
0.0612685354170899
 50
91.4273674715178828
 51
134.950386020364391
  0
LINE
  5
CBB1
  8
0
 10
466.5605538928454052
 20
88.2416152184582501
 30
0.0
 11
466.6250540538454175
 21
88.2416152184582501
 31
0.0
  0
LINE
  5
CBB2
  8
0
 10
466.5605538928454052
 20
88.5565758483582357
 30
0.0
 11
466.6250540538454175
 21
88.5565731299582524
 31
0.0
  0
ARC
  5
CBB3
  8
0
 10
466.6300298175307262
 20
88.312355499888767
 30
0.0
 40
0.0709150593394549
 50
214.6566422502008891
 51
265.9765287536667984
  0
ARC
  5
CBB4
  8
0
 10
466.7520777988407872
 20
88.3939365022177839
 30
0.0
 40
0.2177123720457612
 50
175.8740444823953055
 51
214.0521239042384991
  0
ARC
  5
CBB5
  8
0
 10
466.7527864819384149
 20
88.4064758628283442
 30
0.0
 40
0.2178792183600545
 50
150.4245136018041933
 51
179.1782185167510875
  0
ARC
  5
CBB6
  8
0
 10
466.6493456718350785
 20
88.4644198940561068
 30
0.0
 40
0.0993188813562493
 50
122.3705996343377933
 51
150.0432003226657969
  0
ARC
  5
CBB7
  8
0
 10
466.6255553408710171
 20
88.5002399151513259
 30
0.0
 40
0.0563354451403827
 50
90.5098390517578082
 51
121.4393772534017018
  0
ARC
  5
CBB8
  8
0
 10
466.6249333676939841
 20
88.5029764466531361
 30
0.0
 40
0.0535968191822679
 50
69.9876126369173477
 51
89.8709846392505227
  0
ARC
  5
CBB9
  8
0
 10
466.5921573345839874
 20
88.4518130454788718
 30
0.0
 40
0.1136669628862558
 50
16.1390859118268111
 51
63.2743882079226267
  0
ARC
  5
CBBA
  8
0
 10
466.4642878099542145
 20
88.3991454842224158
 30
0.0
 40
0.2515875521534582
 50
358.6164499519920241
 51
19.5681240751233894
  0
ARC
  5
CBBB
  8
0
 10
466.4726993852656278
 20
88.3980138929674268
 30
0.0
 40
0.2431528781735527
 50
335.9183237558070232
 51
358.8351597868684735
  0
ARC
  5
CBBC
  8
0
 10
466.5857412146082197
 20
88.3468736896305415
 30
0.0
 40
0.1190838386512755
 50
309.5977498803421213
 51
336.1895818908383262
  0
ARC
  5
CBBD
  8
0
 10
466.6210787030465781
 20
88.3063957558680812
 30
0.0
 40
0.0653857542462955
 50
285.2168642735906019
 51
308.3458886657110156
  0
ARC
  5
CBBE
  8
0
 10
466.6249785447238878
 20
88.2945788270453136
 30
0.0
 40
0.0529636624129286
 50
270.0816853527130093
 51
284.5012570069953881
  0
ENDSEC
  0
EOF
