  0
SECTION
  2
HEADER
  9
$ACADVER
  1
AC1009
  9
$INSBASE
 10
445.412369730290493
 20
57.1075903295916589
 30
0.0
  9
$EXTMIN
 10
435.1071057521616012
 20
36.2563375826571814
 30
-0.0000000000112498
  9
$EXTMAX
 10
453.0071017558486233
 20
57.1164408071868195
 30
0.0000000000002956
  9
$LIMMIN
 10
0.0
 20
0.0
  9
$LIMMAX
 10
22.0
 20
17.0
  9
$ORTHOMODE
 70
     0
  9
$REGENMODE
 70
     1
  9
$FILLMODE
 70
     1
  9
$QTEXTMODE
 70
     0
  9
$MIRRTEXT
 70
     0
  9
$DRAGMODE
 70
     2
  9
$LTSCALE
 40
1.2099999999999991
  9
$OSMODE
 70
  4095
  9
$ATTMODE
 70
     1
  9
$TEXTSIZE
 40
0.2
  9
$TRACEWID
 40
0.05
  9
$TEXTSTYLE
  7
STANDARD
  9
$CLAYER
  8
0
  9
$CELTYPE
  6
BYLAYER
  9
$CECOLOR
 62
   256
  9
$DIMSCALE
 40
1.0
  9
$DIMASZ
 40
0.1875
  9
$DIMEXO
 40
0.0625
  9
$DIMDLI
 40
0.38
  9
$DIMRND
 40
0.0
  9
$DIMDLE
 40
0.0
  9
$DIMEXE
 40
0.125
  9
$DIMTP
 40
1.5
  9
$DIMTM
 40
1.5
  9
$DIMTXT
 40
1.5
  9
$DIMCEN
 40
0.09
  9
$DIMTSZ
 40
0.0
  9
$DIMTOL
 70
     0
  9
$DIMLIM
 70
     0
  9
$DIMTIH
 70
     1
  9
$DIMTOH
 70
     1
  9
$DIMSE1
 70
     0
  9
$DIMSE2
 70
     0
  9
$DIMTAD
 70
     0
  9
$DIMZIN
 70
     4
  9
$DIMBLK
  1

  9
$DIMASO
 70
     1
  9
$DIMSHO
 70
     1
  9
$DIMPOST
  1

  9
$DIMAPOST
  1

  9
$DIMALT
 70
     0
  9
$DIMALTD
 70
     2
  9
$DIMALTF
 40
25.3999999999999986
  9
$DIMLFAC
 40
1.0
  9
$DIMTOFL
 70
     0
  9
$DIMTVP
 40
0.0
  9
$DIMTIX
 70
     0
  9
$DIMSOXD
 70
     0
  9
$DIMSAH
 70
     0
  9
$DIMBLK1
  1

  9
$DIMBLK2
  1

  9
$DIMSTYLE
  2
STANDARD
  9
$DIMCLRD
 70
     0
  9
$DIMCLRE
 70
     0
  9
$DIMCLRT
 70
     0
  9
$DIMTFAC
 40
1.0
  9
$DIMGAP
 40
0.09
  9
$LUNITS
 70
     2
  9
$LUPREC
 70
     4
  9
$SKETCHINC
 40
0.1
  9
$FILLETRAD
 40
0.0
  9
$AUNITS
 70
     0
  9
$AUPREC
 70
     0
  9
$MENU
  1
.
  9
$ELEVATION
 40
0.0
  9
$PELEVATION
 40
0.0
  9
$THICKNESS
 40
0.0
  9
$LIMCHECK
 70
     0
  9
$BLIPMODE
 70
     0
  9
$CHAMFERA
 40
0.0
  9
$CHAMFERB
 40
0.0
  9
$SKPOLY
 70
     0
  9
$TDCREATE
 40
2457827.4934837957844138
  9
$TDUPDATE
 40
2459496.8366666669026017
  9
$TDINDWG
 40
0.4427681713
  9
$TDUSRTIMER
 40
0.4427681713
  9
$USRTIMER
 70
     1
  9
$ANGBASE
 50
0.0
  9
$ANGDIR
 70
     0
  9
$PDMODE
 70
     0
  9
$PDSIZE
 40
0.3125
  9
$PLINEWID
 40
0.0
  9
$COORDS
 70
     1
  9
$SPLFRAME
 70
     0
  9
$SPLINETYPE
 70
     6
  9
$SPLINESEGS
 70
     8
  9
$ATTDIA
 70
     1
  9
$ATTREQ
 70
     1
  9
$HANDLING
 70
     1
  9
$HANDSEED
  5
6B9F
  9
$SURFTAB1
 70
     6
  9
$SURFTAB2
 70
     6
  9
$SURFTYPE
 70
     6
  9
$SURFU
 70
     6
  9
$SURFV
 70
     6
  9
$UCSNAME
  2

  9
$UCSORG
 10
0.0
 20
0.0
 30
0.0
  9
$UCSXDIR
 10
1.0
 20
0.0
 30
0.0
  9
$UCSYDIR
 10
0.0
 20
1.0
 30
0.0
  9
$PUCSNAME
  2

  9
$PUCSORG
 10
0.0
 20
0.0
 30
0.0
  9
$PUCSXDIR
 10
1.0
 20
0.0
 30
0.0
  9
$PUCSYDIR
 10
0.0
 20
1.0
 30
0.0
  9
$USERI1
 70
     0
  9
$USERI2
 70
     0
  9
$USERI3
 70
     0
  9
$USERI4
 70
     0
  9
$USERI5
 70
     0
  9
$USERR1
 40
0.0
  9
$USERR2
 40
0.0
  9
$USERR3
 40
0.0
  9
$USERR4
 40
0.0
  9
$USERR5
 40
0.0
  9
$WORLDVIEW
 70
     1
  9
$SHADEDGE
 70
     3
  9
$SHADEDIF
 70
    70
  9
$TILEMODE
 70
     1
  9
$MAXACTVP
 70
    48
  9
$PLIMCHECK
 70
     0
  9
$PEXTMIN
 10
1.0000000000000000E+20
 20
1.0000000000000000E+20
 30
1.0000000000000000E+20
  9
$PEXTMAX
 10
-1.0000000000000000E+20
 20
-1.0000000000000000E+20
 30
-1.0000000000000000E+20
  9
$PLIMMIN
 10
0.0
 20
0.0
  9
$PLIMMAX
 10
12.0
 20
9.0
  9
$UNITMODE
 70
     0
  9
$VISRETAIN
 70
     1
  9
$PLINEGEN
 70
     0
  9
$PSLTSCALE
 70
     1
  0
ENDSEC
  0
SECTION
  2
TABLES
  0
TABLE
  2
VPORT
 70
     1
  0
VPORT
  2
*ACTIVE
 70
     0
 10
0.0
 20
0.0
 11
1.0
 21
1.0
 12
76.1122113133458242
 22
12.6776657711198606
 13
0.0
 23
0.0
 14
1.0
 24
1.0
 15
0.0
 25
0.0
 16
0.0
 26
0.0
 36
16.1810502659070785
 17
367.9448924406593733
 27
34.0087234238021381
 37
0.0
 40
21.0254408987002783
 41
2.0410052910052912
 42
50.0
 43
0.0
 44
0.0
 50
0.0
 51
0.0
 71
     0
 72
   100
 73
     1
 74
     1
 75
     0
 76
     0
 77
     0
 78
     0
  0
ENDTAB
  0
TABLE
  2
LTYPE
 70
     2
  0
LTYPE
  2
CONTINUOUS
 70
     0
  3
Solid line
 72
    65
 73
     0
 40
0.0
  0
LTYPE
  2
PHANTOM2
 70
     0
  3
___ _ _ ___ _ _ ___ _ _ ___ _ _
 72
    65
 73
     6
 40
1.25
 49
0.625
 49
-0.125
 49
0.125
 49
-0.125
 49
0.125
 49
-0.125
  0
ENDTAB
  0
TABLE
  2
LAYER
 70
     2
  0
LAYER
  2
0
 70
     0
 62
     7
  6
CONTINUOUS
  0
LAYER
  2
DEFPOINTS
 70
     0
 62
     7
  6
CONTINUOUS
  0
ENDTAB
  0
TABLE
  2
STYLE
 70
     1
  0
STYLE
  2
STANDARD
 70
     0
 40
0.0
 41
0.8
 50
0.0
 71
     0
 42
0.2
  3
txt
  4

  0
ENDTAB
  0
TABLE
  2
VIEW
 70
     0
  0
ENDTAB
  0
TABLE
  2
UCS
 70
     0
  0
ENDTAB
  0
TABLE
  2
APPID
 70
     8
  0
APPID
  2
ACAD
 70
     0
  0
APPID
  2
ACAD_MLEADERVER
 70
     0
  0
APPID
  2
ACAD_EXEMPT_FROM_CAD_STANDARDS
 70
     0
  0
APPID
  2
ACAD_NAV_VCDISPLAY
 70
     0
  0
APPID
  2
ACADANNOMONITORALERTICONDI
 70
     0
  0
APPID
  2
ACAD_DSTYLE_DIMJAG
 70
     0
  0
APPID
  2
ACAD_DSTYLE_DIMTALN
 70
     0
  0
APPID
  2
ACDBATTR
 70
     0
  0
ENDTAB
  0
TABLE
  2
DIMSTYLE
 70
     1
  0
DIMSTYLE
  2
STANDARD
 70
     0
  3

  4

  5

  6

  7

 40
1.0
 41
0.1875
 42
0.0625
 43
0.38
 44
0.125
 45
0.0
 46
0.0
 47
1.5
 48
1.5
140
1.5
141
0.09
142
0.0
143
25.3999999999999986
144
1.0
145
0.0
146
1.0
147
0.09
 71
     0
 72
     0
 73
     1
 74
     1
 75
     0
 76
     0
 77
     0
 78
     4
170
     0
171
     2
172
     0
173
     0
174
     0
175
     0
176
     0
177
     0
178
     0
  0
ENDTAB
  0
ENDSEC
  0
SECTION
  2
BLOCKS
  0
BLOCK
  8
0
  2
$MODEL_SPACE
 70
     0
 10
0.0
 20
0.0
 30
0.0
  3
$MODEL_SPACE
  1

  0
ENDBLK
  5
21
  8
0
  0
BLOCK
 67
     1
  8
0
  2
$PAPER_SPACE
 70
     0
 10
0.0
 20
0.0
 30
0.0
  3
$PAPER_SPACE
  1

  0
ENDBLK
  5
1D
 67
     1
  8
0
  0
ENDSEC
  0
SECTION
  2
ENTITIES
  0
ATTDEF
  5
4EF9
  8
DEFPOINTS
 10
445.4087623500541895
 20
57.1122684741811426
 30
0.0
 40
0.001
  1
K-31331T-HC
  3

  2
MODELNUMBER
 70
     0
1001
ACDBATTR
1070
     0
1070
     1
  0
ATTDEF
  5
4EFA
  8
DEFPOINTS
 10
445.4087623500541895
 20
57.110601807514449
 30
0.0
 40
0.001
  1

  3

  2
TRADENAME
 70
     0
1001
ACDBATTR
1070
     0
1070
     1
  0
ATTDEF
  5
4EFB
  8
DEFPOINTS
 10
445.4087623500541895
 20
57.1089351408477697
 30
0.0
 40
0.001
  1
TOILET SEAT
  3

  2
PRODUCT
 70
     0
1001
ACDBATTR
1070
     0
1070
     1
  0
ARC
  5
6A47
  8
0
 10
481.7438262654360983
 20
2049.6978635482159916
 30
0.0
 40
1992.9214665057520506
 50
268.9554257516148823
 51
268.9893874750194982
  0
ARC
  5
6A48
  8
0
 10
445.6878042668699891
 20
43.5913129155447265
 30
0.0
 40
13.5365039521003698
 50
77.3344241123151619
 51
86.1170676303164555
  0
ARC
  5
6A49
  8
0
 10
447.6308124148652041
 20
52.2373379105070299
 30
0.0
 40
4.674843335901576
 50
61.675752602716237
 51
77.3344241123151619
  0
ARC
  5
6A4A
  8
0
 10
445.3233654342209888
 20
48.429539636066103
 30
0.0
 40
9.1135235775277472
 50
56.4650093493929717
 51
60.2229788043326622
  0
ARC
  5
6A4B
  8
0
 10
447.3083822428495182
 20
51.494627050680279
 30
0.0
 40
5.4799744631082969
 50
52.832908881099101
 51
55.7832058092444001
  0
ARC
  5
6A4C
  8
0
 10
447.3931768807950107
 20
51.6072769708980772
 30
0.0
 40
5.3479146110917517
 50
51.6327070529994003
 51
52.7801256248929391
  0
LINE
  5
6A4D
  8
0
 10
450.7382864725900049
 20
55.8225078590915302
 30
0.0
 11
450.7850950233898857
 21
55.7849244359915204
 31
0.0
  0
LINE
  5
6A4E
  8
0
 10
450.7850950233898857
 20
55.7849244359915204
 30
0.0
 11
450.7480034204426147
 21
55.7527946881213765
 31
0.0
  0
LINE
  5
6A4F
  8
0
 10
450.7382864725900049
 20
55.8225078590915302
 30
0.0
 11
450.6687808454898914
 21
55.7623001325915268
 31
0.0
  0
LINE
  5
6A50
  8
0
 10
450.6279987282562729
 20
55.8659291406244805
 30
0.0
 11
450.6190623105899817
 21
55.8614929433915322
 31
0.0
  0
LINE
  5
6A51
  8
0
 10
450.3580963395269237
 20
56.0261117998887812
 30
0.0
 11
450.3899092150580259
 21
56.0261041883418685
 31
0.0
  0
LINE
  5
6A52
  8
0
 10
449.8493901130748895
 20
56.3522067352494105
 30
0.0
 11
449.8493772736043184
 21
56.3397563731673401
 31
0.0
  0
LINE
  5
6A53
  8
0
 10
446.5934717593900132
 20
57.086405125491531
 30
0.0
 11
446.6044704750673873
 21
57.0967437605040189
 31
0.0
  0
ARC
  5
6A54
  8
0
 10
450.7002235329807718
 20
55.7263553149136897
 30
0.0
 40
0.047755837199936
 50
52.0871458849936815
 51
130.9392161237555001
  0
LINE
  5
6A55
  8
0
 10
450.759502229719601
 20
55.7627503138984082
 30
0.0
 11
450.8672185689532057
 21
55.6729072274589214
 31
0.0
  0
ARC
  5
6A56
  8
0
 10
449.6581486616507846
 20
53.9960458962483614
 30
0.0
 40
2.0672962934358479
 50
54.2072073452756271
 51
58.783677416904041
  0
ARC
  5
6A57
  8
0
 10
450.7050132281395918
 20
55.7425642576658191
 30
0.0
 40
0.0284757601574669
 50
94.667508493574914
 51
155.8303296318875084
  0
ARC
  5
6A58
  8
0
 10
450.7061468960999946
 20
55.7286787680693081
 30
0.0
 40
0.042407451525676
 50
56.4764171342895835
 51
94.667508493574914
  0
LINE
  5
6A59
  8
0
 10
450.7518511349181267
 20
55.7561276822804217
 30
0.0
 11
450.7722999016679069
 21
55.7394770078219111
 31
0.0
  0
LINE
  5
6A5A
  8
0
 10
451.9228253833899203
 20
54.4786328427915265
 30
0.0
 11
451.9542964144217194
 21
54.4277635017755372
 31
0.0
  0
LINE
  5
6A5B
  8
0
 10
451.9542964144217194
 20
54.4277635017755372
 30
0.0
 11
451.883162876566189
 21
54.3661456343500475
 31
0.0
  0
LINE
  5
6A5C
  8
0
 10
451.9228253833899203
 20
54.4786328427915265
 30
0.0
 11
451.8860946901247075
 21
54.4468157304729488
 31
0.0
  0
LINE
  5
6A5D
  8
0
 10
451.8955749908158737
 20
54.4550278214051104
 30
0.0
 11
451.8380052040943724
 21
54.5461983090009994
 31
0.0
  0
ARC
  5
6A5E
  8
0
 10
446.8732093416907105
 20
51.3405003348451885
 30
0.0
 40
5.9096268734577411
 50
25.3238196697865199
 51
31.2236350112811607
  0
LINE
  5
6A5F
  8
0
 10
452.2149494703899109
 20
53.8682467977915422
 30
0.0
 11
452.2119896902900109
 21
53.8513331984915311
 31
0.0
  0
LINE
  5
6A60
  8
0
 10
452.2149494703899109
 20
53.8682467977915422
 30
0.0
 11
452.2097301515898948
 21
53.8599005813915284
 31
0.0
  0
LINE
  5
6A61
  8
0
 10
452.2097301515898948
 20
53.8599005813915284
 30
0.0
 11
452.2119896902900109
 21
53.8513331984915311
 31
0.0
  0
ARC
  5
6A62
  8
0
 10
443.6494213506157962
 20
49.9822463770798109
 30
0.0
 40
9.3961380046917338
 50
19.3575990573518588
 51
24.3163334986264701
  0
LINE
  5
6A63
  8
0
 10
452.5335026606899191
 20
53.0731138507915219
 30
0.0
 11
452.5217412013898866
 21
53.0816462319915416
 31
0.0
  0
LINE
  5
6A64
  8
0
 10
452.5217463077900106
 20
53.0816533006915279
 30
0.0
 11
452.5143788628898847
 21
53.0967186772915412
 31
0.0
  0
ARC
  5
6A65
  8
0
 10
445.2098175911669955
 20
50.7085301571306033
 30
0.0
 40
7.6959482224012561
 50
4.1476838272094341
 51
17.8936088092740206
  0
ARC
  5
6A66
  8
0
 10
431.9022780912640087
 20
49.1299750947016065
 30
0.0
 40
21.0916858674849017
 50
2.5670654311746088
 51
5.8102020390680238
  0
ARC
  5
6A67
  8
0
 10
422.6751298964449006
 20
48.8265609691722275
 30
0.0
 40
30.3233640850652009
 50
1.374883547806014
 51
2.3589130691323281
  0
ARC
  5
6A68
  8
0
 10
3439403.8817811361514032
 20
49.250352588999192
 30
0.0
 40
3438950.8920171461068094
 50
179.9999949386825051
 51
180.0000050613166991
  0
ARC
  5
6A69
  8
0
 10
420.470295476969909
 20
50.0100618600901115
 30
0.0
 40
32.5368537840255527
 50
356.6032709645336922
 51
358.1269052524294239
  0
ARC
  5
6A6A
  8
0
 10
452.9095123033637265
 20
48.0860541183412735
 30
0.0
 40
0.040652800818875
 50
267.1576653134331991
 51
354.6636116529228957
  0
ARC
  5
6A6B
  8
0
 10
448.6774626537616086
 20
52.8303137753483583
 30
0.0
 40
3.5882263727500678
 50
37.1752945930385934
 51
52.3915964251529687
  0
ARC
  5
6A6C
  8
0
 10
449.5377196580092232
 20
53.3396598247585914
 30
0.0
 40
2.597508172746843
 50
27.6777665316573014
 51
39.6901159652301274
  0
LINE
  5
6A6D
  8
0
 10
451.8878454690226931
 20
54.4486488625987022
 30
0.0
 11
451.8772201665141779
 21
54.4657488624574881
 31
0.0
  0
ARC
  5
6A6E
  8
0
 10
450.1170306723848853
 20
53.6575294862623409
 30
0.0
 40
1.936875219341881
 50
24.662983985029161
 51
27.3107152602581813
  0
ARC
  5
6A6F
  8
0
 10
450.6995036490835105
 20
53.924981341558663
 30
0.0
 40
1.2959342989086979
 50
22.4464320090172897
 51
24.662983985029161
  0
ARC
  5
6A70
  8
0
 10
451.864029967223189
 20
54.4091596184793929
 30
0.0
 40
0.0348845382800809
 50
322.0312127817480814
 51
17.7494011611844797
  0
ARC
  5
6A71
  8
0
 10
451.8718905693037868
 20
54.4030251361902515
 30
0.0
 40
0.0249135334146652
 50
278.8931252790335975
 51
322.0312127817471719
  0
ARC
  5
6A72
  8
0
 10
451.8631163233945927
 20
54.4034705057812005
 30
0.0
 40
0.0380549648790962
 50
350.8564322584978186
 51
29.3180169205799288
  0
ARC
  5
6A73
  8
0
 10
451.8492323570387725
 20
54.4057051864392989
 30
0.0
 40
0.0521176217906446
 50
310.6028009280407218
 51
350.8564322584994102
  0
LINE
  5
6A74
  8
0
 10
450.6236979186008966
 20
55.8554724944566203
 30
0.0
 11
450.5888622223898778
 21
55.8253564751915334
 31
0.0
  0
LINE
  5
6A75
  8
0
 10
450.6236979186008966
 20
55.8554724944566203
 30
0.0
 11
450.7049737859895231
 21
55.7936514873357368
 31
0.0
  0
ARC
  5
6A76
  8
0
 10
407.3981537533661026
 20
1.001163926419451
 30
0.0
 40
69.7934766771296609
 50
51.6745357772047385
 51
51.7688250364619122
  0
ARC
  5
6A77
  8
0
 10
447.6281785123057944
 20
51.8946905809619707
 30
0.0
 40
4.9197073443590682
 50
43.305986229960169
 51
51.6745357772047385
  0
ARC
  5
6A78
  8
0
 10
447.6017544399244912
 20
51.8697845818927306
 30
0.0
 40
4.9560190558424111
 50
30.2451476238259609
 51
43.305986229960169
  0
ARC
  5
6A79
  8
0
 10
454.6566435025277997
 20
55.9832736386952377
 30
0.0
 40
3.210513372677926
 50
210.2451476238258863
 51
212.0419028491631934
  0
LINE
  5
6A7A
  8
0
 10
451.9699155615899144
 20
54.3100322407915286
 30
0.0
 11
451.9352880795898955
 21
54.2800035064915321
 31
0.0
  0
LINE
  5
6A7B
  8
0
 10
451.9192168300176036
 20
54.3973765942343093
 30
0.0
 11
451.9699221758899057
 21
54.3100574743915274
 31
0.0
  0
ARC
  5
6A7C
  8
0
 10
445.2830292099857843
 20
30.8871759528750083
 30
0.0
 40
23.4458877341532315
 50
83.7139590439049783
 51
89.6839230996359476
  0
ARC
  5
6A7D
  8
0
 10
447.3105533939842076
 20
47.9721898136972698
 30
0.0
 40
6.2432729269939573
 50
63.19472137582963
 51
85.0416442262235961
  0
ARC
  5
6A7E
  8
0
 10
448.1118595123667205
 20
49.7641768053038334
 30
0.0
 40
4.283496171083212
 50
16.5235777971296685
 51
61.9518272862676014
  0
ARC
  5
6A7F
  8
0
 10
439.9386850056786216
 20
48.0831958564911233
 30
0.0
 40
12.6173888877909199
 50
353.3665727033217081
 51
13.2842410088274008
  0
ARC
  5
6A80
  8
0
 10
429.39458706961301
 20
49.3873095230078292
 30
0.0
 40
23.2416754282842
 50
338.2328678514380726
 51
353.1758529522455206
  0
ARC
  5
6A81
  8
0
 10
442.8526198686979001
 20
43.9780523157170578
 30
0.0
 40
8.7373368246890895
 50
313.6258574234591947
 51
338.4483414070991216
  0
ARC
  5
6A82
  8
0
 10
433.6258987769692226
 20
49.2988328920264891
 30
0.0
 40
19.3222921284248415
 50
355.1753273286582271
 51
356.2807760654462754
  0
ARC
  5
6A83
  8
0
 10
434.1392632012255035
 20
49.2555018453574718
 30
0.0
 40
18.807102249159481
 50
349.1348285041929103
 51
355.1753273286582271
  0
ARC
  5
6A84
  8
0
 10
432.0291881643266265
 20
49.6605081860756314
 30
0.0
 40
20.9556940664589
 50
336.7431240251132181
 51
349.1348285041929103
  0
ARC
  5
6A85
  8
0
 10
417.0810584867940065
 20
57.7827345782280517
 30
0.0
 40
37.928382106481763
 50
333.3468080816738279
 51
334.3860038729641815
  0
ARC
  5
6A86
  8
0
 10
445.3388727667680769
 20
41.4031327436150889
 30
0.0
 40
5.1581250501890548
 50
281.6099619162229146
 51
313.3687735922691786
  0
ARC
  5
6A87
  8
0
 10
445.356493928218697
 20
41.8140016005068773
 30
0.0
 40
5.557940153128988
 50
270.5760230369369879
 51
280.579568415434494
  0
LINE
  5
6A88
  8
0
 10
452.5472099766759015
 20
48.5560598977207221
 30
0.0
 11
452.8535294365900086
 21
48.6825170598915093
 31
0.0
  0
ARC
  5
6A89
  8
0
 10
445.3187295222999182
 20
31.3700360820621995
 30
0.0
 40
23.3209311807452089
 50
83.1719680392759244
 51
89.7699404416662077
  0
ARC
  5
6A8A
  8
0
 10
448.1196159742021905
 20
54.8336043472619679
 30
0.0
 40
0.309386719626838
 50
265.1857681881402868
 51
4.3393976933929572
  0
ARC
  5
6A8B
  8
0
 10
922797.0912994021782652
 20
55.6857969715627874
 30
0.0
 40
922348.6631839872570708
 50
179.9999551521950991
 51
180.0000514835369927
  0
ARC
  5
6A8C
  8
0
 10
445.0964952069170977
 20
30.6803019814242397
 30
0.0
 40
24.1638093885288612
 50
82.8832173238886725
 51
89.2509958905475855
  0
ARC
  5
6A8D
  8
0
 10
448.1230225854878881
 20
54.88118357955058
 30
0.0
 40
0.2256375370492123
 50
261.6360496156415252
 51
3.3137082183226361
  0
ARC
  5
6A8E
  8
0
 10
1404.9137609649710612
 20
47.7267817281686035
 30
0.0
 40
956.5923301806891459
 50
179.4668375873536093
 51
179.5706967944045971
  0
ARC
  5
6A8F
  8
0
 10
448.3103282059975072
 20
56.6271914812370767
 30
0.0
 40
0.0525275496824924
 50
1.0623490363815229
 51
63.683617443678969
  0
ARC
  5
6A90
  8
0
 10
447.7604473360045745
 20
52.9712313052197814
 30
0.0
 40
3.7471394893863841
 50
57.9607061992218604
 51
81.2014156069728159
  0
ARC
  5
6A91
  8
0
 10
448.2057364304372982
 20
52.9351619310410513
 30
0.0
 40
3.5636264791927972
 50
50.9704212779548627
 51
64.350446427308583
  0
ARC
  5
6A92
  8
0
 10
450.0746087268153133
 20
52.5056984598205219
 30
0.0
 40
2.4338741159420252
 50
19.2477108560619783
 51
29.6741613464331486
  0
ARC
  5
6A93
  8
0
 10
451.752973457893404
 20
53.4620179166164178
 30
0.0
 40
0.5021766567179449
 50
29.6741613464331486
 51
43.6274944505106674
  0
ARC
  5
6A94
  8
0
 10
452.100174426893318
 20
53.7891296680892879
 30
0.0
 40
0.0253152522826976
 50
49.9329610924126328
 51
159.8252474100200118
  0
ARC
  5
6A95
  8
0
 10
452.2598208415183194
 20
53.7022321421935018
 30
0.0
 40
0.2068415934368596
 50
152.462660185425193
 51
168.6589105355616027
  0
ARC
  5
6A96
  8
0
 10
443.2742765441979031
 20
47.2975188344102122
 30
0.0
 40
11.0520778157772792
 50
43.0860048946709071
 51
49.5149851654119075
  0
ARC
  5
6A97
  8
0
 10
444.4800421843362983
 20
49.6446816960829409
 30
0.0
 40
8.6142921173981062
 50
28.408018081618021
 51
37.1521455459873309
  0
ARC
  5
6A98
  8
0
 10
448.4920602666703076
 20
26.4762101018164699
 30
0.0
 40
29.9316160778146987
 50
89.4701631533062312
 51
90.1224042396173246
  0
ARC
  5
6A99
  8
0
 10
448.6060458616179858
 20
53.8086725675084807
 30
0.0
 40
2.602969895883199
 50
63.9707345675913217
 51
86.4141553917734342
  0
ARC
  5
6A9A
  8
0
 10
447.3133914856045976
 20
51.0422234242570312
 30
0.0
 40
5.3563683510737556
 50
16.7195163684907016
 51
35.168704838229182
  0
ARC
  5
6A9B
  8
0
 10
454.1534350030759128
 20
55.7607464301706486
 30
0.0
 40
2.953985689676339
 50
202.3850196972506126
 51
213.6160139235396116
  0
ARC
  5
6A9C
  8
0
 10
449.406020196684608
 20
53.5732677088955995
 30
0.0
 40
2.2788806872352709
 50
27.7908163168090496
 51
43.9441431842500165
  0
LINE
  5
6A9D
  8
0
 10
451.9596460001093874
 20
53.7107229139916527
 30
0.0
 11
452.0217287029383897
 21
53.7114080951614312
 31
0.0
  0
LINE
  5
6A9E
  8
0
 10
452.0217287029383897
 20
53.7114080951614312
 30
0.0
 11
452.057018512189984
 21
53.7429079478915099
 31
0.0
  0
ARC
  5
6A9F
  8
0
 10
434.4550743400179158
 20
49.2436416041067702
 30
0.0
 40
18.4912828282788908
 50
356.2847694938856193
 51
357.2542762307755879
  0
ARC
  5
6AA0
  8
0
 10
435.2096543173649934
 20
49.2074529759428785
 30
0.0
 40
17.7358355706747801
 50
357.2542762307755879
 51
5.2932882478471903
  0
ARC
  5
6AA1
  8
0
 10
444.7694893015651019
 20
50.4906901910512715
 30
0.0
 40
8.1080526582406325
 50
2.495015501507194
 51
20.3257454544300487
  0
ARC
  5
6AA2
  8
0
 10
442.7633427981219825
 20
49.8659425839469321
 30
0.0
 40
10.0541174591438995
 50
6.9417730041733927
 51
15.6798059460647892
  0
ARC
  5
6AA3
  8
0
 10
436.9281248892091867
 20
49.1554866245877164
 30
0.0
 40
15.9324263753787392
 50
358.2988691705606925
 51
6.9417730041733927
  0
ARC
  5
6AA4
  8
0
 10
432.335242503746997
 20
49.3632470077518803
 30
0.0
 40
20.5295760287538585
 50
335.2504281382070985
 51
358.0998095778792845
  0
LINE
  5
6AA5
  8
0
 10
448.3887456829899065
 20
55.0341571625915265
 30
0.0
 11
448.3887599835762785
 21
56.3486918655352866
 31
0.0
  0
LINE
  5
6AA6
  8
0
 10
448.3887599835762785
 20
56.3486918655352866
 30
0.0
 11
448.4281156996900108
 21
56.3486914373915369
 31
0.0
  0
LINE
  5
6AA7
  8
0
 10
448.3887456829899065
 20
55.0341571617915193
 30
0.0
 11
448.4281156453679955
 21
55.0341571621915193
 31
0.0
  0
LINE
  5
6AA8
  8
0
 10
448.3571932445975108
 20
55.998354223108052
 30
0.0
 11
448.3887561718838128
 21
55.9983144822276202
 31
0.0
  0
LINE
  5
6AA9
  8
0
 10
448.3522054025448824
 20
55.3998893458488979
 30
0.0
 11
448.388749661720226
 21
55.3998889482904673
 31
0.0
  0
ARC
  5
6AAA
  8
0
 10
443.7027077454125106
 20
119.4888553467658028
 30
0.0
 40
62.4046886799819234
 50
270.4852939327265062
 51
271.5698928406392838
  0
ARC
  5
6AAB
  8
0
 10
445.1369351937099168
 20
43.5913129155447265
 30
0.0
 40
13.5365039521003698
 50
93.8829323696835445
 51
102.6655758876847955
  0
ARC
  5
6AAC
  8
0
 10
443.1939270457147018
 20
52.2373379105070299
 30
0.0
 40
4.674843335901576
 50
102.6655758876847955
 51
118.324247397283699
  0
ARC
  5
6AAD
  8
0
 10
445.501374026358917
 20
48.429539636066103
 30
0.0
 40
9.1135235775277472
 50
119.7770211956673023
 51
123.5349906506069999
  0
ARC
  5
6AAE
  8
0
 10
443.5163572177303877
 20
51.494627050680279
 30
0.0
 40
5.4799744631082969
 50
124.216794190755607
 51
127.167091118900899
  0
ARC
  5
6AAF
  8
0
 10
443.4315625797848952
 20
51.6072769708980772
 30
0.0
 40
5.3479146110917517
 50
127.2198743751069969
 51
128.3672929470006068
  0
LINE
  5
6AB0
  8
0
 10
440.0864529879900147
 20
55.8225078590915302
 30
0.0
 11
440.0396444371899065
 21
55.7849244359915204
 31
0.0
  0
LINE
  5
6AB1
  8
0
 10
440.0396444371899065
 20
55.7849244359915204
 30
0.0
 11
440.0767360401371775
 21
55.7527946881213765
 31
0.0
  0
LINE
  5
6AB2
  8
0
 10
440.0864529879900147
 20
55.8225078590915302
 30
0.0
 11
440.1559586150900145
 21
55.7623001325915268
 31
0.0
  0
LINE
  5
6AB3
  8
0
 10
440.1967407323235761
 20
55.8659291406244805
 30
0.0
 11
440.2056771499899241
 21
55.8614929433915322
 31
0.0
  0
LINE
  5
6AB4
  8
0
 10
440.4666431210530959
 20
56.0261117998887812
 30
0.0
 11
440.43483024552188
 21
56.0261041883418685
 31
0.0
  0
LINE
  5
6AB5
  8
0
 10
440.9753493475050163
 20
56.3522067352494105
 30
0.0
 11
440.9753621869755875
 21
56.3397563731673401
 31
0.0
  0
LINE
  5
6AB6
  8
0
 10
444.2312677011898927
 20
57.086405125491531
 30
0.0
 11
444.2202689855125186
 21
57.0967437605040189
 31
0.0
  0
ARC
  5
6AB7
  8
0
 10
440.1245159275990773
 20
55.7263553149136897
 30
0.0
 40
0.047755837199936
 50
49.060783876244507
 51
127.9128541150062972
  0
LINE
  5
6AB8
  8
0
 10
440.0652372308603049
 20
55.7627503138984082
 30
0.0
 11
439.9575208916265865
 21
55.6729072274589214
 31
0.0
  0
ARC
  5
6AB9
  8
0
 10
441.1665907989291213
 20
53.9960458962483614
 30
0.0
 40
2.0672962934358479
 50
121.2163225830959021
 51
125.7927926547243942
  0
ARC
  5
6ABA
  8
0
 10
440.1197262324402004
 20
55.7425642576658191
 30
0.0
 40
0.0284757601574669
 50
24.1696703681124312
 51
85.332491506425086
  0
ARC
  5
6ABB
  8
0
 10
440.1185925644797976
 20
55.7286787680693081
 30
0.0
 40
0.042407451525676
 50
85.332491506425086
 51
123.5235828657103951
  0
LINE
  5
6ABC
  8
0
 10
440.0728883256617792
 20
55.7561276822804217
 30
0.0
 11
440.052439558911999
 21
55.7394770078219111
 31
0.0
  0
LINE
  5
6ABD
  8
0
 10
438.9019140771899856
 20
54.4786328427915265
 30
0.0
 11
438.8704430461581865
 21
54.4277635017755372
 31
0.0
  0
LINE
  5
6ABE
  8
0
 10
438.8704430461581865
 20
54.4277635017755372
 30
0.0
 11
438.9415765840137169
 21
54.3661456343500475
 31
0.0
  0
LINE
  5
6ABF
  8
0
 10
438.9019140771899856
 20
54.4786328427915265
 30
0.0
 11
438.9386447704551983
 21
54.4468157304729488
 31
0.0
  0
LINE
  5
6AC0
  8
0
 10
438.9291644697639754
 20
54.4550278214051104
 30
0.0
 11
438.9867342564854766
 21
54.5461983090009994
 31
0.0
  0
ARC
  5
6AC1
  8
0
 10
443.9515301188891954
 20
51.3405003348451885
 30
0.0
 40
5.9096268734577411
 50
148.7763649887187967
 51
158.1182595241153876
  0
ARC
  5
6AC2
  8
0
 10
442.1472768068182972
 20
52.8303137753483583
 30
0.0
 40
3.5882263727500678
 50
127.6084035748470029
 51
142.8247054069611011
  0
ARC
  5
6AC3
  8
0
 10
441.2870198025706827
 20
53.3396598247585914
 30
0.0
 40
2.597508172746843
 50
140.3098840347697944
 51
152.322233468342688
  0
LINE
  5
6AC4
  8
0
 10
438.9368939915572128
 20
54.4486488625987022
 30
0.0
 11
438.947519294065728
 21
54.4657488624574881
 31
0.0
  0
ARC
  5
6AC5
  8
0
 10
440.7077087881950206
 20
53.6575294862623409
 30
0.0
 40
1.936875219341881
 50
152.6892847397417938
 51
155.3370160149707999
  0
ARC
  5
6AC6
  8
0
 10
440.1252358114962817
 20
53.924981341558663
 30
0.0
 40
1.2959342989086979
 50
155.3370160149707999
 51
157.5535679909831117
  0
ARC
  5
6AC7
  8
0
 10
438.9607094933567168
 20
54.4091596184793929
 30
0.0
 40
0.0348845382800809
 50
162.250598838815506
 51
217.9687872182518902
  0
ARC
  5
6AC8
  8
0
 10
438.952848891276119
 20
54.4030251361902515
 30
0.0
 40
0.0249135334146652
 50
217.968787218252487
 51
261.1068747209662888
  0
ARC
  5
6AC9
  8
0
 10
438.9616231371853132
 20
54.4034705057812005
 30
0.0
 40
0.0380549648790962
 50
150.6819830794200072
 51
189.143567741501812
  0
ARC
  5
6ACA
  8
0
 10
438.9755071035410765
 20
54.4057051864392989
 30
0.0
 40
0.0521176217906446
 50
189.1435677415005046
 51
229.3971990719593066
  0
LINE
  5
6ACB
  8
0
 10
440.2010415419790093
 20
55.8554724944566203
 30
0.0
 11
440.235877238190028
 21
55.8253564751915334
 31
0.0
  0
LINE
  5
6ACC
  8
0
 10
440.2010415419790093
 20
55.8554724944566203
 30
0.0
 11
440.1197656745904965
 21
55.7936514873357368
 31
0.0
  0
ARC
  5
6ACD
  8
0
 10
483.4265857072136896
 20
1.001163926419451
 30
0.0
 40
69.7934766771296609
 50
128.2311749635381091
 51
128.3254642227952047
  0
ARC
  5
6ACE
  8
0
 10
443.1965609482741115
 20
51.8946905809619707
 30
0.0
 40
4.9197073443590682
 50
128.3254642227952047
 51
136.6940137700397884
  0
ARC
  5
6ACF
  8
0
 10
443.2229850206554147
 20
51.8697845818927306
 30
0.0
 40
4.9560190558424111
 50
136.6940137700397884
 51
149.754852376174
  0
ARC
  5
6AD0
  8
0
 10
436.1680959580521062
 20
55.9832736386952377
 30
0.0
 40
3.210513372677926
 50
327.9580971508365224
 51
329.7548523761740853
  0
LINE
  5
6AD1
  8
0
 10
438.8548238989898778
 20
54.3100322407915286
 30
0.0
 11
438.8894513809900104
 21
54.2800035064915321
 31
0.0
  0
LINE
  5
6AD2
  8
0
 10
438.9055226305623023
 20
54.3973765942343093
 30
0.0
 11
438.8548172846900002
 21
54.3100574743915274
 31
0.0
  0
ARC
  5
6AD3
  8
0
 10
445.7602990073712022
 20
27.0973761528543911
 30
0.0
 40
27.2375530687845213
 50
90.7319094072488355
 51
95.870208449213365
  0
ARC
  5
6AD4
  8
0
 10
443.5141860665955846
 20
47.9721898136972698
 30
0.0
 40
6.2432729269939573
 50
94.9583557737764039
 51
116.8052786241702989
  0
ARC
  5
6AD5
  8
0
 10
442.7128799482131853
 20
49.7641768053038334
 30
0.0
 40
4.283496171083212
 50
118.0481727137323986
 51
163.4764222028703102
  0
ARC
  5
6AD6
  8
0
 10
450.8860544549012843
 20
48.0831958564911233
 30
0.0
 40
12.6173888877909199
 50
166.7157589911726063
 51
186.6334272966782919
  0
ARC
  5
6AD7
  8
0
 10
461.4301523909668958
 20
49.3873095230078292
 30
0.0
 40
23.2416754282842
 50
186.8241470477545079
 51
201.7671321485618989
  0
ARC
  5
6AD8
  8
0
 10
447.9721195918820058
 20
43.9780523157170578
 30
0.0
 40
8.7373368246890895
 50
201.5516585928997131
 51
226.3741425765406916
  0
ARC
  5
6AD9
  8
0
 10
473.7436809737858994
 20
57.7827345782280517
 30
0.0
 40
37.928382106481763
 50
205.6139961270357901
 51
206.6531919183262005
  0
ARC
  5
6ADA
  8
0
 10
445.4858666938117722
 20
41.4031327436150889
 30
0.0
 40
5.1581250501890548
 50
226.6312264077284908
 51
258.3900380837770854
  0
ARC
  5
6ADB
  8
0
 10
445.560536659938407
 20
42.7590302447573123
 30
0.0
 40
6.5043757303616632
 50
260.149695089343993
 51
268.6947134582838999
  0
LINE
  5
6ADC
  8
0
 10
438.2775294839038907
 20
48.5560598977207221
 30
0.0
 11
437.971210023990011
 21
48.6825170598915093
 31
0.0
  0
ARC
  5
6ADD
  8
0
 10
445.5975899859261062
 20
29.8850700521436714
 30
0.0
 40
24.8064007091444907
 50
90.4278104535429037
 51
96.6302810655156463
  0
ARC
  5
6ADE
  8
0
 10
442.7051234863777722
 20
54.8336043472619679
 30
0.0
 40
0.309386719626838
 50
175.6606023066069895
 51
274.8142318118595995
  0
ARC
  5
6ADF
  8
0
 10
-921906.2665599418105558
 20
55.6857969715627874
 30
0.0
 40
922348.6631839872570708
 50
359.9999485164626094
 51
0.0000448478048605
  0
ARC
  5
6AE0
  8
0
 10
445.8563246377091218
 20
28.8173132088444888
 30
0.0
 40
26.0285199122050201
 50
90.9773116602159604
 51
96.8884751253505812
  0
ARC
  5
6AE1
  8
0
 10
442.7017168750920177
 20
54.88118357955058
 30
0.0
 40
0.2256375370492123
 50
176.686291781677312
 51
278.3639503843584748
  0
ARC
  5
6AE2
  8
0
 10
-514.0890215043912121
 20
47.7267817281686035
 30
0.0
 40
956.5923301806891459
 50
0.42930320559534
 51
0.533162412646346
  0
ARC
  5
6AE3
  8
0
 10
442.5144112545825124
 20
56.6271914812370767
 30
0.0
 40
0.0525275496824924
 50
116.3163825563210025
 51
178.9376509636184949
  0
ARC
  5
6AE4
  8
0
 10
443.0642921245752746
 20
52.9712313052197814
 30
0.0
 40
3.7471394893863841
 50
98.7985843930271983
 51
122.039293800778097
  0
ARC
  5
6AE5
  8
0
 10
442.6190030301426077
 20
52.9351619310410513
 30
0.0
 40
3.5636264791927972
 50
115.6495535726914028
 51
129.029578722045386
  0
ARC
  5
6AE6
  8
0
 10
440.7501307337644789
 20
52.5056984598205219
 30
0.0
 40
2.4338741159420252
 50
150.325838653566791
 51
153.8261790849213071
  0
ARC
  5
6AE7
  8
0
 10
439.0717660026865019
 20
53.4620179166164178
 30
0.0
 40
0.5021766567179449
 50
136.3725055494892899
 51
150.325838653566791
  0
ARC
  5
6AE8
  8
0
 10
438.7245650336865879
 20
53.7891296680892879
 30
0.0
 40
0.0253152522826976
 50
20.1747525899803186
 51
130.067038907587289
  0
ARC
  5
6AE9
  8
0
 10
438.5649186190615865
 20
53.7022321421935018
 30
0.0
 40
0.2068415934368596
 50
11.3410894644384097
 51
27.5373398145747608
  0
ARC
  5
6AEA
  8
0
 10
447.5504629163820027
 20
47.2975188344102122
 30
0.0
 40
11.0520778157772792
 50
130.4850148345880996
 51
136.9139951053290929
  0
ARC
  5
6AEB
  8
0
 10
446.3446972762436076
 20
49.6446816960829409
 30
0.0
 40
8.6142921173981062
 50
142.8478544540126904
 51
151.5919819183820039
  0
ARC
  5
6AEC
  8
0
 10
442.3326791939094846
 20
26.4762101018164699
 30
0.0
 40
29.9316160778146987
 50
89.8775957603826754
 51
90.5298368466937831
  0
ARC
  5
6AED
  8
0
 10
442.2186935989619201
 20
53.8086725675084807
 30
0.0
 40
2.602969895883199
 50
93.58584460822658
 51
116.0292654324087067
  0
ARC
  5
6AEE
  8
0
 10
443.5113479749754219
 20
51.0422234242570312
 30
0.0
 40
5.3563683510737556
 50
144.8312951617708109
 51
163.2804836315092984
  0
ARC
  5
6AEF
  8
0
 10
436.671304457503993
 20
55.7607464301706486
 30
0.0
 40
2.953985689676339
 50
326.3839860764604168
 51
337.6149803027494158
  0
ARC
  5
6AF0
  8
0
 10
441.4187192638952979
 20
53.5732677088955995
 30
0.0
 40
2.2788806872352709
 50
136.0558568157499906
 51
152.2091836831909006
  0
LINE
  5
6AF1
  8
0
 10
438.8650934604704048
 20
53.7107229139916527
 30
0.0
 11
438.8030107576414025
 21
53.7114080951614312
 31
0.0
  0
LINE
  5
6AF2
  8
0
 10
438.8030107576414025
 20
53.7114080951614312
 30
0.0
 11
438.7677209483899219
 21
53.7429079478915099
 31
0.0
  0
ARC
  5
6AF3
  8
0
 10
448.0613966624579234
 20
49.8659425839469321
 30
0.0
 40
10.0541174591438995
 50
164.3201940539343013
 51
173.0582269958266011
  0
ARC
  5
6AF4
  8
0
 10
453.8966145713707192
 20
49.1554866245877164
 30
0.0
 40
15.9324263753787392
 50
173.0582269958266011
 51
181.7011308294393075
  0
ARC
  5
6AF5
  8
0
 10
458.4894969568327951
 20
49.3632470077518803
 30
0.0
 40
20.5295760287538585
 50
181.9001904221206871
 51
204.7495718617925888
  0
LINE
  5
6AF6
  8
0
 10
442.4359937775899994
 20
55.0341571625915265
 30
0.0
 11
442.4359794770036274
 21
56.3486918655352866
 31
0.0
  0
LINE
  5
6AF7
  8
0
 10
442.4359794770036274
 20
56.3486918655352866
 30
0.0
 11
442.3966237608900087
 21
56.3486914373915369
 31
0.0
  0
LINE
  5
6AF8
  8
0
 10
442.4359937775899994
 20
55.0341571617915193
 30
0.0
 11
442.3966238152119104
 21
55.0341571621915193
 31
0.0
  0
LINE
  5
6AF9
  8
0
 10
442.4675462159822814
 20
55.998354223108052
 30
0.0
 11
442.435983288696093
 21
55.9983144822276202
 31
0.0
  0
LINE
  5
6AFA
  8
0
 10
442.4725340580350235
 20
55.3998893458488979
 30
0.0
 11
442.4359897988596799
 21
55.3998889482904673
 31
0.0
  0
LINE
  5
6AFB
  8
0
 10
435.1126045846492048
 20
49.8707422270059126
 30
0.0
 11
435.1126045846492048
 21
49.4489196127916415
 31
0.0
  0
LINE
  5
6AFC
  8
0
 10
438.7219642993478033
 20
43.6134597770921175
 30
0.0
 11
438.7588173674899963
 21
43.6689437449915232
 31
0.0
  0
ARC
  5
6AFD
  8
0
 10
454.2136241458471773
 20
48.0564032572947681
 30
0.0
 40
16.1161804273814617
 50
196.0026707420859964
 51
204.4494777240417136
  0
LINE
  5
6AFE
  8
0
 10
438.6781432215345831
 20
53.6177806103989525
 30
0.0
 11
438.8149258318339889
 21
53.6179371051223725
 31
0.0
  0
LINE
  5
6AFF
  8
0
 10
438.6781432215345831
 20
53.6177806103989525
 30
0.0
 11
438.6660512152428737
 21
53.616659450180812
 31
0.0
  0
ARC
  5
6B00
  8
0
 10
519.0289852578571299
 20
-163.0473487475503021
 30
0.0
 40
231.0876318980400015
 50
110.3503411052185044
 51
110.4037519217752958
  0
ARC
  5
6B01
  8
0
 10
447.1965378464055902
 20
30.0655744962309406
 30
0.0
 40
25.0475833034100503
 50
110.4037519217752958
 51
114.2553436048175968
  0
ARC
  5
6B02
  8
0
 10
438.1415950602154794
 20
50.1617969410061804
 30
0.0
 40
3.0055746514957691
 50
114.2553436048175968
 51
168.9644457851456139
  0
ARC
  5
6B03
  8
0
 10
440.2732075068229847
 20
49.8370057361869883
 30
0.0
 40
5.1607131940421169
 50
169.9553069202565041
 51
179.6254447332215136
  0
ARC
  5
6B04
  8
0
 10
441.2961534002051849
 20
48.4972785228376893
 30
0.0
 40
6.1363539155026947
 50
182.033741504197593
 51
201.1949779526734972
  0
ARC
  5
6B05
  8
0
 10
439.1331217423210092
 20
48.1360440815503097
 30
0.0
 40
4.0138076126158158
 50
207.5635912092222952
 51
241.2803380526474939
  0
ARC
  5
6B06
  8
0
 10
480.4150014902962766
 20
113.7956589241999978
 30
0.0
 40
81.5658071104813445
 50
238.0105023499064885
 51
239.2891207861430871
  0
ARC
  5
6B07
  8
0
 10
467.1791888921894724
 20
50.2632325462587275
 30
0.0
 40
32.0769221513878975
 50
181.4546815600018022
 51
183.545584025801503
  0
ARC
  5
6B08
  8
0
 10
438.169576749500095
 20
53.0861339426632171
 30
0.0
 40
0.2207409380410361
 50
340.8298927440648072
 51
110.7402709911673071
  0
ARC
  5
6B09
  8
0
 10
450.8492659846796187
 20
49.3431559774352166
 30
0.0
 40
13.0001179282569694
 50
163.5999073408295885
 51
179.9486909464750113
  0
ARC
  5
6B0A
  8
0
 10
459.5287847737233733
 20
49.7503160735285803
 30
0.0
 40
21.6832390784141005
 50
181.0451754101842141
 51
194.4966244848409929
  0
ARC
  5
6B0B
  8
0
 10
438.320948310118979
 20
44.2952575808031526
 30
0.0
 40
0.2166598585228275
 50
239.1480105515815069
 51
7.2242800168837871
  0
ARC
  5
6B0C
  8
0
 10
444.3911441239420128
 20
55.1697772278608198
 30
0.0
 40
12.6705817493239898
 50
231.3288752188076955
 51
240.8008388024261137
  0
ARC
  5
6B0D
  8
0
 10
438.6383051184312762
 20
47.8010051115414711
 30
0.0
 40
3.3247059434715429
 50
185.9313765651031929
 51
229.3833885008411073
  0
ARC
  5
6B0E
  8
0
 10
458.8338836612620071
 20
49.8303087735606383
 30
0.0
 40
23.6219669731519417
 50
179.5590531527998905
 51
185.7651889636541114
  0
ARC
  5
6B0F
  8
0
 10
438.2657892335504926
 20
50.0223025796827798
 30
0.0
 40
3.053190050862697
 50
163.1090900438431106
 51
180.1914413513989928
  0
ARC
  5
6B10
  8
0
 10
438.3984698623079908
 20
49.9633339829625598
 30
0.0
 40
3.1973301075445608
 50
119.9098507817310946
 51
162.7887836516183029
  0
ARC
  5
6B11
  8
0
 10
442.3243410560136795
 20
41.7590928175188623
 30
0.0
 40
12.2857168166038697
 50
110.1537922826195057
 51
116.6998517208205044
  0
LINE
  5
6B12
  8
0
 10
438.144090825255887
 20
51.5189165140688203
 30
0.0
 11
438.6062802673898773
 21
50.9824454575915098
 31
0.0
  0
LINE
  5
6B13
  8
0
 10
447.8708674210840854
 20
54.5508993809698381
 30
0.0
 11
447.8309069525899986
 21
54.3439829542915334
 31
0.0
  0
LINE
  5
6B14
  8
0
 10
447.8309069525899986
 20
54.3439829542915334
 30
0.0
 11
447.8501660340899093
 21
54.3439833995915365
 31
0.0
  0
LINE
  5
6B15
  8
0
 10
447.8501660340899093
 20
54.3439833995915365
 30
0.0
 11
447.8501698164898812
 21
54.1920990539915266
 31
0.0
  0
LINE
  5
6B16
  8
0
 10
442.9541787035436187
 20
54.5502254932678383
 30
0.0
 11
442.9938100625900006
 21
54.343983118991531
 31
0.0
  0
LINE
  5
6B17
  8
0
 10
442.9938100625900006
 20
54.343983118991531
 30
0.0
 11
443.0261487465899108
 21
54.3439836701915269
 31
0.0
  0
LINE
  5
6B18
  8
0
 10
443.0261487465899108
 20
54.3439836701915269
 30
0.0
 11
443.0261566532802249
 21
54.1973533255831299
 31
0.0
  0
ARC
  5
6B19
  8
0
 10
439.2884160163221736
 20
44.0520837764589785
 30
0.0
 40
0.7058515710421572
 50
207.4615146422121086
 51
212.6806556235943901
  0
ARC
  5
6B1A
  8
0
 10
438.7748631872502187
 20
43.7271548757775292
 30
0.0
 40
0.0982240651718114
 50
214.9010818282361015
 51
247.466372150142206
  0
ENDSEC
  0
EOF
