  0
SECTION
  2
HEADER
  9
$ACADVER
  1
AC1009
  9
$INSBASE
 10
3667.1498997626808887
 20
323.1482031690476902
 30
0.0
  9
$EXTMIN
 10
3657.5451906064758987
 20
316.3831550394365877
 30
-0.0000000000000058
  9
$EXTMAX
 10
3676.7579073271290326
 20
329.9207348280837095
 30
0.0000000000000104
  9
$LIMMIN
 10
0.0
 20
0.0
  9
$LIMMAX
 10
11.6929133858000007
 20
8.2677165353999982
  9
$ORTHOMODE
 70
     0
  9
$REGENMODE
 70
     1
  9
$FILLMODE
 70
     1
  9
$QTEXTMODE
 70
     0
  9
$MIRRTEXT
 70
     0
  9
$DRAGMODE
 70
     2
  9
$LTSCALE
 40
0.6431102362
  9
$OSMODE
 70
  4095
  9
$ATTMODE
 70
     1
  9
$TEXTSIZE
 40
0.2
  9
$TRACEWID
 40
0.05
  9
$TEXTSTYLE
  7
STANDARD
  9
$CLAYER
  8
0
  9
$CELTYPE
  6
BYLAYER
  9
$CECOLOR
 62
   256
  9
$DIMSCALE
 40
1.0
  9
$DIMASZ
 40
0.1875
  9
$DIMEXO
 40
0.0625
  9
$DIMDLI
 40
0.4443307087
  9
$DIMRND
 40
0.0
  9
$DIMDLE
 40
0.0
  9
$DIMEXE
 40
0.125
  9
$DIMTP
 40
0.01
  9
$DIMTM
 40
0.01
  9
$DIMTXT
 40
2.0
  9
$DIMCEN
 40
0.1052362205
  9
$DIMTSZ
 40
0.0
  9
$DIMTOL
 70
     1
  9
$DIMLIM
 70
     0
  9
$DIMTIH
 70
     1
  9
$DIMTOH
 70
     1
  9
$DIMSE1
 70
     0
  9
$DIMSE2
 70
     0
  9
$DIMTAD
 70
     0
  9
$DIMZIN
 70
     0
  9
$DIMBLK
  1

  9
$DIMASO
 70
     1
  9
$DIMSHO
 70
     1
  9
$DIMPOST
  1
\X
  9
$DIMAPOST
  1

  9
$DIMALT
 70
     1
  9
$DIMALTD
 70
     2
  9
$DIMALTF
 40
25.3999999999999986
  9
$DIMLFAC
 40
1.0
  9
$DIMTOFL
 70
     0
  9
$DIMTVP
 40
0.0
  9
$DIMTIX
 70
     0
  9
$DIMSOXD
 70
     0
  9
$DIMSAH
 70
     0
  9
$DIMBLK1
  1

  9
$DIMBLK2
  1

  9
$DIMSTYLE
  2
STANDARD
  9
$DIMCLRD
 70
     0
  9
$DIMCLRE
 70
     0
  9
$DIMCLRT
 70
     0
  9
$DIMTFAC
 40
1.0
  9
$DIMGAP
 40
0.09
  9
$LUNITS
 70
     2
  9
$LUPREC
 70
     4
  9
$SKETCHINC
 40
0.1
  9
$FILLETRAD
 40
0.0
  9
$AUNITS
 70
     0
  9
$AUPREC
 70
     0
  9
$MENU
  1
.
  9
$ELEVATION
 40
0.0
  9
$PELEVATION
 40
0.0
  9
$THICKNESS
 40
0.0
  9
$LIMCHECK
 70
     0
  9
$BLIPMODE
 70
     0
  9
$CHAMFERA
 40
0.0
  9
$CHAMFERB
 40
0.0
  9
$SKPOLY
 70
     0
  9
$TDCREATE
 40
2458060.468368056230247
  9
$TDUPDATE
 40
2460956.8129050931893289
  9
$TDINDWG
 40
0.5646366898
  9
$TDUSRTIMER
 40
0.5646366898
  9
$USRTIMER
 70
     1
  9
$ANGBASE
 50
0.0
  9
$ANGDIR
 70
     0
  9
$PDMODE
 70
     0
  9
$PDSIZE
 40
0.3125
  9
$PLINEWID
 40
0.0
  9
$COORDS
 70
     1
  9
$SPLFRAME
 70
     0
  9
$SPLINETYPE
 70
     6
  9
$SPLINESEGS
 70
     8
  9
$ATTDIA
 70
     1
  9
$ATTREQ
 70
     1
  9
$HANDLING
 70
     1
  9
$HANDSEED
  5
E1DC
  9
$SURFTAB1
 70
     6
  9
$SURFTAB2
 70
     6
  9
$SURFTYPE
 70
     6
  9
$SURFU
 70
     6
  9
$SURFV
 70
     6
  9
$UCSNAME
  2

  9
$UCSORG
 10
0.0
 20
0.0
 30
0.0
  9
$UCSXDIR
 10
1.0
 20
0.0
 30
0.0
  9
$UCSYDIR
 10
0.0
 20
1.0
 30
0.0
  9
$PUCSNAME
  2

  9
$PUCSORG
 10
0.0
 20
0.0
 30
0.0
  9
$PUCSXDIR
 10
1.0
 20
0.0
 30
0.0
  9
$PUCSYDIR
 10
0.0
 20
1.0
 30
0.0
  9
$USERI1
 70
     0
  9
$USERI2
 70
     0
  9
$USERI3
 70
     0
  9
$USERI4
 70
     0
  9
$USERI5
 70
     0
  9
$USERR1
 40
0.0
  9
$USERR2
 40
0.0
  9
$USERR3
 40
0.0
  9
$USERR4
 40
0.0
  9
$USERR5
 40
0.0
  9
$WORLDVIEW
 70
     1
  9
$SHADEDGE
 70
     3
  9
$SHADEDIF
 70
    70
  9
$TILEMODE
 70
     1
  9
$MAXACTVP
 70
    64
  9
$PLIMCHECK
 70
     0
  9
$PEXTMIN
 10
1.0000000000000000E+20
 20
1.0000000000000000E+20
 30
1.0000000000000000E+20
  9
$PEXTMAX
 10
-1.0000000000000000E+20
 20
-1.0000000000000000E+20
 30
-1.0000000000000000E+20
  9
$PLIMMIN
 10
0.0
 20
0.0
  9
$PLIMMAX
 10
12.0
 20
9.0
  9
$UNITMODE
 70
     0
  9
$VISRETAIN
 70
     1
  9
$PLINEGEN
 70
     0
  9
$PSLTSCALE
 70
     1
  0
ENDSEC
  0
SECTION
  2
TABLES
  0
TABLE
  2
VPORT
 70
     1
  0
VPORT
  2
*ACTIVE
 70
     0
 10
0.0
 20
0.0
 11
1.0
 21
1.0
 12
589.2816759199266698
 22
32.7855508907913986
 13
0.0
 23
0.0
 14
1.0
 24
1.0
 15
0.0
 25
0.0
 16
0.0
 26
0.0
 36
38.8639293105787971
 17
3077.869873046875
 27
290.3663940429686932
 37
0.0
 40
13.6365145983083593
 41
2.2939024390243898
 42
50.0
 43
0.0
 44
0.0
 50
0.0
 51
0.0
 71
     0
 72
   100
 73
     1
 74
     1
 75
     0
 76
     0
 77
     0
 78
     0
  0
ENDTAB
  0
TABLE
  2
LTYPE
 70
     2
  0
LTYPE
  2
CONTINUOUS
 70
     0
  3
Solid line
 72
    65
 73
     0
 40
0.0
  0
LTYPE
  2
PHANTOM2
 70
     0
  3
___ _ _ ___ _ _ ___ _ _ ___ _ _
 72
    65
 73
     6
 40
1.25
 49
0.625
 49
-0.125
 49
0.125
 49
-0.125
 49
0.125
 49
-0.125
  0
ENDTAB
  0
TABLE
  2
LAYER
 70
     2
  0
LAYER
  2
0
 70
     0
 62
   255
  6
CONTINUOUS
  0
LAYER
  2
DEFPOINTS
 70
     0
 62
     7
  6
CONTINUOUS
  0
ENDTAB
  0
TABLE
  2
STYLE
 70
     1
  0
STYLE
  2
STANDARD
 70
     0
 40
0.0
 41
0.8
 50
0.0
 71
     0
 42
0.2
  3
txt
  4

  0
ENDTAB
  0
TABLE
  2
VIEW
 70
     0
  0
ENDTAB
  0
TABLE
  2
UCS
 70
     0
  0
ENDTAB
  0
TABLE
  2
APPID
 70
     9
  0
APPID
  2
ACAD
 70
     0
  0
APPID
  2
ACAD_MLEADERVER
 70
     0
  0
APPID
  2
ACAD_EXEMPT_FROM_CAD_STANDARDS
 70
     0
  0
APPID
  2
ACAD_NAV_VCDISPLAY
 70
     0
  0
APPID
  2
ACAECLAYERSTANDARD
 70
     0
  0
APPID
  2
ACCMTRANSPARENCY
 70
     0
  0
APPID
  2
ACAD_DSTYLE_DIMJAG
 70
     0
  0
APPID
  2
ACAD_DSTYLE_DIMTALN
 70
     0
  0
APPID
  2
ACDBATTR
 70
     0
  0
ENDTAB
  0
TABLE
  2
DIMSTYLE
 70
     1
  0
DIMSTYLE
  2
STANDARD
 70
     0
  3

  4

  5

  6

  7

 40
1.0
 41
0.1875
 42
0.0625
 43
0.38
 44
0.125
 45
0.0
 46
0.0
 47
0.01
 48
0.01
140
0.15625
141
0.09
142
0.0
143
25.3999999999999986
144
1.0
145
0.0
146
1.0
147
0.09
 71
     1
 72
     0
 73
     1
 74
     1
 75
     0
 76
     0
 77
     0
 78
     4
170
     0
171
     2
172
     0
173
     0
174
     0
175
     0
176
     0
177
     0
178
     0
  0
ENDTAB
  0
ENDSEC
  0
SECTION
  2
BLOCKS
  0
BLOCK
  8
0
  2
$MODEL_SPACE
 70
     0
 10
0.0
 20
0.0
 30
0.0
  3
$MODEL_SPACE
  1

  0
ENDBLK
  5
21
  8
0
  0
BLOCK
 67
     1
  8
0
  2
$PAPER_SPACE
 70
     0
 10
0.0
 20
0.0
 30
0.0
  3
$PAPER_SPACE
  1

  0
ENDBLK
  5
1D
 67
     1
  8
0
  0
BLOCK
  8
0
  2
_FILLED
 70
     0
 10
0.0
 20
0.0
 30
0.0
  3
_FILLED
  1

  0
SOLID
  5
A02F
  8
0
  6
BYBLOCK
 62
     0
 10
0.0
 20
0.0
 30
0.0
 11
-1.0
 21
0.1666666667
 31
0.0
 12
-1.0
 22
-0.1666666667
 32
0.0
 13
-1.0
 23
-0.1666666667
 33
0.0
  0
ENDBLK
  5
A030
  8
0
  6
BYBLOCK
 62
     0
  0
ENDSEC
  0
SECTION
  2
ENTITIES
  0
ATTDEF
  5
3930
  8
DEFPOINTS
 10
3667.1398728809522254
 20
323.1517765870763128
 30
0.0
 40
0.001
  1
K-31459IN
  3

  2
MODELNUMBER
 70
     0
1001
ACDBATTR
1070
     0
1070
     1
  0
ATTDEF
  5
3931
  8
DEFPOINTS
 10
3667.1398728809522254
 20
323.1501099204097045
 30
0.0
 40
0.001
  1
KOHLER
  3

  2
BRANDNAME
 70
     0
1001
ACDBATTR
1070
     0
1070
     1
  0
ATTDEF
  5
3932
  8
DEFPOINTS
 10
3667.1398728809522254
 20
323.1484432537429825
 30
0.0
 40
0.001
  1
BATHROOM SINK
  3

  2
PRODUCT
 70
     0
1001
ACDBATTR
1070
     0
1070
     1
  0
ARC
  5
E0A7
  8
0
 10
3765.1983543801279666
 20
322.2967035145812247
 30
0.0
 40
107.5657334051150968
 50
178.5206136485300874
 51
179.2705290529196986
  0
ARC
  5
E0A8
  8
0
 10
3667.0809950295038107
 20
324.8306728421168827
 30
0.0
 40
9.4156584866913047
 50
172.8909256341592879
 51
178.5206136485300874
  0
ARC
  5
E0A9
  8
0
 10
3662.3977898173320682
 20
325.3122855106631732
 30
0.0
 40
4.709950002419653
 50
157.6735369651661927
 51
171.6539464966216997
  0
ARC
  5
E0AA
  8
0
 10
3662.1283120018661066
 20
325.4240000179963204
 30
0.0
 40
4.4182353781961847
 50
130.9011970030582006
 51
157.6861107296992941
  0
ARC
  5
E0AB
  8
0
 10
3662.1140767336678437
 20
325.4720218508225003
 30
0.0
 40
4.3726668466545
 50
111.0166660125696012
 51
131.1722111899318861
  0
ARC
  5
E0AC
  8
0
 10
3662.1952539258168144
 20
325.1620539773040832
 30
0.0
 40
4.691261297307336
 50
94.5544128659710736
 51
110.5844363195632951
  0
ARC
  5
E0AD
  8
0
 10
3663.5863987409538822
 20
298.1858716232667916
 30
0.0
 40
31.7017271057586392
 50
89.8237713423795014
 51
93.189175524723538
  0
ARC
  5
E0AE
  8
0
 10
3635.0301621557009639
 20
8885.1822186194094684
 30
0.0
 40
8555.3427538565829309
 50
270.1918966540184783
 51
270.2151088249848954
  0
LINE
  5
E0AF
  8
0
 10
3657.6330720750288492
 20
323.1482031690476902
 30
0.0
 11
3657.641338813431048
 21
323.6661579189477038
 31
0.0
  0
ARC
  5
E0B0
  8
0
 10
3765.1983543801279666
 20
323.9997028235143262
 30
0.0
 40
107.5657334051150968
 50
180.7294709470801877
 51
181.4793863514699126
  0
ARC
  5
E0B1
  8
0
 10
3667.0809950295038107
 20
321.4657334959786112
 30
0.0
 40
9.4156584866913047
 50
181.4793863514699126
 51
187.1090743658407121
  0
ARC
  5
E0B2
  8
0
 10
3662.3977898173320682
 20
320.9841208274323208
 30
0.0
 40
4.709950002419653
 50
188.3460535033781866
 51
202.3264630348338073
  0
ARC
  5
E0B3
  8
0
 10
3662.1283120018661066
 20
320.8724063200991736
 30
0.0
 40
4.4182353781961847
 50
202.3138892703007059
 51
229.0988029969417994
  0
ARC
  5
E0B4
  8
0
 10
3662.1140767336678437
 20
320.8243844872729937
 30
0.0
 40
4.3726668466545
 50
228.8277888100681139
 51
248.9833339874303988
  0
ARC
  5
E0B5
  8
0
 10
3662.1952539258168144
 20
321.1343523607914108
 30
0.0
 40
4.691261297307336
 50
249.4155636804366907
 51
265.4455871340289264
  0
ARC
  5
E0B6
  8
0
 10
3663.5863987409538822
 20
348.1105347148285887
 30
0.0
 40
31.7017271057586392
 50
266.8108244752763767
 51
270.1762286576204133
  0
ARC
  5
E0B7
  8
0
 10
3635.0301621557009639
 20
-8238.8858122813144291
 30
0.0
 40
8555.3427538565829309
 50
89.7848911750150336
 51
89.8081033459814364
  0
LINE
  5
E0B8
  8
0
 10
3657.6330720750288492
 20
323.1482031690476902
 30
0.0
 11
3657.641338813431048
 21
322.6302484191477902
 31
0.0
  0
ARC
  5
E0B9
  8
0
 10
3569.101445145235175
 20
322.2967035145812247
 30
0.0
 40
107.5657334051150968
 50
0.7294709470802468
 51
1.4793863514698999
  0
ARC
  5
E0BA
  8
0
 10
3667.2188044958579667
 20
324.8306728421168827
 30
0.0
 40
9.4156584866913047
 50
1.4793863514698999
 51
7.1090743658407076
  0
ARC
  5
E0BB
  8
0
 10
3671.9020097080301639
 20
325.3122855106631732
 30
0.0
 40
4.709950002419653
 50
8.3460535033782612
 51
22.3264630348337612
  0
ARC
  5
E0BC
  8
0
 10
3672.1714875234961255
 20
325.4240000179963204
 30
0.0
 40
4.4182353781961847
 50
22.3138892703006917
 51
49.0988029969418278
  0
ARC
  5
E0BD
  8
0
 10
3672.1857227916939337
 20
325.4720218508225003
 30
0.0
 40
4.3726668466545
 50
48.8277888100680997
 51
68.9833339874304272
  0
ARC
  5
E0BE
  8
0
 10
3672.1045455995458724
 20
325.1620539773040832
 30
0.0
 40
4.691261297307336
 50
69.4155636804366765
 51
85.4455871340289548
  0
ARC
  5
E0BF
  8
0
 10
3670.7134007844078951
 20
298.1858716232667916
 30
0.0
 40
31.7017271057586392
 50
86.8108244752764762
 51
90.1762286576205128
  0
ARC
  5
E0C0
  8
0
 10
3699.2696373696608134
 20
8885.1822186194094684
 30
0.0
 40
8555.3427538565829309
 50
269.7848911750149909
 51
269.8081033459815217
  0
LINE
  5
E0C1
  8
0
 10
3676.6667274503329281
 20
323.1482031690476902
 30
0.0
 11
3676.6584607119311841
 21
323.6661579189477038
 31
0.0
  0
ARC
  5
E0C2
  8
0
 10
3569.101445145235175
 20
323.9997028235143262
 30
0.0
 40
107.5657334051150968
 50
358.5206136485301158
 51
359.2705290529198123
  0
ARC
  5
E0C3
  8
0
 10
3667.2188044958579667
 20
321.4657334959786112
 30
0.0
 40
9.4156584866913047
 50
352.8909256341593164
 51
358.5206136485301158
  0
ARC
  5
E0C4
  8
0
 10
3671.9020097080301639
 20
320.9841208274323208
 30
0.0
 40
4.709950002419653
 50
337.6735369651663063
 51
351.6539464966216997
  0
ARC
  5
E0C5
  8
0
 10
3672.1714875234961255
 20
320.8724063200991736
 30
0.0
 40
4.4182353781961847
 50
310.9011970030580869
 51
337.6861107296992941
  0
ARC
  5
E0C6
  8
0
 10
3672.1857227916939337
 20
320.8243844872729937
 30
0.0
 40
4.3726668466545
 50
291.0166660125696012
 51
311.1722111899318861
  0
ARC
  5
E0C7
  8
0
 10
3672.1045455995458724
 20
321.1343523607914108
 30
0.0
 40
4.691261297307336
 50
274.5544128659710736
 51
290.5844363195632809
  0
ARC
  5
E0C8
  8
0
 10
3670.7134007844078951
 20
348.1105347148285887
 30
0.0
 40
31.7017271057586392
 50
269.823771342379473
 51
273.1891755247235096
  0
ARC
  5
E0C9
  8
0
 10
3699.2696373696608134
 20
-8238.8858122813144291
 30
0.0
 40
8555.3427538565829309
 50
90.1918966540185494
 51
90.2151088249849806
  0
LINE
  5
E0CA
  8
0
 10
3676.6667274503329281
 20
323.1482031690476902
 30
0.0
 11
3676.6584607119311841
 21
322.6302484191477902
 31
0.0
  0
CIRCLE
  5
E0CB
  8
0
 10
3667.1498997626808887
 20
323.1482031690476902
 30
0.0
 40
0.8749999999999998
  0
CIRCLE
  5
E0CC
  8
0
 10
3667.1498997626808887
 20
323.1482031690476902
 30
0.0
 40
1.1440310356094769
  0
ENDSEC
  0
EOF
