  0
SECTION
  2
HEADER
  9
$ACADVER
  1
AC1009
  9
$INSBASE
 10
5285.2533894475618581
 20
354.0325795831071787
 30
0.0
  9
$EXTMIN
 10
5273.7121789516131685
 20
354.0146157712804893
 30
-0.0000000000112498
  9
$EXTMAX
 10
5296.7457186376686877
 20
384.906762943283411
 30
0.0000000000002956
  9
$LIMMIN
 10
0.0
 20
0.0
  9
$LIMMAX
 10
11.6929133858000007
 20
8.2677165353999982
  9
$ORTHOMODE
 70
     0
  9
$REGENMODE
 70
     1
  9
$FILLMODE
 70
     1
  9
$QTEXTMODE
 70
     0
  9
$MIRRTEXT
 70
     0
  9
$DRAGMODE
 70
     2
  9
$LTSCALE
 40
0.6431102362
  9
$OSMODE
 70
  4095
  9
$ATTMODE
 70
     1
  9
$TEXTSIZE
 40
0.2
  9
$TRACEWID
 40
0.05
  9
$TEXTSTYLE
  7
STANDARD
  9
$CLAYER
  8
0
  9
$CELTYPE
  6
BYLAYER
  9
$CECOLOR
 62
   256
  9
$DIMSCALE
 40
1.0
  9
$DIMASZ
 40
0.1875
  9
$DIMEXO
 40
0.0625
  9
$DIMDLI
 40
0.4443307087
  9
$DIMRND
 40
0.0
  9
$DIMDLE
 40
0.0
  9
$DIMEXE
 40
0.125
  9
$DIMTP
 40
0.01
  9
$DIMTM
 40
0.01
  9
$DIMTXT
 40
2.0
  9
$DIMCEN
 40
0.1052362205
  9
$DIMTSZ
 40
0.0
  9
$DIMTOL
 70
     1
  9
$DIMLIM
 70
     0
  9
$DIMTIH
 70
     1
  9
$DIMTOH
 70
     1
  9
$DIMSE1
 70
     0
  9
$DIMSE2
 70
     0
  9
$DIMTAD
 70
     0
  9
$DIMZIN
 70
     0
  9
$DIMBLK
  1

  9
$DIMASO
 70
     1
  9
$DIMSHO
 70
     1
  9
$DIMPOST
  1
\X
  9
$DIMAPOST
  1

  9
$DIMALT
 70
     1
  9
$DIMALTD
 70
     2
  9
$DIMALTF
 40
25.3999999999999986
  9
$DIMLFAC
 40
1.0
  9
$DIMTOFL
 70
     0
  9
$DIMTVP
 40
0.0
  9
$DIMTIX
 70
     0
  9
$DIMSOXD
 70
     0
  9
$DIMSAH
 70
     0
  9
$DIMBLK1
  1

  9
$DIMBLK2
  1

  9
$DIMSTYLE
  2
STANDARD
  9
$DIMCLRD
 70
     0
  9
$DIMCLRE
 70
     0
  9
$DIMCLRT
 70
     0
  9
$DIMTFAC
 40
1.0
  9
$DIMGAP
 40
0.09
  9
$LUNITS
 70
     2
  9
$LUPREC
 70
     4
  9
$SKETCHINC
 40
0.1
  9
$FILLETRAD
 40
0.0
  9
$AUNITS
 70
     0
  9
$AUPREC
 70
     0
  9
$MENU
  1
.
  9
$ELEVATION
 40
0.0
  9
$PELEVATION
 40
0.0
  9
$THICKNESS
 40
0.0
  9
$LIMCHECK
 70
     0
  9
$BLIPMODE
 70
     0
  9
$CHAMFERA
 40
0.0
  9
$CHAMFERB
 40
0.0
  9
$SKPOLY
 70
     0
  9
$TDCREATE
 40
2458060.468368056230247
  9
$TDUPDATE
 40
2460872.6659375000745058
  9
$TDINDWG
 40
0.5465232638999999
  9
$TDUSRTIMER
 40
0.5465232638999999
  9
$USRTIMER
 70
     1
  9
$ANGBASE
 50
0.0
  9
$ANGDIR
 70
     0
  9
$PDMODE
 70
     0
  9
$PDSIZE
 40
0.3125
  9
$PLINEWID
 40
0.0
  9
$COORDS
 70
     1
  9
$SPLFRAME
 70
     0
  9
$SPLINETYPE
 70
     6
  9
$SPLINESEGS
 70
     8
  9
$ATTDIA
 70
     1
  9
$ATTREQ
 70
     1
  9
$HANDLING
 70
     1
  9
$HANDSEED
  5
23821
  9
$SURFTAB1
 70
     6
  9
$SURFTAB2
 70
     6
  9
$SURFTYPE
 70
     6
  9
$SURFU
 70
     6
  9
$SURFV
 70
     6
  9
$UCSNAME
  2

  9
$UCSORG
 10
0.0
 20
0.0
 30
0.0
  9
$UCSXDIR
 10
1.0
 20
0.0
 30
0.0
  9
$UCSYDIR
 10
0.0
 20
1.0
 30
0.0
  9
$PUCSNAME
  2

  9
$PUCSORG
 10
0.0
 20
0.0
 30
0.0
  9
$PUCSXDIR
 10
1.0
 20
0.0
 30
0.0
  9
$PUCSYDIR
 10
0.0
 20
1.0
 30
0.0
  9
$USERI1
 70
     0
  9
$USERI2
 70
     0
  9
$USERI3
 70
     0
  9
$USERI4
 70
     0
  9
$USERI5
 70
     0
  9
$USERR1
 40
0.0
  9
$USERR2
 40
0.0
  9
$USERR3
 40
0.0
  9
$USERR4
 40
0.0
  9
$USERR5
 40
0.0
  9
$WORLDVIEW
 70
     1
  9
$SHADEDGE
 70
     3
  9
$SHADEDIF
 70
    70
  9
$TILEMODE
 70
     1
  9
$MAXACTVP
 70
    64
  9
$PLIMCHECK
 70
     0
  9
$PEXTMIN
 10
1.0000000000000000E+20
 20
1.0000000000000000E+20
 30
1.0000000000000000E+20
  9
$PEXTMAX
 10
-1.0000000000000000E+20
 20
-1.0000000000000000E+20
 30
-1.0000000000000000E+20
  9
$PLIMMIN
 10
0.0
 20
0.0
  9
$PLIMMAX
 10
12.0
 20
9.0
  9
$UNITMODE
 70
     0
  9
$VISRETAIN
 70
     1
  9
$PLINEGEN
 70
     0
  9
$PSLTSCALE
 70
     1
  0
ENDSEC
  0
SECTION
  2
TABLES
  0
TABLE
  2
VPORT
 70
     1
  0
VPORT
  2
*ACTIVE
 70
     0
 10
0.0
 20
0.0
 11
1.0
 21
1.0
 12
884.0905461994160532
 22
120.0383329271389954
 13
0.0
 23
0.0
 14
1.0
 24
1.0
 15
0.0
 25
0.0
 16
0.0
 26
0.0
 36
0.0438225416440575
 17
4401.1384025952247612
 27
249.4223564301429121
 37
0.0
 40
31.1257990553425792
 41
2.204387990762124
 42
50.0
 43
0.0
 44
0.0
 50
0.0
 51
0.0
 71
     0
 72
   100
 73
     1
 74
     1
 75
     0
 76
     0
 77
     0
 78
     0
  0
ENDTAB
  0
TABLE
  2
LTYPE
 70
     2
  0
LTYPE
  2
CONTINUOUS
 70
     0
  3
Solid line
 72
    65
 73
     0
 40
0.0
  0
LTYPE
  2
PHANTOM2
 70
     0
  3
___ _ _ ___ _ _ ___ _ _ ___ _ _
 72
    65
 73
     6
 40
1.25
 49
0.625
 49
-0.125
 49
0.125
 49
-0.125
 49
0.125
 49
-0.125
  0
ENDTAB
  0
TABLE
  2
LAYER
 70
     2
  0
LAYER
  2
0
 70
     0
 62
   255
  6
CONTINUOUS
  0
LAYER
  2
DEFPOINTS
 70
     0
 62
     7
  6
CONTINUOUS
  0
ENDTAB
  0
TABLE
  2
STYLE
 70
     1
  0
STYLE
  2
STANDARD
 70
     0
 40
0.0
 41
0.8
 50
0.0
 71
     0
 42
0.2
  3
txt
  4

  0
ENDTAB
  0
TABLE
  2
VIEW
 70
     0
  0
ENDTAB
  0
TABLE
  2
UCS
 70
     0
  0
ENDTAB
  0
TABLE
  2
APPID
 70
    11
  0
APPID
  2
ACAD
 70
     0
  0
APPID
  2
ACAD_MLEADERVER
 70
     0
  0
APPID
  2
ACAD_EXEMPT_FROM_CAD_STANDARDS
 70
     0
  0
APPID
  2
ACAD_NAV_VCDISPLAY
 70
     0
  0
APPID
  2
ACAECLAYERSTANDARD
 70
     0
  0
APPID
  2
ACCMTRANSPARENCY
 70
     0
  0
APPID
  2
ACAD_DSTYLE_DIMJAG
 70
     0
  0
APPID
  2
ACAD_DSTYLE_DIMTALN
 70
     0
  0
APPID
  2
ACDBATTR
 70
     0
  0
APPID
  2
ACADANNOTATIVE
 70
     0
  0
APPID
  2
DCO15
 70
     0
  0
ENDTAB
  0
TABLE
  2
DIMSTYLE
 70
     1
  0
DIMSTYLE
  2
STANDARD
 70
     0
  3

  4

  5

  6

  7

 40
1.0
 41
0.1875
 42
0.0625
 43
0.38
 44
0.125
 45
0.0
 46
0.0
 47
0.01
 48
0.01
140
0.15625
141
0.09
142
0.0
143
25.3999999999999986
144
1.0
145
0.0
146
1.0
147
0.09
 71
     1
 72
     0
 73
     1
 74
     1
 75
     0
 76
     0
 77
     0
 78
     4
170
     0
171
     2
172
     0
173
     0
174
     0
175
     0
176
     0
177
     0
178
     0
  0
ENDTAB
  0
ENDSEC
  0
SECTION
  2
BLOCKS
  0
BLOCK
  8
0
  2
$MODEL_SPACE
 70
     0
 10
0.0
 20
0.0
 30
0.0
  3
$MODEL_SPACE
  1

  0
ENDBLK
  5
21
  8
0
  0
BLOCK
 67
     1
  8
0
  2
$PAPER_SPACE
 70
     0
 10
0.0
 20
0.0
 30
0.0
  3
$PAPER_SPACE
  1

  0
ENDBLK
  5
1D
 67
     1
  8
0
  0
BLOCK
  8
0
  2
_FILLED
 70
     0
 10
0.0
 20
0.0
 30
0.0
  3
_FILLED
  1

  0
SOLID
  5
1C78F
  8
0
  6
BYBLOCK
 62
     0
 10
0.0
 20
0.0
 30
0.0
 11
-1.0
 21
0.1666666667
 31
0.0
 12
-1.0
 22
-0.1666666667
 32
0.0
 13
-1.0
 23
-0.1666666667
 33
0.0
  0
ENDBLK
  5
1C790
  8
0
  6
BYBLOCK
 62
     0
  0
BLOCK
  8
0
  2
A$C7F15AD85
 70
     0
 10
0.0
 20
0.0
 30
0.0
  3
A$C7F15AD85
  1

  0
LINE
  5
20243
  8
0
 10
62.0906082462148206
 20
59.3173192915490617
 30
0.0
 11
72.6029795390148251
 21
59.3173192915490617
 31
0.0
  0
LINE
  5
20244
  8
0
 10
72.6029795390148251
 20
59.3173192915490617
 30
0.0
 11
72.5988209772148139
 21
59.4756333305490585
 31
0.0
  0
ARC
  5
20245
  8
0
 10
72.4209256277084705
 20
59.470960410765521
 30
0.0
 40
0.1779567125884602
 50
1.504688167403621
 51
9.2765679984859073
  0
ARC
  5
20246
  8
0
 10
72.5305845228772341
 20
59.4859493088073208
 30
0.0
 40
0.0673775113740249
 50
11.7299266410828693
 51
91.1751163334543264
  0
LINE
  5
20247
  8
0
 10
72.5150232143565034
 20
59.5535395956490632
 30
0.0
 11
62.174726524114817
 21
59.5535395956490632
 31
0.0
  0
ARC
  5
20248
  8
0
 10
62.174726524114817
 20
59.3881778114397179
 30
0.0
 40
0.1653617842093435
 50
90.0
 51
99.2604675218546504
  0
ARC
  5
20249
  8
0
 10
62.1619735116128282
 20
59.4866364757033068
 30
0.0
 40
0.0662142564502852
 50
102.0803055143200027
 51
165.2084110831723081
  0
ARC
  5
2024A
  8
0
 10
62.2186946374098468
 20
59.4755607018326486
 30
0.0
 40
0.1239408047743584
 50
166.9525928490197089
 51
179.9662680936343975
  0
LINE
  5
2024B
  8
0
 10
62.0947538541148205
 20
59.4756336698490671
 30
0.0
 11
62.0906082462148206
 21
59.3173192915490617
 31
0.0
  0
LINE
  5
2024C
  8
0
 10
66.559598464340894
 20
59.5535395956490632
 30
0.0
 11
66.5604245493607465
 21
59.6481995668371496
 31
0.0
  0
LINE
  5
2024D
  8
0
 10
66.6811921381307542
 20
59.5535395956490632
 30
0.0
 11
66.6827653702949306
 21
59.6478995636976705
 31
0.0
  0
ARC
  5
2024E
  8
0
 10
66.625379384137986
 20
59.6488563410372876
 30
0.0
 40
0.0573939616169055
 50
359.0448151457309223
 51
10.1217225225895699
  0
ARC
  5
2024F
  8
0
 10
66.6703234767245476
 20
59.6557136454965118
 30
0.0
 40
0.0119992802431646
 50
15.6112252706129908
 51
89.7641143689378964
  0
LINE
  5
20250
  8
0
 10
66.6703728773927935
 20
59.6677128240487278
 30
0.0
 11
66.5801088392148159
 21
59.6677128240490617
 31
0.0
  0
ARC
  5
20251
  8
0
 10
66.5801088392148159
 20
59.6480277846490665
 30
0.0
 40
0.0196850393999982
 50
89.9999999999947136
 51
179.4999999857724049
  0
LINE
  5
20252
  8
0
 10
68.1339893208887304
 20
59.5535395956490632
 30
0.0
 11
68.1331632358688921
 21
59.6481995668371496
 31
0.0
  0
LINE
  5
20253
  8
0
 10
68.0123956470988844
 20
59.5535395956490632
 30
0.0
 11
68.010822414934708
 21
59.6478995636976705
 31
0.0
  0
ARC
  5
20254
  8
0
 10
68.0682084010916526
 20
59.6488563410372876
 30
0.0
 40
0.0573939616169055
 50
169.8782774774103927
 51
180.9551848542691062
  0
ARC
  5
20255
  8
0
 10
68.023264308505091
 20
59.6557136454965118
 30
0.0
 40
0.0119992802431646
 50
90.2358856310621036
 51
164.388774729386995
  0
LINE
  5
20256
  8
0
 10
68.0232149078368309
 20
59.6677128240487278
 30
0.0
 11
68.1134789460148227
 21
59.6677128240490617
 31
0.0
  0
ARC
  5
20257
  8
0
 10
68.1134789460148227
 20
59.6480277846490665
 30
0.0
 40
0.0196850393999982
 50
0.500000014227542
 51
90.0000000000052864
  0
LINE
  5
20258
  8
0
 10
54.8753335943148102
 20
59.3173191232490566
 30
0.0
 11
56.942258459514818
 21
59.3173191232490566
 31
0.0
  0
ARC
  5
20259
  8
0
 10
56.942258459514818
 20
59.337004162649059
 30
0.0
 40
0.0196850393999988
 50
270.0000000000025011
 51
0.0000000000024427
  0
LINE
  5
2025A
  8
0
 10
56.9619434989148203
 20
59.337004162649059
 30
0.0
 11
56.9619434989148132
 21
59.4702107194490566
 31
0.0
  0
ARC
  5
2025B
  8
0
 10
56.9304474359148074
 20
59.4702107194490566
 30
0.0
 40
0.0314960630000059
 50
0.0000000000016284
 51
65.6999999145883322
  0
LINE
  5
2025C
  8
0
 10
56.9434085181216432
 20
59.4989163344490635
 30
0.0
 11
56.7737855665262003
 21
59.5755040340957294
 31
0.0
  0
ARC
  5
2025D
  8
0
 10
56.7867466488855968
 20
59.6042096494336491
 30
0.0
 40
0.0314960633707739
 50
180.000001063442312
 51
245.6999999145876075
  0
ARC
  5
2025E
  8
0
 10
54.8753335943148173
 20
59.337004162649059
 30
0.0
 40
0.0196850393999988
 50
179.9999999999974989
 51
269.9999999999976126
  0
LINE
  5
2025F
  8
0
 10
54.8556485549148221
 20
59.337004162649059
 30
0.0
 11
54.8556485549148292
 21
59.4702107194490566
 31
0.0
  0
ARC
  5
20260
  8
0
 10
54.8871446179148421
 20
59.4702107194490566
 30
0.0
 40
0.0314960630000059
 50
114.3000000854116962
 51
179.9999999999984084
  0
LINE
  5
20261
  8
0
 10
54.8741835357079992
 20
59.4989163344490635
 30
0.0
 11
55.0438064873034492
 21
59.5755040340957294
 31
0.0
  0
ARC
  5
20262
  8
0
 10
55.0308454049440527
 20
59.6042096494336491
 30
0.0
 40
0.0314960633707739
 50
294.3000000854121936
 51
359.999998936557688
  0
LINE
  5
20263
  8
0
 10
56.7552505855148226
 20
59.6042096494336491
 30
0.0
 11
56.7552505855148226
 21
63.1224369295495578
 31
0.0
  0
LINE
  5
20264
  8
0
 10
55.0623414683148198
 20
59.6042096488490714
 30
0.0
 11
55.0623431465108268
 21
65.8511734861089622
 31
0.0
  0
ARC
  5
20265
  8
0
 10
55.0938431465108067
 20
65.8511734539490448
 30
0.0
 40
0.0315
 50
90.0
 51
179.9999415039243047
  0
LINE
  5
20266
  8
0
 10
56.7552468638148184
 20
65.2287329323055616
 30
0.0
 11
56.7552505854901526
 21
65.8511732656052686
 31
0.0
  0
ARC
  5
20267
  8
0
 10
56.7237505854907127
 20
65.8511734539490448
 30
0.0
 40
0.0315
 50
359.9996574189073044
 51
90.0
  0
LINE
  5
20268
  8
0
 10
56.7237505854907127
 20
65.8826734539490673
 30
0.0
 11
55.0938431465108067
 21
65.8826734539490673
 31
0.0
  0
LINE
  5
20269
  8
0
 10
55.1430458611148211
 20
65.8826734539490673
 30
0.0
 11
55.1430458611148211
 21
65.8905474697490661
 31
0.0
  0
LINE
  5
2026A
  8
0
 10
55.1430458611148211
 20
65.8905474697490661
 30
0.0
 11
55.1509198769148199
 21
65.8984214854490631
 31
0.0
  0
LINE
  5
2026B
  8
0
 10
55.1430458611148211
 20
65.8905474697490661
 30
0.0
 11
56.6745419241148198
 21
65.8905474697490661
 31
0.0
  0
LINE
  5
2026C
  8
0
 10
56.6745419241148198
 20
65.8905474697490661
 30
0.0
 11
56.6666679084148228
 21
65.8984214854490631
 31
0.0
  0
LINE
  5
2026D
  8
0
 10
56.6745419241148198
 20
65.8905474697490661
 30
0.0
 11
56.6745419241148198
 21
65.8826734539490673
 31
0.0
  0
LINE
  5
2026E
  8
0
 10
56.7291067006148211
 20
65.8985046951490716
 30
0.0
 11
55.0938431465108067
 21
65.8984214855490649
 31
0.0
  0
ARC
  5
2026F
  8
0
 10
55.0934583742709805
 20
65.9281451773619409
 30
0.0
 40
0.0297261821407188
 50
179.4674218458461894
 51
270.7416506084260277
  0
ARC
  5
20270
  8
0
 10
56.727226891071183
 20
65.9278973744458625
 30
0.0
 40
0.0294527295876815
 50
273.659369210861712
 51
1.0196315921474071
  0
LINE
  5
20271
  8
0
 10
56.7566749570148232
 20
65.9284214854490642
 30
0.0
 11
56.7568685176148193
 21
66.6751817092490597
 31
0.0
  0
LINE
  5
20272
  8
0
 10
55.0637334763148232
 20
65.9284214854490642
 30
0.0
 11
55.0637334763148232
 21
66.6751178062465186
 31
0.0
  0
ARC
  5
20273
  8
0
 10
55.0938483215258685
 20
66.6751178062465186
 30
0.0
 40
0.0301148452110525
 50
102.8003199712908042
 51
179.9999999999996021
  0
ARC
  5
20274
  8
0
 10
55.9435587105103522
 20
62.4123967726364484
 30
0.0
 40
4.3766889012539876
 50
98.0758094796753142
 51
101.283808835504999
  0
ARC
  5
20275
  8
0
 10
55.335013954603447
 20
66.687679477281776
 30
0.0
 40
0.0583446802310092
 50
86.9866453308517862
 51
96.2053712862030466
  0
ARC
  5
20276
  8
0
 10
62.2473214377504789
 20
243.3084859058637903
 30
0.0
 40
176.6976768063879888
 50
267.7590465879503085
 51
267.7773139188977893
  0
ARC
  5
20277
  8
0
 10
55.3291171461051832
 20
66.7445650550784961
 30
0.0
 40
0.001158758994494
 50
101.0054184076935968
 51
123.371344974142005
  0
ARC
  5
20278
  8
0
 10
55.328543255544993
 20
66.7454387854802036
 30
0.0
 40
0.0001134184238549
 50
124.0471015661213983
 51
209.3536673502264023
  0
ARC
  5
20279
  8
0
 10
55.3290779195195626
 20
66.745843989714075
 30
0.0
 40
0.0007833816233154
 50
216.0308951921865059
 51
246.4047309308274123
  0
ARC
  5
2027A
  8
0
 10
55.342817647587438
 20
66.7847126776849365
 30
0.0
 40
0.0420070477820788
 50
250.4550598647242055
 51
260.2376885955533794
  0
ARC
  5
2027B
  8
0
 10
55.3935734595097813
 20
67.0471176450919586
 30
0.0
 40
0.309267912143604
 50
259.2136635464938195
 51
262.4661767739514744
  0
ARC
  5
2027C
  8
0
 10
55.4719456467498091
 20
67.6472922802225156
 30
0.0
 40
0.9145376521664172
 50
262.5284580343993071
 51
265.4672815052678061
  0
ARC
  5
2027D
  8
0
 10
55.6392613907858902
 20
70.2937103214550518
 30
0.0
 40
3.5661528298794409
 50
266.1477104613862821
 51
271.0606909121719923
  0
ARC
  5
2027E
  8
0
 10
55.6527870527228785
 20
66.7624402846272176
 30
0.0
 40
0.0626870120271349
 50
269.4305789704720269
 51
341.1251732371082994
  0
LINE
  5
2027F
  8
0
 10
55.6521640624148191
 20
66.6997563683490711
 30
0.0
 11
55.0849544982508306
 21
66.7038893861412419
 31
0.0
  0
LINE
  5
20280
  8
0
 10
55.7119398725148187
 20
66.8065977924490682
 30
0.0
 11
55.7119398725148187
 21
66.7514665720490683
 31
0.0
  0
LINE
  5
20281
  8
0
 10
55.7119398725148187
 20
66.7514665720490683
 30
0.0
 11
55.7133742900148192
 21
66.6697564011490442
 31
0.0
  0
LINE
  5
20282
  8
0
 10
55.7133742900148192
 20
66.6697564011490442
 30
0.0
 11
55.7133742900148192
 21
65.928421481849071
 31
0.0
  0
LINE
  5
20283
  8
0
 10
56.1039390668148172
 20
65.928421481849071
 30
0.0
 11
56.1039390666578583
 21
66.6697714323988464
 31
0.0
  0
LINE
  5
20284
  8
0
 10
56.1039390666578583
 20
66.6697714323988464
 30
0.0
 11
56.1056479125148186
 21
66.7418025282953948
 31
0.0
  0
LINE
  5
20285
  8
0
 10
56.1056479125148186
 20
66.7418025282953948
 30
0.0
 11
56.1056479125148186
 21
66.8065977924490682
 31
0.0
  0
ARC
  5
20286
  8
0
 10
56.7267536724037598
 20
66.6751817092490597
 30
0.0
 40
0.0301148452110525
 50
0.0000000000004071
 51
77.1996800287091531
  0
ARC
  5
20287
  8
0
 10
55.8770432834192974
 20
62.4124606756389895
 30
0.0
 40
4.3766889012539876
 50
78.7161911644950152
 51
81.9241905203246858
  0
ARC
  5
20288
  8
0
 10
56.4855880393261884
 20
66.6877433802843029
 30
0.0
 40
0.0583446802310092
 50
83.7946287137969534
 51
93.0133546691478017
  0
ARC
  5
20289
  8
0
 10
49.5732805561791565
 20
243.3085498088661893
 30
0.0
 40
176.6976768063879888
 50
272.2237220105270126
 51
272.2409534120496915
  0
ARC
  5
2028A
  8
0
 10
56.4914530921671982
 20
66.74457026001798
 30
0.0
 40
0.0012252602932233
 50
56.898368718431712
 51
76.9601490392579421
  0
ARC
  5
2028B
  8
0
 10
56.4920587383846424
 20
66.7455026884827447
 30
0.0
 40
0.0001134184238549
 50
330.6463326497736261
 51
55.9528984338785804
  0
ARC
  5
2028C
  8
0
 10
56.4915240744100799
 20
66.7459078927166161
 30
0.0
 40
0.0007833816233154
 50
293.5952690691726161
 51
323.9691048078136077
  0
ARC
  5
2028D
  8
0
 10
56.4777843463421974
 20
66.7847765806874634
 30
0.0
 40
0.0420070477820788
 50
279.7623114044466206
 51
289.5449401352759082
  0
ARC
  5
2028E
  8
0
 10
56.4270285344198612
 20
67.0471815480944997
 30
0.0
 40
0.309267912143604
 50
277.5338232260484119
 51
280.7863364535061805
  0
ARC
  5
2028F
  8
0
 10
56.3486563471798192
 20
67.6473561832250567
 30
0.0
 40
0.9145376521664172
 50
274.5327184947321939
 51
277.4715419656008066
  0
ARC
  5
20290
  8
0
 10
56.1627948030451094
 20
70.6984369792202756
 30
0.0
 40
3.971156760573419
 50
269.282333355828996
 51
273.7270089022625257
  0
ARC
  5
20291
  8
0
 10
56.1658804159118716
 20
66.7632569908979718
 30
0.0
 40
0.0634882530304871
 50
198.4285034143163102
 51
272.3086870951344736
  0
LINE
  5
20292
  8
0
 10
56.1684379315148092
 20
66.6998202713516122
 30
0.0
 11
56.7356474956788119
 21
66.703953289143783
 31
0.0
  0
ARC
  5
20293
  8
0
 10
55.7423159123787215
 20
65.9271839131545647
 30
0.0
 40
0.0289680700311279
 50
177.5514747714663031
 51
262.6434244279312225
  0
ARC
  5
20294
  8
0
 10
56.074101650252949
 20
65.927514792869232
 30
0.0
 40
0.0298511894569153
 50
283.3621869952357883
 51
1.740548496193405
  0
LINE
  5
20295
  8
0
 10
55.0623414683148198
 20
59.6042096488490714
 30
0.0
 11
56.7552505855148226
 21
59.6042096488490714
 31
0.0
  0
LINE
  5
20296
  8
0
 10
56.7737855670725011
 20
59.5755040338490716
 30
0.0
 11
55.0438064867571484
 21
59.5755040338490716
 31
0.0
  0
LINE
  5
20297
  8
0
 10
54.8741835357080134
 20
59.4989163344490635
 30
0.0
 11
56.943408518121629
 21
59.4989163344490635
 31
0.0
  0
ARC
  5
20298
  8
0
 10
57.0609316028965381
 20
63.1377062952352404
 30
0.0
 40
0.3060621471465613
 50
155.5526304387367134
 51
182.8596595443688102
  0
ARC
  5
20299
  8
0
 10
56.8883464990265608
 20
63.2067372474989568
 30
0.0
 40
0.1206874010359196
 50
108.2126223521920991
 51
151.4740556688053061
  0
ARC
  5
2029A
  8
0
 10
56.9611060225615589
 20
62.9866041551230822
 30
0.0
 40
0.352533240000106
 50
88.2651821386888287
 51
108.2635232580482949
  0
LINE
  5
2029B
  8
0
 10
56.9717784930990234
 20
63.3389758107334728
 30
0.0
 11
58.0702112154148224
 21
63.3389726665490684
 31
0.0
  0
ARC
  5
2029C
  8
0
 10
58.0702112154148224
 20
63.3704687295490672
 30
0.0
 40
0.031496063
 50
270.0
 51
0.0
  0
LINE
  5
2029D
  8
0
 10
58.1017072784148212
 20
63.3704687295490672
 30
0.0
 11
58.1017072784148212
 21
64.9807000780490682
 31
0.0
  0
ARC
  5
2029E
  8
0
 10
58.0702114060142378
 20
64.9807000780490682
 30
0.0
 40
0.0314958724005772
 50
359.9999999999992042
 51
90.0003467293229562
  0
LINE
  5
2029F
  8
0
 10
58.0702112154148224
 20
65.012195950449069
 30
0.0
 11
56.9716884381370434
 21
65.0121977442800869
 31
0.0
  0
ARC
  5
202A0
  8
0
 10
56.9716868353620285
 20
65.5102048368239451
 30
0.0
 40
0.4980070925464352
 50
260.2944894133494813
 51
270.0001843994696173
  0
ARC
  5
202A1
  8
0
 10
56.9191658814625185
 20
65.2031224367373454
 30
0.0
 40
0.1864656811073536
 50
237.2653692222237112
 51
260.2944894133490834
  0
ARC
  5
202A2
  8
0
 10
56.8927995838440026
 20
65.1493098234315084
 30
0.0
 40
0.1271303079944337
 50
196.6226352021606942
 51
234.1449942241083022
  0
ARC
  5
202A3
  8
0
 10
57.106721071421731
 20
65.2175314058883941
 30
0.0
 40
0.3516526593202156
 50
178.174594285788487
 51
197.3028491125809012
  0
ARC
  5
202A4
  8
0
 10
58.1098187856953672
 20
63.3854247967879303
 30
0.0
 40
0.0081153836028484
 50
181.7709664398140035
 51
295.7763331356410959
  0
ARC
  5
202A5
  8
0
 10
57.7258572930728704
 20
64.178663683171024
 30
0.0
 40
0.8893953349846228
 50
295.828484059978507
 51
315.7190851128987106
  0
ARC
  5
202A6
  8
0
 10
58.3495984618150274
 20
63.5709915647949018
 30
0.0
 40
0.0185856867879007
 50
314.3817103425902815
 51
1.3842618505145801
  0
ARC
  5
202A7
  8
0
 10
58.520469481211471
 20
63.5751205995567972
 30
0.0
 40
0.1523352136240867
 50
160.8629203897120021
 51
181.3842618505140933
  0
ARC
  5
202A8
  8
0
 10
57.7033813405451212
 20
64.1342975491962335
 30
0.0
 40
0.9337286077421012
 50
57.8609587477123029
 51
63.9516994751188079
  0
ARC
  5
202A9
  8
0
 10
58.1098379407051269
 20
64.965877120633408
 30
0.0
 40
0.0081306650881238
 50
63.9516994751188079
 51
179.9524682809941964
  0
LINE
  5
202AA
  8
0
 10
58.2001300585148229
 20
64.9925106598490601
 30
0.0
 11
58.1997926794148199
 21
64.1725968358490633
 31
0.0
  0
ARC
  5
202AB
  8
0
 10
58.67118706575841
 20
64.1724028659352115
 30
0.0
 40
0.4713944262510724
 50
179.9764238669123131
 51
201.0237614411873039
  0
ARC
  5
202AC
  8
0
 10
6667.9909588555510709
 20
2604.3979355480992126
 30
0.0
 40
7081.1389902580076523
 50
201.0237614411877018
 51
201.0294105601448109
  0
ARC
  5
202AD
  8
0
 10
39.858488374515801
 20
86.3031941724719047
 30
0.0
 40
27.317111283570469
 50
307.0539173757925937
 51
308.7941936883283915
  0
ARC
  5
202AE
  8
0
 10
56.8721257267105713
 20
63.7694852999234598
 30
0.0
 40
0.9181838539832708
 50
127.0539173757922953
 51
142.0199837878352866
  0
ARC
  5
202AF
  8
0
 10
56.4078589726976887
 20
64.1319495422194876
 30
0.0
 40
0.3291813532883344
 50
142.0199837878352866
 51
170.0880593759551118
  0
ARC
  5
202B0
  8
0
 10
56.3105764025630435
 20
64.1809359843687446
 30
0.0
 40
0.2271150359306842
 50
178.0629066989399973
 51
214.9210418252858972
  0
ARC
  5
202B1
  8
0
 10
57.5187576108948306
 20
65.1926809355072123
 30
0.0
 40
1.802211188839189
 50
219.3111009637341056
 51
235.9145055807057929
  0
ARC
  5
202B2
  8
0
 10
112.3513765501747059
 20
136.0295094118579016
 30
0.0
 40
91.3780333777776832
 50
232.329717396169201
 51
232.701791461620104
  0
LINE
  5
202B3
  8
0
 10
58.8269028466145869
 20
65.012201021749064
 30
0.0
 11
58.2198150672148103
 21
65.0121955695490641
 31
0.0
  0
ARC
  5
202B4
  8
0
 10
58.2198152580878983
 20
64.9925103699747808
 30
0.0
 40
0.01968519957521
 50
90.0005555555400889
 51
179.999156291353188
  0
ARC
  5
202B5
  8
0
 10
58.500061099814971
 20
63.3586660710778204
 30
0.0
 40
0.0196933868621226
 50
201.0080698744762913
 51
269.9592710819596277
  0
LINE
  5
202B6
  8
0
 10
58.5000471006988292
 20
63.3389726891913583
 30
0.0
 11
58.5000471006988292
 21
63.3389726891913583
 31
0.0
  0
LINE
  5
202B7
  8
0
 10
58.5000471006988292
 20
63.3389726891913583
 30
0.0
 11
58.5938313298421178
 21
63.3389727339894222
 31
0.0
  0
ARC
  5
202B8
  8
0
 10
58.7043627075823125
 20
62.5210054871293295
 30
0.0
 40
0.8254014795243648
 50
90.0205082510340588
 51
97.6957258825852932
  0
ARC
  5
202B9
  8
0
 10
58.7036090547112011
 20
62.5185984440279583
 30
0.0
 40
0.8278085965665765
 50
82.315448128044892
 51
89.968285434824125
  0
ARC
  5
202BA
  8
0
 10
58.8231587218484506
 20
712.2693471469601718
 30
0.0
 40
648.9303744764446265
 50
269.9992180859038058
 51
270.0003305780026039
  0
ARC
  5
202BB
  8
0
 10
58.8268657694148231
 20
63.3706821825490607
 30
0.0
 40
0.0317095228999953
 50
270.0669807440406203
 51
289.7910085040010131
  0
ARC
  5
202BC
  8
0
 10
59.169825901467199
 20
62.4253821480709021
 30
0.0
 40
0.9738818618902353
 50
105.9741726443419054
 51
109.9459398146596953
  0
ARC
  5
202BD
  8
0
 10
59.1247149934998006
 20
62.5984197414024166
 30
0.0
 40
0.7951226326083489
 50
93.6623720763286087
 51
106.2805441241901008
  0
ARC
  5
202BE
  8
0
 10
59.0721126312085332
 20
63.4233637498078409
 30
0.0
 40
0.031497373711117
 50
273.2986374531764113
 51
359.9989952233200938
  0
LINE
  5
202BF
  8
0
 10
59.103610068314822
 20
64.9278097794490634
 30
0.0
 11
59.103610004914799
 21
63.4233631974490635
 31
0.0
  0
ARC
  5
202C0
  8
0
 10
59.0721050024236476
 20
64.9278064194269149
 30
0.0
 40
0.0315050660703382
 50
0.0061106073570616
 51
86.5392669460296844
  0
ARC
  5
202C1
  8
0
 10
59.1191235419706871
 20
65.7051673040682402
 30
0.0
 40
0.7472764745648112
 50
259.070257004771122
 51
266.5386672156407144
  0
ARC
  5
202C2
  8
0
 10
59.1486578891490211
 20
65.8581093742195236
 30
0.0
 40
0.903044104338811
 50
249.8516534572453054
 51
259.070257004771122
  0
ARC
  5
202C3
  8
0
 10
58.8270578238254416
 20
64.9815883512168853
 30
0.0
 40
0.0306130628171736
 50
69.8516534572452912
 51
90.2900584656903078
  0
ARC
  5
202C4
  8
0
 10
60.4684815348452105
 20
64.1833679461764604
 30
0.0
 40
1.642185627106701
 50
162.8995013430752863
 51
180.2715871069484024
  0
ARC
  5
202C5
  8
0
 10
59.6155944092110772
 20
64.4457584115977227
 30
0.0
 40
0.7498486921900569
 50
136.7496822438062907
 51
162.8995013430752863
  0
ARC
  5
202C6
  8
0
 10
60.2234642091040868
 20
64.1357606395284563
 30
0.0
 40
1.3977172820559289
 50
178.3673294896235006
 51
212.2843516782000961
  0
ARC
  5
202C7
  8
0
 10
58.8981376101248131
 20
63.3714690566615602
 30
0.0
 40
0.031316219448578
 50
216.3631210278537083
 51
270.0451610071874029
  0
LINE
  5
202C8
  8
0
 10
59.33674521898579
 20
63.3401527804490669
 30
0.0
 11
58.8981622938253793
 21
63.3401528469409314
 31
0.0
  0
ARC
  5
202C9
  8
0
 10
59.336745245605897
 20
63.371648847764753
 30
0.0
 40
0.0314960673156967
 50
269.9999515742761105
 51
0.0011885980275334
  0
LINE
  5
202CA
  8
0
 10
59.3682413129148188
 20
63.3716495011490721
 30
0.0
 11
59.3682418051148204
 21
67.2440077799490723
 31
0.0
  0
LINE
  5
202CB
  8
0
 10
58.8666670019148199
 20
67.2440078396525678
 30
0.0
 11
58.8666667167044224
 21
65.0002226491535566
 31
0.0
  0
LINE
  5
202CC
  8
0
 10
59.3367457421148217
 20
67.2755038429490639
 30
0.0
 11
58.8981630689180307
 21
67.2755038986490632
 31
0.0
  0
ARC
  5
202CD
  8
0
 10
58.8981630649148187
 20
67.2440078356490716
 30
0.0
 40
0.0314960629999999
 50
89.9999927176008754
 51
179.9999927170605929
  0
ARC
  5
202CE
  8
0
 10
59.3367457421148217
 20
67.2440077799490439
 30
0.0
 40
0.031496063000001
 50
0.0000000000016284
 51
89.9999999999983658
  0
ARC
  5
202CF
  8
0
 10
59.1155850153797076
 20
62.3412600130327021
 30
0.0
 40
1.060823590905235
 50
76.2214532332233432
 51
91.1036536866996016
  0
ARC
  5
202D0
  8
0
 10
53.8772170350814505
 20
68.005240102415101
 30
0.0
 40
1.9222531081373371
 50
321.0205109700054891
 51
322.0457584476275201
  0
ARC
  5
202D1
  8
0
 10
55.4430958689315787
 20
66.7961816642722539
 30
0.0
 40
0.0715747320426857
 50
180.0958843789694015
 51
238.3970752077611905
  0
LINE
  5
202D2
  8
0
 10
55.4356502467836592
 20
66.733374872639132
 30
0.0
 11
55.7119398725148187
 21
66.7516095310338073
 31
0.0
  0
ARC
  5
202D3
  8
0
 10
56.2991679491487105
 20
66.6713616292721554
 30
0.0
 40
0.1491071595946172
 50
26.00301080026059
 51
56.1444941442189602
  0
ARC
  5
202D4
  8
0
 10
55.7428813901091402
 20
73.8912603974473683
 30
0.0
 40
7.1295081825161501
 50
272.9166065042933838
 51
274.2523047084567906
  0
ARC
  5
202D5
  8
0
 10
56.2384588303542472
 20
67.4972016078266677
 30
0.0
 40
0.7165865910010377
 50
272.6447530950489977
 51
281.6187805766761016
  0
ARC
  5
202D6
  8
0
 10
56.3623082847145014
 20
66.8724664170843113
 30
0.0
 40
0.0798369639475597
 50
284.8566836027126215
 51
321.7821109301397087
  0
LINE
  5
202D7
  8
0
 10
55.4859070228148212
 20
66.8220795912490644
 30
0.0
 11
55.4859311322075683
 21
66.8165541593652534
 31
0.0
  0
ARC
  5
202D8
  8
0
 10
55.4959310370148202
 20
66.8165977924490733
 30
0.0
 40
0.0100000000000007
 50
180.2499999482386954
 51
269.9999999999947136
  0
LINE
  5
202D9
  8
0
 10
55.4959310370148202
 20
66.8065977924490682
 30
0.0
 11
56.321634053714817
 21
66.8065977924490682
 31
0.0
  0
ARC
  5
202DA
  8
0
 10
56.321634053714817
 20
66.816597240453703
 30
0.0
 40
0.0099994480046322
 50
269.9999999999988063
 51
359.7531490630934172
  0
LINE
  5
202DB
  8
0
 10
56.3316334089148114
 20
66.8165541593490673
 30
0.0
 11
56.3316850385455368
 21
66.8230118810900251
 31
0.0
  0
LINE
  5
202DC
  8
0
 10
55.3423578842148203
 20
66.8681096034490707
 30
0.0
 11
55.3439787499148181
 21
66.8412706592490622
 31
0.0
  0
LINE
  5
202DD
  8
0
 10
55.3632345200148208
 20
66.8681096034490707
 30
0.0
 11
55.3664737492148191
 21
66.8385150282490628
 31
0.0
  0
LINE
  5
202DE
  8
0
 10
55.4169093754148108
 20
66.8681096034490707
 30
0.0
 11
55.4218187773148188
 21
66.8362883329490671
 31
0.0
  0
LINE
  5
202DF
  8
0
 10
55.4914080452148113
 20
66.8274428738490656
 30
0.0
 11
55.502772072230357
 21
66.8538832269228891
 31
0.0
  0
LINE
  5
202E0
  8
0
 10
55.4999943726148217
 20
66.8681096034490707
 30
0.0
 11
55.5065563284148169
 21
66.8345016303490667
 31
0.0
  0
LINE
  5
202E1
  8
0
 10
55.1770966060133716
 20
66.8681096034490707
 30
0.0
 11
56.6404915304148204
 21
66.8681096034490707
 31
0.0
  0
ARC
  5
202E2
  8
0
 10
55.1770966060133716
 20
66.887809603449071
 30
0.0
 40
0.0197
 50
180.0000055736732065
 51
270.0
  0
LINE
  5
202E3
  8
0
 10
55.5764351243148198
 20
66.8284115646490591
 30
0.0
 11
55.5916818795259573
 21
66.8681096034490707
 31
0.0
  0
LINE
  5
202E4
  8
0
 10
55.6070910862279675
 20
66.8681096034490707
 30
0.0
 11
55.6153884864315273
 21
66.8325411780004544
 31
0.0
  0
LINE
  5
202E5
  8
0
 10
55.6853034421148223
 20
66.829458080049065
 30
0.0
 11
55.6985951170148184
 21
66.8681096034490707
 31
0.0
  0
LINE
  5
202E6
  8
0
 10
55.7408896868148176
 20
66.831820454149053
 30
0.0
 11
55.7311588381148226
 21
66.8681096034490707
 31
0.0
  0
LINE
  5
202E7
  8
0
 10
55.8110131473196986
 20
66.8305430806649383
 30
0.0
 11
55.8225685274148091
 21
66.8681096034490707
 31
0.0
  0
LINE
  5
202E8
  8
0
 10
55.8752965484148234
 20
66.8307281829490591
 30
0.0
 11
55.8639935609017897
 21
66.8681096034490707
 31
0.0
  0
ARC
  5
202E9
  8
0
 10
55.8860219212876501
 20
66.8343436658144725
 30
0.0
 40
0.011318362938661
 50
198.6287680767183019
 51
263.5842458347891011
  0
ARC
  5
202EA
  8
0
 10
55.7515857233136387
 20
66.8349840720671722
 30
0.0
 40
0.0111540878208823
 50
196.4768887276391922
 51
261.3924918681771032
  0
ARC
  5
202EB
  8
0
 10
55.7811465763875489
 20
67.0550696093489336
 30
0.0
 40
0.2332145052548049
 50
262.3042872305659898
 51
273.740178838250074
  0
ARC
  5
202EC
  8
0
 10
55.7959414723273568
 20
66.8480701609100549
 30
0.0
 40
0.0257217372237752
 50
270.9315294820294753
 51
291.2786853054474818
  0
ARC
  5
202ED
  8
0
 10
55.8010413136404679
 20
66.8336494478156737
 30
0.0
 40
0.0104444714467216
 50
293.9192373276804915
 51
342.6974502241708933
  0
ARC
  5
202EE
  8
0
 10
55.62534663790899
 20
66.835444714766453
 30
0.0
 40
0.010372815750769
 50
196.2553045792207911
 51
241.328441323978808
  0
ARC
  5
202EF
  8
0
 10
55.6325446408794733
 20
66.8539464032413235
 30
0.0
 40
0.0301683637084962
 50
246.1990565681049929
 51
265.9125563351456094
  0
ARC
  5
202F0
  8
0
 10
55.6642617266647122
 20
67.109348575532465
 30
0.0
 40
0.2874955903802933
 50
263.2347540732320113
 51
271.5661333656502165
  0
ARC
  5
202F1
  8
0
 10
55.6727999264292279
 20
66.8381228715714002
 30
0.0
 40
0.0161768195738653
 50
267.5882799029469084
 51
305.2305484594639893
  0
ARC
  5
202F2
  8
0
 10
55.675944624648217
 20
66.8326029604510126
 30
0.0
 40
0.0098730814397349
 50
308.8050596607794773
 51
341.425903635480779
  0
ARC
  5
202F3
  8
0
 10
55.51722783596027
 20
66.8368646145790564
 30
0.0
 40
0.0109299939507715
 50
192.4855061796193922
 51
261.3081746705158253
  0
ARC
  5
202F4
  8
0
 10
55.5785253703176778
 20
67.227837802929983
 30
0.0
 40
0.4066791069821604
 50
261.0954664567940995
 51
267.3011276420057243
  0
ARC
  5
202F5
  8
0
 10
55.5622136181376689
 20
66.8818031995554492
 30
0.0
 40
0.0602602564676835
 50
267.3011276420061222
 51
274.7049294665574166
  0
ARC
  5
202F6
  8
0
 10
55.566326080002078
 20
66.8326927893665328
 30
0.0
 40
0.0109782358326926
 50
274.3377185896371202
 51
337.0471287178274906
  0
ARC
  5
202F7
  8
0
 10
55.4817685253377491
 20
66.8317389386038911
 30
0.0
 40
0.0105535072766327
 50
264.6095859471406015
 51
335.978802248666284
  0
ARC
  5
202F8
  8
0
 10
55.5010673675035022
 20
67.1816631470737917
 30
0.0
 40
0.3610017073065698
 50
259.7157974352957126
 51
266.7779679847002967
  0
ARC
  5
202F9
  8
0
 10
55.4441696218416169
 20
66.8791868181594538
 30
0.0
 40
0.0532637635126422
 50
252.4856860383833919
 51
261.8486072248593928
  0
ARC
  5
202FA
  8
0
 10
55.4319064444296927
 20
66.8378858779254301
 30
0.0
 40
0.0102133822885388
 50
188.9989775339616074
 51
248.3611465384435917
  0
ARC
  5
202FB
  8
0
 10
55.4264413827410607
 20
66.8311330382827435
 30
0.0
 40
0.0102218624080537
 50
263.0614880533286737
 51
333.7699783100565014
  0
ARC
  5
202FC
  8
0
 10
55.5223135274225612
 20
67.5392729681956467
 30
0.0
 40
0.7248212762455425
 50
258.2600071679748908
 51
262.3007219187488204
  0
ARC
  5
202FD
  8
0
 10
55.3766783535048575
 20
66.8397231341622131
 30
0.0
 40
0.0102758682656853
 50
186.7517242742125916
 51
259.6580229038377183
  0
ARC
  5
202FE
  8
0
 10
55.3539605636735317
 20
66.8418734841686302
 30
0.0
 40
0.0100000001898722
 50
183.4560276497373934
 51
257.4560259345473128
  0
ARC
  5
202FF
  8
0
 10
54.1321406307968331
 20
61.2339542343966485
 30
0.0
 40
5.729477622343051
 50
77.2027929129106667
 51
77.7092604340297584
  0
ARC
  5
20300
  8
0
 10
55.403665447610102
 20
66.8308315645198121
 30
0.0
 40
0.0100206636277065
 50
255.9069516535431035
 51
310.2561545119023094
  0
LINE
  5
20301
  8
0
 10
56.4752287477924995
 20
66.8681096034490707
 30
0.0
 11
56.4736090353148228
 21
66.8412706592490622
 31
0.0
  0
LINE
  5
20302
  8
0
 10
56.4561532652148301
 20
66.8681096034490707
 30
0.0
 11
56.4529140360148176
 21
66.8385150282490628
 31
0.0
  0
LINE
  5
20303
  8
0
 10
56.4024784098148189
 20
66.8681096034490707
 30
0.0
 11
56.397569007914818
 21
66.8362883329490671
 31
0.0
  0
LINE
  5
20304
  8
0
 10
56.3279797400148325
 20
66.8274428738490656
 30
0.0
 11
56.3166157129992797
 21
66.8538832269228891
 31
0.0
  0
LINE
  5
20305
  8
0
 10
56.3193934126148221
 20
66.8681096034490707
 30
0.0
 11
56.3128314568148198
 21
66.8345016303490667
 31
0.0
  0
LINE
  5
20306
  8
0
 10
56.2429526609148169
 20
66.8284115646490591
 30
0.0
 11
56.2277059057036794
 21
66.8681096034490707
 31
0.0
  0
LINE
  5
20307
  8
0
 10
56.2122966990016621
 20
66.8681096034490707
 30
0.0
 11
56.2039992987981094
 21
66.8325411780004544
 31
0.0
  0
LINE
  5
20308
  8
0
 10
56.1340843431148215
 20
66.829458080049065
 30
0.0
 11
56.1207926682148113
 21
66.8681096034490707
 31
0.0
  0
LINE
  5
20309
  8
0
 10
56.0784980984148191
 20
66.831820454149053
 30
0.0
 11
56.0882289471148212
 21
66.8681096034490707
 31
0.0
  0
LINE
  5
2030A
  8
0
 10
56.0083746379099381
 20
66.8305430806649383
 30
0.0
 11
55.9968192578148205
 21
66.8681096034490707
 31
0.0
  0
LINE
  5
2030B
  8
0
 10
55.9440912368148204
 20
66.8307281829490591
 30
0.0
 11
55.9553942243278613
 21
66.8681096034490707
 31
0.0
  0
ARC
  5
2030C
  8
0
 10
55.9333658639419866
 20
66.8343436658144725
 30
0.0
 40
0.011318362938661
 50
276.4157541652108989
 51
341.3712319232815844
  0
ARC
  5
2030D
  8
0
 10
56.067802061915998
 20
66.8349840720671722
 30
0.0
 40
0.0111540878208823
 50
278.6075081318227831
 51
343.5231112723607794
  0
ARC
  5
2030E
  8
0
 10
56.0382412088420807
 20
67.0550696093489336
 30
0.0
 40
0.2332145052548049
 50
266.259821161749926
 51
277.6957127694341239
  0
ARC
  5
2030F
  8
0
 10
56.023446312902287
 20
66.8480701609100549
 30
0.0
 40
0.0257217372237752
 50
248.7213146945524898
 51
269.0684705179705247
  0
ARC
  5
20310
  8
0
 10
56.0183464715891617
 20
66.8336494478156737
 30
0.0
 40
0.0104444714467216
 50
197.3025497758291067
 51
246.0807626723195085
  0
ARC
  5
20311
  8
0
 10
56.1940411473206467
 20
66.835444714766453
 30
0.0
 40
0.010372815750769
 50
298.6715586760212204
 51
343.7446954207791805
  0
ARC
  5
20312
  8
0
 10
56.1868431443501635
 20
66.8539464032413235
 30
0.0
 40
0.0301683637084962
 50
274.0874436648545043
 51
293.8009434318950071
  0
ARC
  5
20313
  8
0
 10
56.1551260585649388
 20
67.109348575532465
 30
0.0
 40
0.2874955903802933
 50
268.4338666343497835
 51
276.765245926768273
  0
ARC
  5
20314
  8
0
 10
56.1465878588004088
 20
66.8381228715714002
 30
0.0
 40
0.0161768195738653
 50
234.7694515405360107
 51
272.4117200970530916
  0
ARC
  5
20315
  8
0
 10
56.1434431605814197
 20
66.8326029604510126
 30
0.0
 40
0.0098730814397349
 50
198.5740963645191073
 51
231.1949403392204943
  0
ARC
  5
20316
  8
0
 10
56.3021599492693667
 20
66.8368646145790564
 30
0.0
 40
0.0109299939507715
 50
278.6918253294841179
 51
347.5144938203804941
  0
ARC
  5
20317
  8
0
 10
56.2408624149119589
 20
67.227837802929983
 30
0.0
 40
0.4066791069821604
 50
272.6988723579942757
 51
278.9045335432060142
  0
ARC
  5
20318
  8
0
 10
56.2571741670919678
 20
66.8818031995554492
 30
0.0
 40
0.0602602564676835
 50
265.2950705334426971
 51
272.6988723579938778
  0
ARC
  5
20319
  8
0
 10
56.2530617052275517
 20
66.8326927893665328
 30
0.0
 40
0.0109782358326926
 50
202.9528712821725094
 51
265.6622814103624819
  0
ARC
  5
2031A
  8
0
 10
56.3376192598918877
 20
66.8317389386038911
 30
0.0
 40
0.0105535072766327
 50
204.0211977513336876
 51
275.3904140528593985
  0
ARC
  5
2031B
  8
0
 10
56.3183204177261274
 20
67.1816631470737917
 30
0.0
 40
0.3610017073065698
 50
273.222032015299817
 51
280.2842025647044011
  0
ARC
  5
2031C
  8
0
 10
56.3752181633880198
 20
66.8791868181594538
 30
0.0
 40
0.0532637635126422
 50
278.1513927751406072
 51
287.5143139616167218
  0
ARC
  5
2031D
  8
0
 10
56.3874813407999582
 20
66.8378858779254301
 30
0.0
 40
0.0102133822885388
 50
291.6388534615563799
 51
351.001022466038421
  0
ARC
  5
2031E
  8
0
 10
56.3929464024885831
 20
66.8311330382827435
 30
0.0
 40
0.0102218624080537
 50
206.2300216899434133
 51
276.9385119466713263
  0
ARC
  5
2031F
  8
0
 10
56.2970742578070826
 20
67.5392729681956467
 30
0.0
 40
0.7248212762455425
 50
277.6992780812507817
 51
281.7399928320249956
  0
ARC
  5
20320
  8
0
 10
56.4427094317247793
 20
66.8397231341622131
 30
0.0
 40
0.0102758682656853
 50
280.3419770961622817
 51
353.2482757257873232
  0
ARC
  5
20321
  8
0
 10
56.4636272215560879
 20
66.8418734841686302
 30
0.0
 40
0.0100000001898722
 50
282.5439740654525735
 51
356.5439723502624929
  0
ARC
  5
20322
  8
0
 10
57.6854471544328007
 20
61.2339542343966485
 30
0.0
 40
5.729477622343051
 50
102.290739565970199
 51
102.7972070870893049
  0
ARC
  5
20323
  8
0
 10
56.4139223376195389
 20
66.8308315645198121
 30
0.0
 40
0.0100206636277065
 50
231.8716629637899871
 51
284.0930483464568965
  0
ARC
  5
20324
  8
0
 10
55.9096938926148184
 20
67.0757174491961621
 30
0.0
 40
0.253849052649255
 50
264.3624914684526175
 51
275.6375085315473825
  0
LINE
  5
20325
  8
0
 10
56.6601915304148207
 20
66.887809603449071
 30
0.0
 11
56.6601915304148207
 21
70.4980308632490704
 31
0.0
  0
ARC
  5
20326
  8
0
 10
56.6404915304148204
 20
66.887809603449071
 30
0.0
 40
0.0197
 50
270.0
 51
0.0
  0
LINE
  5
20327
  8
0
 10
55.1573962548148202
 20
70.4980308632490704
 30
0.0
 11
55.1573966060133714
 21
66.8878096015326662
 31
0.0
  0
LINE
  5
20328
  8
0
 10
55.18889268751483
 20
70.5295269262490621
 30
0.0
 11
56.6286954674149285
 21
70.5295269262490621
 31
0.0
  0
LINE
  5
20329
  8
0
 10
56.3024946800148172
 20
70.5304706372490671
 30
0.0
 11
56.3024946800148172
 21
70.5295269262490621
 31
0.0
  0
LINE
  5
2032A
  8
0
 10
56.6300905435148181
 20
70.5304706372490671
 30
0.0
 11
55.1874972566148188
 21
70.5304706372490671
 31
0.0
  0
LINE
  5
2032B
  8
0
 10
55.4027285754148195
 20
70.5295269262490621
 30
0.0
 11
55.403798110214808
 21
70.5304706372490671
 31
0.0
  0
ARC
  5
2032C
  8
0
 10
56.6300905435120612
 20
70.5619667002547999
 30
0.0
 40
0.0314960630057275
 50
270.0000000050021072
 51
1.000000002768926
  0
ARC
  5
2032D
  8
0
 10
56.628695467414822
 20
70.4980308632490704
 30
0.0
 40
0.0314960629999943
 50
359.9999999999951115
 51
89.9999999998094751
  0
ARC
  5
2032E
  8
0
 10
55.188892317818329
 20
70.4980308632477346
 30
0.0
 40
0.031496063003507
 50
89.9993274699493924
 51
179.9999999975682954
  0
ARC
  5
2032F
  8
0
 10
55.1874972566199702
 20
70.5619667002571589
 30
0.0
 40
0.0314960630080953
 50
179.0000000016175079
 51
269.9999999906124231
  0
LINE
  5
20330
  8
0
 10
56.6615818095148214
 20
70.5625163823490595
 30
0.0
 11
56.6583664784148198
 21
70.7463005354490662
 31
0.0
  0
LINE
  5
20331
  8
0
 10
55.1560059906148226
 20
70.5625163823490595
 30
0.0
 11
55.1592139549177034
 21
70.7463005354380385
 31
0.0
  0
ARC
  5
20332
  8
0
 10
55.1907052207950528
 20
70.7457508533511543
 30
0.0
 40
0.0314960628802049
 50
106.9900365208616932
 51
179.0000000066945915
  0
ARC
  5
20333
  8
0
 10
56.0186760777212811
 20
68.0719511779634416
 30
0.0
 40
2.8305564782445458
 50
99.4227640692223247
 51
107.2033022014478973
  0
ARC
  5
20334
  8
0
 10
55.5582547062591772
 20
70.8466963527214091
 30
0.0
 40
0.0178712979776082
 50
89.5335411896365514
 51
99.6360297498073919
  0
ARC
  5
20335
  8
0
 10
55.9087939000147784
 20
14856.7368059279997397
 30
0.0
 40
14785.8722430213401822
 50
269.9986422119779945
 51
270.0013577880220055
  0
ARC
  5
20336
  8
0
 10
56.2593330937704579
 20
70.8466963527214517
 30
0.0
 40
0.0178712979775657
 50
80.3639702501632911
 51
90.4664588103638607
  0
ARC
  5
20337
  8
0
 10
55.7989117222192874
 20
68.0719511775462962
 30
0.0
 40
2.8305564786706441
 50
72.7966977923996978
 51
80.5772359303814909
  0
ARC
  5
20338
  8
0
 10
56.6268934368749868
 20
70.745766877899527
 30
0.0
 40
0.0314775655689618
 50
0.9714153448319112
 51
73.0203404293461915
  0
LINE
  5
20339
  8
0
 10
55.1815019010421111
 20
70.7758722889490457
 30
0.0
 11
56.6360858989918299
 21
70.7758722889490741
 31
0.0
  0
ARC
  5
2033A
  8
0
 10
55.5859592469148325
 20
70.8740271932490629
 30
0.0
 40
0.0196850393999879
 50
331.2737471426290767
 51
0.0000000000077351
  0
LINE
  5
2033B
  8
0
 10
56.2119434989148203
 20
70.8740271932490629
 30
0.0
 11
55.6056442863148206
 21
70.8740271932490629
 31
0.0
  0
ARC
  5
2033C
  8
0
 10
56.2316285383148013
 20
70.8740271932490629
 30
0.0
 40
0.0196850393999891
 50
179.9999999999845102
 51
208.7262528583833046
  0
LINE
  5
2033D
  8
0
 10
56.2229340034856904
 20
70.8645662437598958
 30
0.0
 11
56.2133098098693935
 21
70.8668212953645451
 31
0.0
  0
LINE
  5
2033E
  8
0
 10
55.6056442863148206
 20
70.8740271932490629
 30
0.0
 11
55.6056442863148206
 21
71.4682355877490636
 31
0.0
  0
LINE
  5
2033F
  8
0
 10
56.2119434989148203
 20
70.8740271932490629
 30
0.0
 11
56.2119434989148203
 21
71.4682355877490636
 31
0.0
  0
ARC
  5
20340
  8
0
 10
56.1725734202148104
 20
71.4682355877490636
 30
0.0
 40
0.0393700787000011
 50
359.9999999999988063
 51
89.9999999999987637
  0
LINE
  5
20341
  8
0
 10
56.172573420014821
 20
71.5076056664490665
 30
0.0
 11
55.6450143652148128
 21
71.5076056664490665
 31
0.0
  0
ARC
  5
20342
  8
0
 10
55.6450143652037212
 20
71.4682355875601587
 30
0.0
 40
0.0393700788889016
 50
89.9999999838490936
 51
179.9999997250893102
  0
LINE
  5
20343
  8
0
 10
56.1548568847148175
 20
71.5076056664490665
 30
0.0
 11
56.1548568847148175
 21
71.7691910935820374
 31
0.0
  0
LINE
  5
20344
  8
0
 10
55.6627309005148234
 20
71.5076056664490665
 30
0.0
 11
55.6627309005148092
 21
71.7691910637504407
 31
0.0
  0
LINE
  5
20345
  8
0
 10
55.2839673121593194
 20
72.1068960293990386
 30
0.0
 11
55.286720405330712
 21
71.7914228004990491
 31
0.0
  0
ARC
  5
20346
  8
0
 10
55.3064196552150733
 20
71.7915947132490686
 30
0.0
 40
0.0197
 50
180.5000000020446862
 51
270.0
  0
LINE
  5
20347
  8
0
 10
55.3036665620436807
 20
72.1267679421490584
 30
0.0
 11
56.5139204700389186
 21
72.1267679421490584
 31
0.0
  0
ARC
  5
20348
  8
0
 10
55.3036665620436807
 20
72.1070679421490581
 30
0.0
 40
0.0197
 50
90.0
 51
180.5000000020446862
  0
LINE
  5
20349
  8
0
 10
56.5336197166367427
 20
72.1068956532104863
 30
0.0
 11
56.530860598541139
 21
71.7914224243104826
 31
0.0
  0
ARC
  5
2034A
  8
0
 10
56.5139204700389186
 20
72.1070679421490581
 30
0.0
 40
0.0197
 50
359.4989058436768232
 51
90.0
  0
LINE
  5
2034B
  8
0
 10
56.5111613519433291
 20
71.7718947132490683
 30
0.0
 11
55.3064196552150733
 21
71.7718947132490683
 31
0.0
  0
ARC
  5
2034C
  8
0
 10
56.5111613519433291
 20
71.7915947132490686
 30
0.0
 40
0.0197
 50
270.0
 51
359.4989058436764253
  0
ARC
  5
2034D
  8
0
 10
55.9087905035793682
 20
127.6774403712709045
 30
0.0
 40
55.9087907753345021
 50
269.38267355450688
 51
270.6173264454926084
  0
LINE
  5
2034E
  8
0
 10
55.6196556546148102
 20
69.338205700049059
 30
0.0
 11
55.6196556546148102
 21
69.7618300597470409
 31
0.0
  0
ARC
  5
2034F
  8
0
 10
55.9088176709148215
 20
69.7618300597470409
 30
0.0
 40
0.2891620162999997
 50
0.0000000007999731
 51
180.0
  0
LINE
  5
20350
  8
0
 10
56.1979796872148114
 20
69.761830059751091
 30
0.0
 11
56.1979796872148114
 21
69.3382056979490642
 31
0.0
  0
LINE
  5
20351
  8
0
 10
55.6399430527148127
 20
69.318606591149063
 30
0.0
 11
56.1776927746597181
 21
69.3186065911434355
 31
0.0
  0
ARC
  5
20352
  8
0
 10
56.1777415936414712
 20
69.33885504031106
 30
0.0
 40
0.0202485080187801
 50
269.8618602258604824
 51
358.1622864966359998
  0
ARC
  5
20353
  8
0
 10
55.6396227432962078
 20
69.3385745168837104
 30
0.0
 40
0.0199704946425433
 50
181.0582036063819942
 51
270.919014031162078
  0
LINE
  5
20354
  8
0
 10
55.6821364863148105
 20
69.7618300597486751
 30
0.0
 11
55.6821379171148223
 21
69.3422760682490633
 31
0.0
  0
LINE
  5
20355
  8
0
 10
56.1354982958148199
 20
69.7618300598490606
 30
0.0
 11
56.1354974306128796
 21
69.3422751333356615
 31
0.0
  0
ARC
  5
20356
  8
0
 10
55.9088173910648223
 20
69.7618303551770254
 30
0.0
 40
0.2266809047501935
 50
359.9999253530174883
 51
180.0000746723584939
  0
LINE
  5
20357
  8
0
 10
55.6196556548530623
 20
69.3382056871513299
 30
0.0
 11
55.6821379171148223
 21
69.3422760682490633
 31
0.0
  0
LINE
  5
20358
  8
0
 10
55.6821379171148223
 20
69.3422760682490633
 30
0.0
 11
56.1354974306128867
 21
69.3422751333356615
 31
0.0
  0
LINE
  5
20359
  8
0
 10
56.1354974306128867
 20
69.3422751333356615
 30
0.0
 11
56.1979796872148114
 21
69.3382058679556508
 31
0.0
  0
LINE
  5
2035A
  8
0
 10
55.6090871896790802
 20
69.2757988588993356
 30
0.0
 11
55.6090826955148216
 21
67.7617559864490602
 31
0.0
  0
LINE
  5
2035B
  8
0
 10
56.2085050897148193
 20
67.7617559863490726
 30
0.0
 11
56.2085050897148193
 21
69.2753854318490596
 31
0.0
  0
ARC
  5
2035C
  8
0
 10
56.1888943023389515
 20
69.2753854318490596
 30
0.0
 40
0.0196107873758589
 50
359.9999999999988063
 51
91.9772094569413383
  0
ARC
  5
2035D
  8
0
 10
55.6291248160396918
 20
69.2749295698255168
 30
0.0
 40
0.0200564736098242
 50
89.2992837082286854
 51
177.5159041824776125
  0
LINE
  5
2035E
  8
0
 10
55.6293700967148226
 20
69.294984543549063
 30
0.0
 11
56.1882176916148168
 21
69.294984543549063
 31
0.0
  0
ARC
  5
2035F
  8
0
 10
55.908793892616103
 20
67.7694183671140138
 30
0.0
 40
0.2998091288559039
 50
181.4644980384508131
 51
358.5355019424320062
  0
LINE
  5
20360
  8
0
 10
55.6821149141880625
 20
69.270627894515215
 30
0.0
 11
55.6821149008468481
 21
67.7617559910033265
 31
0.0
  0
LINE
  5
20361
  8
0
 10
55.6090871884510207
 20
69.275385139926243
 30
0.0
 11
55.6821153051148201
 21
69.2706278690490649
 31
0.0
  0
LINE
  5
20362
  8
0
 10
55.6821153051148201
 20
69.2706278690490649
 30
0.0
 11
56.1354724707148165
 21
69.2706278523490653
 31
0.0
  0
LINE
  5
20363
  8
0
 10
56.1354724707148165
 20
69.2706278523490653
 30
0.0
 11
56.2085050897148193
 21
69.2753854299726157
 31
0.0
  0
LINE
  5
20364
  8
0
 10
56.1354728196177106
 20
69.2706278750777074
 30
0.0
 11
56.1354750772148208
 21
67.7617559869947854
 31
0.0
  0
ARC
  5
20365
  8
0
 10
55.9087949890308309
 20
67.7617556478325866
 30
0.0
 40
0.2266800881842392
 50
179.9999132599810991
 51
0.000085726818122
  0
ARC
  5
20366
  8
0
 10
55.9087937261148227
 20
69.7478977525490649
 30
0.0
 40
0.3149606299000007
 50
0.0
 51
180.0
  0
LINE
  5
20367
  8
0
 10
56.2237543560148225
 20
69.7478977525490649
 30
0.0
 11
56.2237543580148227
 21
67.7597087658490551
 31
0.0
  0
ARC
  5
20368
  8
0
 10
55.9087937271148192
 20
67.7597087658649002
 30
0.0
 40
0.3149606308999999
 50
180.0000027673667091
 51
359.9999999971179818
  0
LINE
  5
20369
  8
0
 10
55.5938330962148228
 20
67.7597087506524218
 30
0.0
 11
55.5938330962148228
 21
69.7478977525490649
 31
0.0
  0
ARC
  5
2036A
  8
0
 10
55.7749356249148178
 20
69.3075189896490542
 30
0.0
 40
0.0118110236000008
 50
359.9999995149044025
 51
69.8427273409231049
  0
ARC
  5
2036B
  8
0
 10
56.0426521603148231
 20
69.3075189896490542
 30
0.0
 40
0.0118110235999982
 50
110.1572726973464995
 51
180.0000004851129916
  0
LINE
  5
2036C
  8
0
 10
56.0308411367148125
 20
69.3075189895490666
 30
0.0
 11
56.0308411367148125
 21
69.294984543549063
 31
0.0
  0
LINE
  5
2036D
  8
0
 10
55.7867466485148213
 20
69.3075189895490666
 30
0.0
 11
55.7867466485148213
 21
69.294984543549063
 31
0.0
  0
LINE
  5
2036E
  8
0
 10
55.5938330962148228
 20
69.3098236428093344
 30
0.0
 11
55.7342986373148221
 21
69.3091251540490703
 31
0.0
  0
LINE
  5
2036F
  8
0
 10
56.2237543580927905
 20
69.3098388645637868
 30
0.0
 11
56.0832883238148199
 21
69.3091257355490455
 31
0.0
  0
LINE
  5
20370
  8
0
 10
55.7311905545018789
 20
69.294984543549063
 30
0.0
 11
55.7342986373148221
 21
69.3091251540490703
 31
0.0
  0
LINE
  5
20371
  8
0
 10
55.7342986373148221
 20
69.3091251540490703
 30
0.0
 11
55.7343135310103719
 21
69.3186065911480824
 31
0.0
  0
LINE
  5
20372
  8
0
 10
56.08635679021085
 20
69.294984543549063
 30
0.0
 11
56.0832883238148199
 21
69.3091257355490455
 31
0.0
  0
LINE
  5
20373
  8
0
 10
56.0832883238148199
 20
69.3091257355490455
 30
0.0
 11
56.0832734470565697
 21
69.3186065911444302
 31
0.0
  0
LINE
  5
20374
  8
0
 10
55.6196556546148102
 20
69.373346586844022
 30
0.0
 11
55.5938330962148228
 21
69.3732165360759865
 31
0.0
  0
LINE
  5
20375
  8
0
 10
56.223754358096059
 20
69.374949711566444
 30
0.0
 11
56.1979796872148114
 21
69.3750789124490694
 31
0.0
  0
LINE
  5
20376
  8
0
 10
55.5938330962148228
 20
67.8051689570757645
 30
0.0
 11
55.6090828246154416
 21
67.8052488051250464
 31
0.0
  0
LINE
  5
20377
  8
0
 10
56.2085050897148193
 20
67.8052488043490627
 30
0.0
 11
56.2237543580171106
 21
67.8051689586658028
 31
0.0
  0
LINE
  5
20378
  8
0
 10
55.5938330962148228
 20
68.4783974653459353
 30
0.0
 11
55.609084822973351
 21
68.4784773239885283
 31
0.0
  0
LINE
  5
20379
  8
0
 10
56.2085050897148193
 20
68.4784773128490656
 30
0.0
 11
56.2235693910474907
 21
68.4783984356296287
 31
0.0
  0
ARC
  5
2037A
  8
0
 10
55.5932710156431469
 20
68.490203890947825
 30
0.0
 40
0.0118290893387491
 50
273.6224526041524996
 51
0.0096301191960059
  0
LINE
  5
2037B
  8
0
 10
55.6051001048148308
 20
68.4902058791490589
 30
0.0
 11
55.6036757824148182
 21
69.0264845169490684
 31
0.0
  0
ARC
  5
2037C
  8
0
 10
55.649811618254553
 20
69.0207248579243355
 30
0.0
 40
0.0464939675733527
 50
151.1543593303993873
 51
172.8839351842418068
  0
ARC
  5
2037D
  8
0
 10
56.2243167726864783
 20
68.490203890947825
 30
0.0
 40
0.0118290893387491
 50
179.9903698808039962
 51
267.2748419635885284
  0
LINE
  5
2037E
  8
0
 10
56.2124876835148228
 20
68.4902058791490589
 30
0.0
 11
56.2139120059148212
 21
69.0264845169490684
 31
0.0
  0
ARC
  5
2037F
  8
0
 10
55.5959628244794075
 20
69.0250833001653064
 30
0.0
 40
0.0079365961531976
 50
12.3926481089354397
 51
105.5656762948552938
  0
ARC
  5
20380
  8
0
 10
56.2216249638502319
 20
69.0250833001653064
 30
0.0
 40
0.0079365961531976
 50
74.4343237051447204
 51
167.5992650017714141
  0
ARC
  5
20381
  8
0
 10
56.1683515711665393
 20
69.0208563304056639
 30
0.0
 40
0.0459067500289339
 50
7.0422037183755739
 51
28.9933823938131709
  0
LINE
  5
20382
  8
0
 10
56.1979796872148114
 20
69.3643591958490617
 30
0.0
 11
56.2237543580955119
 21
69.3642242387743124
 31
0.0
  0
LINE
  5
20383
  8
0
 10
56.1854239524220418
 20
69.3201204882600166
 30
0.0
 11
56.2237543580933021
 21
69.3201204882600166
 31
0.0
  0
LINE
  5
20384
  8
0
 10
55.6320925734545213
 20
69.3200781064637539
 30
0.0
 11
55.5938330962148228
 21
69.3202784344014162
 31
0.0
  0
LINE
  5
20385
  8
0
 10
55.6196556546148173
 20
69.3643594448490717
 30
0.0
 11
55.5938330962148228
 21
69.3642242370846844
 31
0.0
  0
LINE
  5
20386
  8
0
 10
55.5938330962148228
 20
69.4489369899443147
 30
0.0
 11
55.6196556546148102
 21
69.4488111786490663
 31
0.0
  0
LINE
  5
20387
  8
0
 10
55.5938330962148228
 20
69.5106330301434951
 30
0.0
 11
55.6196556546148102
 21
69.5107662814490652
 31
0.0
  0
LINE
  5
20388
  8
0
 10
56.1979796872148114
 20
69.4462937827663183
 30
0.0
 11
56.2237543580996473
 21
69.4464173340593334
 31
0.0
  0
LINE
  5
20389
  8
0
 10
56.22375435810293
 20
69.5115343168325381
 30
0.0
 11
56.1979796872148114
 21
69.5116670373490706
 31
0.0
  0
LINE
  5
2038A
  8
0
 10
55.5938330962148228
 20
69.46201071794016
 30
0.0
 11
55.6196556546148173
 21
69.4618755100490688
 31
0.0
  0
LINE
  5
2038B
  8
0
 10
56.1979796872148114
 20
69.4618757590490645
 30
0.0
 11
56.2237543581004431
 21
69.4620107161505587
 31
0.0
  0
LINE
  5
2038C
  8
0
 10
56.1979796872148114
 20
69.5060914793490667
 30
0.0
 11
56.2237543581026529
 21
69.5059565222355218
 31
0.0
  0
LINE
  5
2038D
  8
0
 10
55.5938330962148228
 20
69.5059565205459364
 30
0.0
 11
55.6196556546148102
 21
69.5060917283490625
 31
0.0
  0
ARC
  5
2038E
  8
0
 10
55.5910226780133883
 20
69.7841536669562288
 30
0.0
 40
0.0128365385446535
 50
3.1374215560670069
 51
60.1176834397213611
  0
LINE
  5
2038F
  8
0
 10
55.603839976343977
 20
69.7848562232267255
 30
0.0
 11
55.6036757904148189
 21
69.6658799965490658
 31
0.0
  0
ARC
  5
20390
  8
0
 10
55.5961221228992315
 20
69.6669644546817182
 30
0.0
 40
0.0075988064268106
 50
252.4682029898640963
 51
314.1036701156539266
  0
ARC
  5
20391
  8
0
 10
55.5960125701503074
 20
69.6670774898597216
 30
0.0
 40
0.0077562191209093
 50
314.1036701156580193
 51
351.1185004663445852
  0
ARC
  5
20392
  8
0
 10
56.2266131493611496
 20
69.7841536669562288
 30
0.0
 40
0.0128365385446535
 50
119.8823165602785963
 51
176.8625784439329891
  0
LINE
  5
20393
  8
0
 10
56.2137958510305609
 20
69.7848562232267255
 30
0.0
 11
56.213960036959719
 21
69.6658799965490658
 31
0.0
  0
ARC
  5
20394
  8
0
 10
56.2215137044752993
 20
69.6669644546817182
 30
0.0
 40
0.0075988064268106
 50
225.8963298843457892
 51
287.5317970101359037
  0
ARC
  5
20395
  8
0
 10
56.2216232572242376
 20
69.6670774898597216
 30
0.0
 40
0.0077562191209093
 50
188.8814995336553864
 51
225.8963298843420091
  0
ARC
  5
20396
  8
0
 10
55.7520190578006591
 20
69.7143707316192689
 30
0.0
 40
0.1571559245749684
 50
198.6830187232961009
 51
212.6223118176517062
  0
ARC
  5
20397
  8
0
 10
56.0489857005526702
 20
69.7224174163849995
 30
0.0
 40
0.1755898177684994
 50
328.0526100436748038
 51
340.537421524521676
  0
ARC
  5
20398
  8
0
 10
55.1078139804718177
 20
69.8183350494460058
 30
0.0
 40
0.4976423455363433
 50
355.3676034137121178
 51
1.5732263915152129
  0
LINE
  5
20399
  8
0
 10
55.6052945859068686
 20
69.8320908061820234
 30
0.0
 11
55.6282901929925799
 21
69.8319656840849774
 31
0.0
  0
LINE
  5
2039A
  8
0
 10
55.6087958744035475
 20
69.8438221360791545
 30
0.0
 11
55.6314885496190001
 21
69.8437033163817347
 31
0.0
  0
LINE
  5
2039B
  8
0
 10
55.6267185910210671
 20
69.8880184738891046
 30
0.0
 11
55.6486982802382926
 21
69.8881335603507665
 31
0.0
  0
LINE
  5
2039C
  8
0
 10
55.632887816581551
 20
69.899806038931402
 30
0.0
 11
55.6547616687268203
 21
69.8999250249808739
 31
0.0
  0
LINE
  5
2039D
  8
0
 10
56.1628738107020808
 20
69.8999247718365382
 30
0.0
 11
56.1846996301996526
 21
69.8998060488272586
 31
0.0
  0
LINE
  5
2039E
  8
0
 10
56.1689371827967321
 20
69.8881333107305238
 30
0.0
 11
56.1908688603285
 21
69.888018475660715
 31
0.0
  0
LINE
  5
2039F
  8
0
 10
56.1861467188074499
 20
69.8437035650198084
 30
0.0
 11
56.2087915783833409
 21
69.8438221343364063
 31
0.0
  0
LINE
  5
203A0
  8
0
 10
56.1893450844191094
 20
69.8319659417424674
 30
0.0
 11
56.2122928671152096
 21
69.8320908033254
 31
0.0
  0
ARC
  5
203A1
  8
0
 10
56.7098218469027202
 20
69.8183350494460058
 30
0.0
 40
0.4976423455363433
 50
178.4450956205245973
 51
184.6323965862879106
  0
LINE
  5
203A2
  8
0
 10
55.8023300396450423
 20
70.0306702651800066
 30
0.0
 11
55.7697383911160429
 21
70.0304996141766622
 31
0.0
  0
LINE
  5
203A3
  8
0
 10
56.0153059391848771
 20
70.0306700128632542
 30
0.0
 11
56.0478490575644273
 21
70.0304996159230484
 31
0.0
  0
LINE
  5
203A4
  8
0
 10
56.0203712734349679
 20
70.0424323843345746
 30
0.0
 11
55.9777145300756231
 21
70.0426643426764315
 31
0.0
  0
LINE
  5
203A5
  8
0
 10
55.8399206578964922
 20
70.042664304930625
 30
0.0
 11
55.7972152247745683
 21
70.0424320229246291
 31
0.0
  0
ARC
  5
203A6
  8
0
 10
55.536161659335427
 20
65.7636493026264333
 30
0.0
 40
1.04833974747086
 50
92.6476987790951512
 51
98.341653109583234
  0
ARC
  5
203A7
  8
0
 10
55.3895702474913705
 20
66.7602876002378167
 30
0.0
 40
0.0409809757629053
 50
97.7086770188916631
 51
114.0857209125602054
  0
ARC
  5
203A8
  8
0
 10
55.7198735138042665
 20
70.4889926061124896
 30
0.0
 40
0.6518010479951492
 50
100.0933045496181961
 51
117.666160890012705
  0
ARC
  5
203A9
  8
0
 10
55.45718034417159
 20
70.9900681867983963
 30
0.0
 40
0.0860409937925042
 50
117.6661608900119944
 51
193.8774723650487886
  0
ARC
  5
203AA
  8
0
 10
55.4708318688287889
 20
70.9934409018987935
 30
0.0
 40
0.1001029756092624
 50
193.8774723650487886
 51
242.9970787258322105
  0
ARC
  5
203AB
  8
0
 10
55.6796697974723926
 20
71.4032567584474833
 30
0.0
 40
0.5600620136973073
 50
242.9970787258322105
 51
255.35085323002059
  0
ARC
  5
203AC
  8
0
 10
56.9240853078646509
 20
76.3017599570015079
 30
0.0
 40
5.4765842304501628
 50
255.992317490894095
 51
256.0696924596239796
  0
ARC
  5
203AD
  8
0
 10
55.6994666114172219
 20
70.5286973755427766
 30
0.0
 40
0.4703069391357476
 50
101.5072359042364951
 51
126.4299310974586064
  0
ARC
  5
203AE
  8
0
 10
56.1776955808516618
 20
71.4972686171198575
 30
0.0
 40
0.3878871556125449
 50
275.0654415001311008
 51
307.7512805131070195
  0
ARC
  5
203AF
  8
0
 10
56.3542011176140818
 20
71.2501121665710713
 30
0.0
 40
0.0852188573768906
 50
315.6826940422034795
 51
22.3055522728786109
  0
ARC
  5
203B0
  8
0
 10
56.3026900187938821
 20
71.2130223332627708
 30
0.0
 40
0.1476925819444858
 50
28.0425510520521613
 51
75.8109448745909447
  0
ARC
  5
203B1
  8
0
 10
55.9713174185849027
 20
70.3032916514075197
 30
0.0
 40
1.115233992160295
 50
70.7558163560191815
 51
77.5397132953425796
  0
ARC
  5
203B2
  8
0
 10
56.0573521998761422
 20
71.9120851892100319
 30
0.0
 40
0.6793286973472989
 50
283.1537436053798729
 51
300.198386369362197
  0
ARC
  5
203B3
  8
0
 10
56.1439072029948179
 20
71.0641532657099617
 30
0.0
 40
0.2520977927777316
 50
55.6922050685394368
 51
74.3428398248492925
  0
ARC
  5
203B4
  8
0
 10
55.8259749320013796
 20
70.6646463649913272
 30
0.0
 40
1.0164661992128901
 50
99.241698937468513
 51
112.2475664149874035
  0
ARC
  5
203B5
  8
0
 10
55.4831395971493109
 20
71.5027491200504386
 30
0.0
 40
0.1109540265388832
 50
112.2475664149874035
 51
179.5569627923541987
  0
ARC
  5
203B6
  8
0
 10
55.4741882191844766
 20
71.5201075951643332
 30
0.0
 40
0.103325366388656
 50
189.1891888472123924
 51
244.7859748843457055
  0
ARC
  5
203B7
  8
0
 10
55.7083823696247009
 20
72.0012935653153363
 30
0.0
 40
0.638469406443873
 50
244.1671930111799895
 51
260.740100968083425
  0
ARC
  5
203B8
  8
0
 10
56.0897145752599968
 20
72.2537016964870702
 30
0.0
 40
0.6335166204655226
 50
275.9019574680904157
 51
299.036822267389482
  0
ARC
  5
203B9
  8
0
 10
56.3578810107053911
 20
71.7706490377962183
 30
0.0
 40
0.081019463759919
 50
299.0368222673898799
 51
0.3633324196805709
  0
ARC
  5
203BA
  8
0
 10
55.7976202109837516
 20
70.7693499128335759
 30
0.0
 40
0.7701448212467727
 50
100.0872697959397044
 51
119.9432965522101
  0
ARC
  5
203BB
  8
0
 10
56.0277672487547278
 20
73.2264451432603778
 30
0.0
 40
1.7661809568763509
 50
255.9280696004136075
 51
257.0389381091163159
  0
ARC
  5
203BC
  8
0
 10
55.3858149387468899
 20
75.2537397547966975
 30
0.0
 40
3.5750691479722758
 50
282.4221256083280878
 51
282.9311897936124183
  0
ARC
  5
203BD
  8
0
 10
56.3670397366569631
 20
72.1332468809815595
 30
0.0
 40
0.0723892644414222
 50
354.8650776789997963
 51
74.0400557659997389
  0
ARC
  5
203BE
  8
0
 10
55.4448993890095565
 20
72.2043558274483104
 30
0.0
 40
0.0730530581215463
 50
93.5663040688940129
 51
255.6419044123076105
  0
ARC
  5
203BF
  8
0
 10
55.4814664753617279
 20
71.9638851398178758
 30
0.0
 40
0.178292243466122
 50
93.8041667698718129
 51
113.9962600850727057
  0
ARC
  5
203C0
  8
0
 10
57.8654529937680735
 20
36.1106745575479167
 30
0.0
 40
36.1106745855338005
 50
92.9195304460922245
 51
93.8041667698718129
  0
ARC
  5
203C1
  8
0
 10
55.7418752406520426
 20
78.9815301783961985
 30
0.0
 40
6.8129867825507144
 50
272.3919286738428127
 51
275.210970314568101
  0
ARC
  5
203C2
  8
0
 10
56.3548941254977294
 20
72.2814564472220553
 30
0.0
 40
0.0849505793826597
 50
273.88704572823832
 51
354.604981590843181
  0
ARC
  5
203C3
  8
0
 10
56.3758193239748806
 20
72.2793888684237089
 30
0.0
 40
0.0639237439224745
 50
354.6865425316294136
 51
83.8239610706856695
  0
ARC
  5
203C4
  8
0
 10
56.3517033083042591
 20
72.3001268645754607
 30
0.0
 40
0.0877198419787094
 50
353.4158732433730279
 51
42.6519028464046315
  0
ARC
  5
203C5
  8
0
 10
56.0816041435925428
 20
66.396431494038481
 30
0.0
 40
5.9156936470017163
 50
91.2982426854648992
 51
96.2229711850225158
  0
ARC
  5
203C6
  8
0
 10
55.8385821319886517
 20
77.1199677988214773
 30
0.0
 40
4.8105960459966477
 50
271.2982426854649134
 51
276.1819549722461034
  0
ARC
  5
203C7
  8
0
 10
56.3427126904371676
 20
72.4657151375875799
 30
0.0
 40
0.1291202685772629
 50
276.1819549722461034
 51
304.7371830216957846
  0
ARC
  5
203C8
  8
0
 10
56.3656243977455631
 20
72.4132327338508759
 30
0.0
 40
0.0737725192903076
 50
313.3727664826876094
 51
77.3665356333614369
  0
ARC
  5
203C9
  8
0
 10
55.4436400288601305
 20
72.3437268212723126
 30
0.0
 40
0.0720232228964217
 50
105.9656583179259002
 51
254.286151875084812
  0
ARC
  5
203CA
  8
0
 10
55.7136549759627684
 20
70.6841958726023449
 30
0.0
 40
1.7529019990899111
 50
91.6647508950605214
 51
99.5170168495812248
  0
ARC
  5
203CB
  8
0
 10
53.6673413062016991
 20
115.3323842324370929
 30
0.0
 40
42.94241079957159
 50
272.6633014257653826
 51
273.6517649345204859
  0
ARC
  5
203CC
  8
0
 10
55.8716046272785789
 20
70.1508827721451524
 30
0.0
 40
2.3894317918096251
 50
77.6721869153008413
 51
83.1919330265109664
  0
LINE
  5
203CD
  8
0
 10
55.6627309005148234
 20
72.4363580103490676
 30
0.0
 11
55.6627309005148234
 21
72.6388732627436013
 31
0.0
  0
LINE
  5
203CE
  8
0
 10
56.1548568847148175
 20
72.4620808567224231
 30
0.0
 11
56.1548568847148175
 21
72.744014514331738
 31
0.0
  0
LINE
  5
203CF
  8
0
 10
55.6627309005148234
 20
72.7965310693121523
 30
0.0
 11
55.6627309005148234
 21
73.2089004402793648
 31
0.0
  0
LINE
  5
203D0
  8
0
 10
56.1548568847148175
 20
72.8957339181589532
 30
0.0
 11
56.1548568847148175
 21
73.3168928251974705
 31
0.0
  0
LINE
  5
203D1
  8
0
 10
55.6627309005148234
 20
73.3704985757408821
 30
0.0
 11
55.6627309005148234
 21
73.7732257009612624
 31
0.0
  0
LINE
  5
203D2
  8
0
 10
56.1548568847148175
 20
73.4683178660074816
 30
0.0
 11
56.1548568847148175
 21
73.8766344425097259
 31
0.0
  0
LINE
  5
203D3
  8
0
 10
55.6627309005148092
 20
73.9338340757045955
 30
0.0
 11
55.6627309005148234
 21
74.3142690247774311
 31
0.0
  0
LINE
  5
203D4
  8
0
 10
56.1548568847148175
 20
74.411862172539216
 30
0.0
 11
56.1548568847148175
 21
74.0262790602189398
 31
0.0
  0
LINE
  5
203D5
  8
0
 10
55.6627309005148234
 20
74.4758808848381477
 30
0.0
 11
55.6627309005148234
 21
74.8232003729959843
 31
0.0
  0
LINE
  5
203D6
  8
0
 10
56.1548568847148175
 20
74.9162036892654015
 30
0.0
 11
56.1548568847148175
 21
74.5622660482489863
 31
0.0
  0
LINE
  5
203D7
  8
0
 10
55.6627309005148092
 20
74.9882651722804354
 30
0.0
 11
55.6627309005148234
 21
75.2932343082055127
 31
0.0
  0
LINE
  5
203D8
  8
0
 10
56.1548568847148175
 20
75.0652516510960339
 30
0.0
 11
56.1548568847148175
 21
75.3797971141970038
 31
0.0
  0
LINE
  5
203D9
  8
0
 10
55.6627309005148092
 20
75.459578916791699
 30
0.0
 11
55.6627309005148234
 21
75.7140283398182845
 31
0.0
  0
LINE
  5
203DA
  8
0
 10
56.1548568847148175
 20
75.5282785342358949
 30
0.0
 11
56.1548568847148175
 21
75.7919930531570003
 31
0.0
  0
LINE
  5
203DB
  8
0
 10
55.6627309005148092
 20
75.8827583297731252
 30
0.0
 11
55.6627309005148234
 21
76.080964166812592
 31
0.0
  0
LINE
  5
203DC
  8
0
 10
56.1548568847148175
 20
75.9433915242137232
 30
0.0
 11
56.1548568847148175
 21
76.1454353770711094
 31
0.0
  0
LINE
  5
203DD
  8
0
 10
55.6627309005148234
 20
76.2524580772396803
 30
0.0
 11
55.6627309005148234
 21
76.3891389679829445
 31
0.0
  0
LINE
  5
203DE
  8
0
 10
56.1548568847148175
 20
76.2999951582036999
 30
0.0
 11
56.1548568847148175
 21
76.4395597665690048
 31
0.0
  0
LINE
  5
203DF
  8
0
 10
55.6627309005148234
 20
76.6289877018612344
 30
0.0
 11
55.6627309005148234
 21
76.5597246375515255
 31
0.0
  0
LINE
  5
203E0
  8
0
 10
56.1548568847148175
 20
76.5957958178036051
 30
0.0
 11
56.1548568847148175
 21
76.6296529105490691
 31
0.0
  0
ARC
  5
203E1
  8
0
 10
55.4554303591015625
 20
72.5633653614811749
 30
0.0
 40
0.0838549600726987
 50
159.2541587037520969
 51
211.1134868009719128
  0
ARC
  5
203E2
  8
0
 10
55.4847214573345369
 20
72.5810442867352492
 30
0.0
 40
0.1180677184214874
 50
211.1134868009716001
 51
247.6805446162688042
  0
ARC
  5
203E3
  8
0
 10
55.6692177127027676
 20
72.9628862511796967
 30
0.0
 40
0.5419764544929548
 50
244.9666674771573867
 51
259.0062002966737964
  0
ARC
  5
203E4
  8
0
 10
55.7722673648989868
 20
73.2329197654833024
 30
0.0
 40
0.7731284219363733
 50
241.9677783013688099
 51
261.8549554501266812
  0
ARC
  5
203E5
  8
0
 10
55.4720207989107124
 20
72.631155075841491
 30
0.0
 40
0.1024109719336458
 50
204.2657753117968866
 51
231.9654941725665935
  0
ARC
  5
203E6
  8
0
 10
55.454477934921151
 20
72.6225846473190728
 30
0.0
 40
0.0828980486525649
 50
164.131826547910407
 51
203.8485646543140888
  0
ARC
  5
203E7
  8
0
 10
55.4923325386428417
 20
72.6056402574985924
 30
0.0
 40
0.1240858126993637
 50
117.5771058092820027
 51
161.3841853062068878
  0
ARC
  5
203E8
  8
0
 10
56.0516006262001127
 20
71.340087620036158
 30
0.0
 40
1.507463825268613
 50
100.0096074023576023
 51
114.1486921691166998
  0
ARC
  5
203E9
  8
0
 10
55.7262346836012483
 20
72.1081839995274834
 30
0.0
 40
0.531706115947186
 50
101.6320630901179953
 51
124.9638643379641962
  0
ARC
  5
203EA
  8
0
 10
60.5416001798331891
 20
51.0070496163788221
 30
0.0
 40
22.1751924391222204
 50
101.2433491182699044
 51
102.8256781151744974
  0
ARC
  5
203EB
  8
0
 10
55.8932207828513512
 20
74.2291197977989725
 30
0.0
 40
1.507849708904659
 50
282.4369641433260085
 51
287.4449566671281104
  0
ARC
  5
203EC
  8
0
 10
56.2855153421321504
 20
72.9807398360633073
 30
0.0
 40
0.1992827254817846
 50
287.4449566671277125
 51
312.0926773666457166
  0
ARC
  5
203ED
  8
0
 10
56.3630071849979828
 20
72.8846046063096082
 30
0.0
 40
0.076315326285153
 50
317.3093615161112098
 51
20.9631223016652299
  0
ARC
  5
203EE
  8
0
 10
56.3475081322451672
 20
72.8692529317394957
 30
0.0
 40
0.0966812902457516
 50
26.179806451130041
 51
59.5281376038570471
  0
ARC
  5
203EF
  8
0
 10
56.0867971862672974
 20
71.9087059250159228
 30
0.0
 40
1.0888583717634319
 50
73.4732711285800235
 51
86.4163593153831329
  0
ARC
  5
203F0
  8
0
 10
55.7397426105017786
 20
71.5241322047673265
 30
0.0
 40
1.549835192542782
 50
70.3180996915883725
 51
74.4639791982785511
  0
ARC
  5
203F1
  8
0
 10
55.7570504911267903
 20
74.9800586618973028
 30
0.0
 40
2.1219471162447601
 50
279.1294917307703827
 51
287.3447518026388252
  0
ARC
  5
203F2
  8
0
 10
58.3922250451370317
 20
60.5119334513095808
 30
0.0
 40
12.5847385101585605
 50
100.5236463072097024
 51
101.9354376997326028
  0
ARC
  5
203F3
  8
0
 10
56.0408356280051976
 20
73.4547600312987186
 30
0.0
 40
0.7970187442219248
 50
278.224936397201418
 51
294.7547840004014006
  0
ARC
  5
203F4
  8
0
 10
56.3273005443255315
 20
72.833506030968536
 30
0.0
 40
0.1128998355454619
 50
294.7547840004014006
 51
351.3439465479953014
  0
ARC
  5
203F5
  8
0
 10
56.3657717742451396
 20
72.8276493008444277
 30
0.0
 40
0.0739853547025346
 50
351.3439465479953014
 51
22.8910605297085112
  0
ARC
  5
203F6
  8
0
 10
56.0989000432531384
 20
74.6393538659392846
 30
0.0
 40
2.0777781958334072
 50
255.9740028079937986
 51
257.8822810920602251
  0
LINE
  5
203F7
  8
0
 10
55.6573691547485723
 20
72.6090305651871262
 30
0.0
 11
55.6627309005148234
 21
72.6090305651871262
 31
0.0
  0
ARC
  5
203F8
  8
0
 10
55.7075599089660116
 20
73.4091646286335902
 30
0.0
 40
0.4566834857857979
 50
226.9965899064252994
 51
264.3666543709151142
  0
ARC
  5
203F9
  8
0
 10
55.4953950032766699
 20
73.1485575736609519
 30
0.0
 40
0.1234760364081266
 50
132.6633570769629955
 51
216.4568369044968961
  0
ARC
  5
203FA
  8
0
 10
55.7962007003458922
 20
72.8059251135997556
 30
0.0
 40
0.5793875122045631
 50
104.7951771107895951
 51
131.5753490997495021
  0
ARC
  5
203FB
  8
0
 10
56.4191869543911082
 20
70.8516356765124442
 30
0.0
 40
2.6299992521967712
 50
94.5306394314722382
 51
107.045654342918894
  0
ARC
  5
203FC
  8
0
 10
55.736837090765107
 20
73.4446809328739079
 30
0.0
 40
0.3698332252059427
 50
233.8318186055373076
 51
257.5623012819856967
  0
ARC
  5
203FD
  8
0
 10
56.2160359061101431
 20
71.7196156474306008
 30
0.0
 40
1.5878791563766099
 50
98.0581422058715759
 51
116.0553441304548983
  0
ARC
  5
203FE
  8
0
 10
56.5089557706967511
 20
70.5056894826987559
 30
0.0
 40
2.8334167102510071
 50
92.8983873048198632
 51
100.4826488749391018
  0
ARC
  5
203FF
  8
0
 10
55.1380812287838182
 20
79.6243645677524938
 30
0.0
 40
6.5345069995046252
 50
273.9611896377259086
 51
274.6051832756078852
  0
ARC
  5
20400
  8
0
 10
55.4424903987852602
 20
73.087521962298041
 30
0.0
 40
0.0708635493554858
 50
157.9413001462339992
 51
220.9438664662750114
  0
ARC
  5
20401
  8
0
 10
55.5004331774168733
 20
73.1669832901804114
 30
0.0
 40
0.1681552806330365
 50
228.4787780340066945
 51
272.1871824905283006
  0
ARC
  5
20402
  8
0
 10
56.0587177008345705
 20
73.6691375707052885
 30
0.0
 40
0.5404600373352273
 50
280.2465319703634918
 51
307.4740368645464059
  0
ARC
  5
20403
  8
0
 10
56.0342779424732598
 20
73.6885075799034723
 30
0.0
 40
0.438181476768931
 50
285.972763503961005
 51
305.1843020514297109
  0
ARC
  5
20404
  8
0
 10
56.2969674503177515
 20
73.3497106487441926
 30
0.0
 40
0.1420992526140337
 50
309.594595806852908
 51
13.1108566211250395
  0
ARC
  5
20405
  8
0
 10
56.3072500573296892
 20
72.5506640239198646
 30
0.0
 40
0.9277137058109866
 50
86.0249003519005981
 51
95.9279700659090366
  0
ARC
  5
20406
  8
0
 10
56.3662788076850489
 20
73.4030575110422774
 30
0.0
 40
0.0732790827505386
 50
4.0307593864303186
 51
85.8656512957652893
  0
ARC
  5
20407
  8
0
 10
56.3693434918898078
 20
73.4054726133706765
 30
0.0
 40
0.07008655662936
 50
267.0074441857711918
 51
2.237111448032866
  0
ARC
  5
20408
  8
0
 10
55.7791358440105967
 20
73.931902247190294
 30
0.0
 40
0.5279645427211892
 50
226.7646533427679003
 51
257.2628482736341198
  0
ARC
  5
20409
  8
0
 10
55.5359862415576799
 20
73.6611819239524692
 30
0.0
 40
0.1643851237373706
 50
150.3616804973011938
 51
223.8716039601403054
  0
ARC
  5
2040A
  8
0
 10
55.7726756746039527
 20
73.4845269193065178
 30
0.0
 40
0.4589204737423184
 50
109.5459913624899002
 51
145.8006484177504092
  0
ARC
  5
2040B
  8
0
 10
56.1828813744219886
 20
72.5218932686226054
 30
0.0
 40
1.5047037443328091
 50
93.7659325677905429
 51
112.0029468776400989
  0
ARC
  5
2040C
  8
0
 10
56.163261517684937
 20
72.7234630028245306
 30
0.0
 40
1.153202066925374
 50
77.551623422907042
 51
105.5210479617053068
  0
ARC
  5
2040D
  8
0
 10
56.0328453644308766
 20
72.9467045555821016
 30
0.0
 40
0.9056058304575609
 50
101.3465818057153029
 51
121.3637023225895035
  0
ARC
  5
2040E
  8
0
 10
55.6081450150033092
 20
73.6291918275588841
 30
0.0
 40
0.102070640104982
 50
117.189236166600395
 51
162.5611930115748862
  0
ARC
  5
2040F
  8
0
 10
55.5854586076690467
 20
73.6802144486632642
 30
0.0
 40
0.0774373279555206
 50
195.2998076190135066
 51
229.6339698054472933
  0
ARC
  5
20410
  8
0
 10
55.7613576146930114
 20
73.8834425139234554
 30
0.0
 40
0.3462138559884557
 50
229.2372766628066074
 51
253.4487885201531014
  0
ARC
  5
20411
  8
0
 10
55.9568035493634497
 20
72.938662812290957
 30
0.0
 40
0.6794032873414759
 50
52.2796001993510302
 51
73.0515782495398582
  0
ARC
  5
20412
  8
0
 10
56.055523217473862
 20
74.0397273264031242
 30
0.0
 40
0.4548321198220306
 50
282.614859380999917
 51
319.0292600198940818
  0
ARC
  5
20413
  8
0
 10
56.0179209168087411
 20
74.0869401203967612
 30
0.0
 40
0.3813925124845215
 50
291.0413796473229127
 51
311.0906584404872888
  0
ARC
  5
20414
  8
0
 10
56.1821928203389191
 20
74.329832188439255
 30
0.0
 40
0.537328112018008
 50
267.0838858041456092
 51
292.1496971140995811
  0
ARC
  5
20415
  8
0
 10
56.3517508186143985
 20
73.9132980209638646
 30
0.0
 40
0.0876052779817464
 50
292.1496971140995811
 51
1.7714133374694629
  0
ARC
  5
20416
  8
0
 10
56.3284758420986904
 20
73.8972508273202919
 30
0.0
 40
0.1124140024572296
 50
9.6041932267507164
 51
81.7201366168790031
  0
ARC
  5
20417
  8
0
 10
56.1999307229447069
 20
73.4379071734012001
 30
0.0
 40
0.5886561929593166
 50
75.7666674100733815
 51
90.561823000914984
  0
ARC
  5
20418
  8
0
 10
56.1848003411893515
 20
72.4463049561127264
 30
0.0
 40
1.580257820810218
 50
89.6606915308069148
 51
93.655352894752653
  0
ARC
  5
20419
  8
0
 10
56.2547682988602986
 20
73.8566756582501114
 30
0.0
 40
0.1845265211254045
 50
321.3811733153182217
 51
10.4452523676982398
  0
ARC
  5
2041A
  8
0
 10
55.4422737822816032
 20
73.6033683035206536
 30
0.0
 40
0.0706943441664412
 50
161.1599783478552013
 51
262.4053583026304182
  0
ARC
  5
2041B
  8
0
 10
55.5546253287687009
 20
72.327533204118339
 30
0.0
 40
1.363043293757277
 50
85.4509843940084437
 51
91.1875568968125663
  0
LINE
  5
2041C
  8
0
 10
55.6295997532266497
 20
73.5632802113014748
 30
0.0
 11
55.6627309005148234
 21
73.563376102676429
 31
0.0
  0
ARC
  5
2041D
  8
0
 10
55.7400990209508933
 20
74.273356566662855
 30
0.0
 40
0.4068870250263314
 50
213.9547247624761042
 51
246.5298224507336045
  0
ARC
  5
2041E
  8
0
 10
55.5649843243860175
 20
74.1554414369476831
 30
0.0
 40
0.195772992407107
 50
156.2310484339363938
 51
213.9547247624761042
  0
ARC
  5
2041F
  8
0
 10
55.7840341462547684
 20
74.0476954325282719
 30
0.0
 40
0.4397906557018954
 50
114.2649990716548984
 51
154.8865833132086038
  0
ARC
  5
20420
  8
0
 10
56.0963898940553918
 20
73.451577400682865
 30
0.0
 40
1.1123208846062631
 50
90.8251306000975234
 51
116.314577217495895
  0
ARC
  5
20421
  8
0
 10
56.1023310525113885
 20
73.8125607725049662
 30
0.0
 40
0.7515430550055479
 50
76.1497400213622342
 51
91.6743693786916367
  0
ARC
  5
20422
  8
0
 10
55.7531930819676376
 20
74.2630193078602758
 30
0.0
 40
0.2736882701962612
 50
212.6128075493425058
 51
250.6990530716323917
  0
ARC
  5
20423
  8
0
 10
55.6081638514793184
 20
74.1576208304448841
 30
0.0
 40
0.0953130656654896
 50
131.7678698226307858
 51
206.2181084465024981
  0
ARC
  5
20424
  8
0
 10
55.9116723503042721
 20
73.8465451678893459
 30
0.0
 40
0.5298466303804757
 50
107.850514466089507
 51
133.8401913909762868
  0
ARC
  5
20425
  8
0
 10
56.1064808324360698
 20
73.3541959687035501
 30
0.0
 40
1.058771949557713
 50
85.2300634092491833
 51
109.718268987032701
  0
ARC
  5
20426
  8
0
 10
56.1325142321050379
 20
74.6940388933591208
 30
0.0
 40
0.4701380694181666
 50
272.7239275771256075
 51
302.7892582312882155
  0
ARC
  5
20427
  8
0
 10
56.3255929661528327
 20
74.3944539722298828
 30
0.0
 40
0.1137246866531542
 50
302.7516011843333104
 51
32.4585397839976224
  0
ARC
  5
20428
  8
0
 10
56.2415046465628379
 20
74.321621441930418
 30
0.0
 40
0.2243598992275286
 50
36.6313026218512832
 51
79.5393763937249645
  0
ARC
  5
20429
  8
0
 10
56.1003589376078722
 20
74.7797146133716666
 30
0.0
 40
0.4299938302089448
 50
277.2813207751585196
 51
294.8437068591439925
  0
ARC
  5
2042A
  8
0
 10
56.1769735898597702
 20
74.13364846691303
 30
0.0
 40
0.276210605576764
 50
38.2128136058330128
 51
86.3571867685096777
  0
ARC
  5
2042B
  8
0
 10
55.4634819122886427
 20
74.1025867819021187
 30
0.0
 40
0.0918123604385547
 50
170.5921402925181951
 51
242.1614482156898021
  0
ARC
  5
2042C
  8
0
 10
55.7086239925353794
 20
74.7056661572632237
 30
0.0
 40
0.6179145238780182
 50
252.4353300055190061
 51
265.7406666374752717
  0
ARC
  5
2042D
  8
0
 10
55.6684597328220079
 20
73.3478074173896601
 30
0.0
 40
0.889730827303407
 50
90.3689207687971816
 51
97.9834088948821602
  0
ARC
  5
2042E
  8
0
 10
56.0048269076043894
 20
74.5089935591090295
 30
0.0
 40
0.4955714758849559
 50
287.6223295338573962
 51
321.1660022444065135
  0
ARC
  5
2042F
  8
0
 10
55.9733849409685718
 20
74.5408747458003518
 30
0.0
 40
0.4068049623206208
 50
296.4931478210082787
 51
311.7504156623132872
  0
ARC
  5
20430
  8
0
 10
56.0201358871492019
 20
73.6650590645217989
 30
0.0
 40
0.4914465007045889
 50
42.1038596603038684
 51
59.6728904536139098
  0
ARC
  5
20431
  8
0
 10
56.197596133918168
 20
74.3434731364754526
 30
0.0
 40
0.2417528014268675
 50
323.0755759547506045
 51
7.2163300736975007
  0
LINE
  5
20432
  8
0
 10
55.6627309005148234
 20
74.2896429052125882
 30
0.0
 11
55.6378963495773533
 21
74.3001795505715847
 31
0.0
  0
ARC
  5
20433
  8
0
 10
56.0334553875947279
 20
74.2461912000663773
 30
0.0
 40
0.4340136283901414
 50
33.148707159198942
 51
46.790950578341679
  0
ARC
  5
20434
  8
0
 10
56.0706611390074769
 20
74.8337537752842223
 30
0.0
 40
0.3756815442960653
 50
307.9948681548806917
 51
341.2500470755301194
  0
ARC
  5
20435
  8
0
 10
56.1023533916783919
 20
75.0493447367033042
 30
0.0
 40
0.4259184191588174
 50
277.0809331989040061
 51
313.7240059701690029
  0
ARC
  5
20436
  8
0
 10
55.6790076384625792
 20
74.6354014607027949
 30
0.0
 40
0.307786199268551
 50
182.9632816752761926
 51
234.6663324719307866
  0
ARC
  5
20437
  8
0
 10
55.7389821954171225
 20
74.6048709520364071
 30
0.0
 40
0.3676399871840685
 50
124.464160425873402
 51
177.7210326059652914
  0
ARC
  5
20438
  8
0
 10
55.7468466223316028
 20
74.6703798672642733
 30
0.0
 40
0.2442376433905321
 50
200.4893607108984952
 51
239.9785793929110014
  0
ARC
  5
20439
  8
0
 10
55.6690259920545287
 20
74.6265336099627064
 30
0.0
 40
0.1566046075399257
 50
136.849328471245002
 51
195.4219259272003058
  0
ARC
  5
2043A
  8
0
 10
55.8883739479540509
 20
74.4413662946703738
 30
0.0
 40
0.4435223198762566
 50
114.6687466512636036
 51
138.777892009036691
  0
ARC
  5
2043B
  8
0
 10
56.053242947366563
 20
74.107246303026983
 30
0.0
 40
0.816026685978943
 50
85.095288128819945
 51
115.396893713949197
  0
ARC
  5
2043C
  8
0
 10
55.4984127270705869
 20
74.5757530110401063
 30
0.0
 40
0.1267261361661591
 50
170.1226361384246104
 51
226.4329698143835117
  0
ARC
  5
2043D
  8
0
 10
55.6520174540263781
 20
74.4619826332466204
 30
0.0
 40
0.1916127025664651
 50
86.7948077873714254
 51
135.4926438259348913
  0
ARC
  5
2043E
  8
0
 10
55.7214753861424725
 20
74.9012257367027559
 30
0.0
 40
0.3923731899437593
 50
240.7009165585787969
 51
261.3895399881402
  0
ARC
  5
2043F
  8
0
 10
55.9023914325065618
 20
75.0106163720833052
 30
0.0
 40
0.4846886666918269
 50
301.3914121719076888
 51
309.7226819806463141
  0
ARC
  5
20440
  8
0
 10
56.1143559003877002
 20
75.005062724905244
 30
0.0
 40
0.2484663188171846
 50
279.3812977924794723
 51
315.3808442819304787
  0
ARC
  5
20441
  8
0
 10
56.2710291917544509
 20
74.8504585213663205
 30
0.0
 40
0.0283550288304976
 50
315.3808442819328093
 51
357.8066981780798983
  0
ARC
  5
20442
  8
0
 10
56.2681049517697218
 20
74.8400020468362186
 30
0.0
 40
0.0326330326059054
 50
16.6887348030142384
 51
50.0491941295179004
  0
ARC
  5
20443
  8
0
 10
56.1530107661511622
 20
74.6912273545302412
 30
0.0
 40
0.2207093341045713
 50
51.9450991590446165
 51
77.9604765520921603
  0
ARC
  5
20444
  8
0
 10
56.0744408668268335
 20
74.4150194229978581
 30
0.0
 40
0.5075947248416776
 50
75.7895060091163515
 51
84.5090000193813182
  0
ARC
  5
20445
  8
0
 10
55.8852214014786881
 20
75.4444868232209558
 30
0.0
 40
0.6529220886793774
 50
294.391373829741724
 51
302.6890983588422728
  0
ARC
  5
20446
  8
0
 10
55.9179278339525325
 20
75.2653843838725862
 30
0.0
 40
0.6340648470179558
 50
235.7868166793259093
 51
246.266839626004213
  0
LINE
  5
20447
  8
0
 10
55.6627309005148234
 20
74.8155142439930216
 30
0.0
 11
55.6567244472428087
 21
74.8195865440604138
 31
0.0
  0
ARC
  5
20448
  8
0
 10
56.2740846563162691
 20
74.8525399697639813
 30
0.0
 40
0.1654240805525357
 50
317.8569306339379068
 51
358.6660125513575963
  0
ARC
  5
20449
  8
0
 10
56.2920406138018521
 20
74.8521218351097986
 30
0.0
 40
0.1474632552426231
 50
358.6660125513575963
 51
43.5156999302849101
  0
ARC
  5
2044A
  8
0
 10
56.1306567440816906
 20
74.686436685710305
 30
0.0
 40
0.3786872965711614
 50
44.8822452774691385
 51
83.4316453606944748
  0
ARC
  5
2044B
  8
0
 10
56.0426280838882107
 20
74.1730338189992864
 30
0.0
 40
0.8992485549871091
 50
81.6012126887811178
 51
110.9890077566386992
  0
ARC
  5
2044C
  8
0
 10
55.9757588432918425
 20
74.3260756236801257
 30
0.0
 40
0.7324489683484411
 50
110.3933496871104012
 51
127.394964572624005
  0
ARC
  5
2044D
  8
0
 10
56.1467876174283091
 20
74.7993458634700943
 30
0.0
 40
0.292647482720132
 50
342.8384335313392057
 51
5.8989224707291452
  0
ARC
  5
2044E
  8
0
 10
55.715673515103461
 20
75.0625174248195179
 30
0.0
 40
0.3440758972293072
 50
181.9276576274114916
 51
220.7017358634562925
  0
ARC
  5
2044F
  8
0
 10
55.7310116814483507
 20
75.0630336564572502
 30
0.0
 40
0.3594227484349324
 50
139.2681349155768089
 51
181.9276576274110937
  0
ARC
  5
20450
  8
0
 10
55.7261953116444602
 20
75.0617155526823723
 30
0.0
 40
0.2140383117615921
 50
166.7211388561526917
 51
218.5641941960076053
  0
ARC
  5
20451
  8
0
 10
55.8420077980238005
 20
75.0021208735600737
 30
0.0
 40
0.3418877561590984
 50
118.0240322516695954
 51
161.4514473730106943
  0
ARC
  5
20452
  8
0
 10
56.0173159338167324
 20
74.7275182585922551
 30
0.0
 40
0.6671569625093966
 50
86.0475084064879638
 51
120.2345915728926968
  0
ARC
  5
20453
  8
0
 10
56.0645590477199107
 20
75.0797715988325507
 30
0.0
 40
0.3133193406664767
 50
44.4199102892851485
 51
90.2297652039503504
  0
ARC
  5
20454
  8
0
 10
56.0961378295209414
 20
75.3524603816164245
 30
0.0
 40
0.2298217951653995
 50
284.8031078917397849
 51
328.4919192626643962
  0
ARC
  5
20455
  8
0
 10
56.2465013061839088
 20
75.2602883519060981
 30
0.0
 40
0.0534561007259825
 50
328.4919192626653057
 51
4.7979562228412016
  0
ARC
  5
20456
  8
0
 10
56.2232939757937729
 20
75.2583404115800079
 30
0.0
 40
0.0767450392022374
 50
4.7979562228416084
 51
32.0513793796199735
  0
ARC
  5
20457
  8
0
 10
55.8945662128988587
 20
75.697530302786177
 30
0.0
 40
0.5843377493277297
 50
296.4518508226527729
 51
313.6908059762723724
  0
ARC
  5
20458
  8
0
 10
55.99419379303162
 20
75.8343291365610526
 30
0.0
 40
0.5434236498874832
 50
287.1965061161245103
 51
295.8352977791918761
  0
ARC
  5
20459
  8
0
 10
55.7388861992865188
 20
74.3497914420473762
 30
0.0
 40
0.9223422222300944
 50
59.9282763929268327
 51
63.1925326826723506
  0
ARC
  5
2045A
  8
0
 10
55.9199634011033808
 20
75.5863519700611306
 30
0.0
 40
0.6008984304206466
 50
229.0336077798590964
 51
244.6542368039000905
  0
ARC
  5
2045B
  8
0
 10
55.6282605268276882
 20
74.9907032690769171
 30
0.0
 40
0.122922190974137
 50
118.7383340109057031
 51
158.6499170065904991
  0
ARC
  5
2045C
  8
0
 10
55.8878461435256213
 20
75.5272910809244138
 30
0.0
 40
0.3989911804938604
 50
224.5813285299697952
 51
235.6524751042979915
  0
LINE
  5
2045D
  8
0
 10
55.6326222240862975
 20
75.2723891092785351
 30
0.0
 11
55.6579265219148169
 21
75.262049753649066
 31
0.0
  0
ARC
  5
2045E
  8
0
 10
55.6745407915318324
 20
75.1162218383754805
 30
0.0
 40
0.2012304863371774
 50
224.0687424054135874
 51
240.9376280228310065
  0
ARC
  5
2045F
  8
0
 10
56.0577371965156672
 20
75.2257359951215108
 30
0.0
 40
0.3822172430686725
 50
321.7807733900062885
 51
3.9692231414877561
  0
ARC
  5
20460
  8
0
 10
56.1762155218701267
 20
75.2846782105120695
 30
0.0
 40
0.2648220855158176
 50
291.1959926164029184
 51
353.0573512341945843
  0
ARC
  5
20461
  8
0
 10
56.2310647269775572
 20
75.262825988811187
 30
0.0
 40
0.2082789832521325
 50
357.2044141732924913
 51
34.7269805143075132
  0
ARC
  5
20462
  8
0
 10
56.0979019596705726
 20
75.1492558452251984
 30
0.0
 40
0.382818755320202
 50
37.344416495612812
 51
79.5022994887336978
  0
ARC
  5
20463
  8
0
 10
56.0085853766862769
 20
74.7790778407424028
 30
0.0
 40
0.763345945945924
 50
77.9726725309433704
 51
122.8475886058938045
  0
ARC
  5
20464
  8
0
 10
55.9032907510489565
 20
74.9421654739238932
 30
0.0
 40
0.569220897884501
 50
122.8475886058938045
 51
141.3647800853374008
  0
ARC
  5
20465
  8
0
 10
55.5476411091697102
 20
75.0159988378714218
 30
0.0
 40
0.1760373072993229
 50
173.6868596125405872
 51
217.2618886431262126
  0
ARC
  5
20466
  8
0
 10
55.7708358400811903
 20
75.4546547856544549
 30
0.0
 40
0.3991722629611834
 50
171.5395295887120994
 51
210.2812110008910054
  0
ARC
  5
20467
  8
0
 10
55.8269566528535393
 20
75.4463070536794191
 30
0.0
 40
0.455910523908776
 50
125.9070246495250984
 51
171.5395295887120994
  0
ARC
  5
20468
  8
0
 10
55.9898135512429889
 20
75.2677287920528215
 30
0.0
 40
0.6965948554761439
 50
85.6687666385408164
 51
128.1430216600141136
  0
ARC
  5
20469
  8
0
 10
55.7800260928660308
 20
75.4556453748603957
 30
0.0
 40
0.2684280832000255
 50
142.6286299155680126
 51
198.9430208635195072
  0
ARC
  5
2046A
  8
0
 10
55.9630744570260603
 20
75.3158392110807
 30
0.0
 40
0.498759294833315
 50
97.2061749095551733
 51
142.6286299155680126
  0
ARC
  5
2046B
  8
0
 10
55.982709043447457
 20
75.1605500500045594
 30
0.0
 40
0.655284821606654
 50
76.9295189329452427
 51
97.2061749095551733
  0
ARC
  5
2046C
  8
0
 10
56.0755983453084923
 20
75.5606517059878655
 30
0.0
 40
0.2445418879841551
 50
28.3539038047100789
 51
76.9295189329452427
  0
ARC
  5
2046D
  8
0
 10
56.1264026043388782
 20
75.6316715118284435
 30
0.0
 40
0.1704786540647688
 50
311.8447265547188749
 51
15.3461426770938996
  0
ARC
  5
2046E
  8
0
 10
55.8972459041150884
 20
75.9853096910487409
 30
0.0
 40
0.5662473808995764
 50
303.7791505016152769
 51
313.5017596383900127
  0
ARC
  5
2046F
  8
0
 10
55.9827158926500417
 20
76.0659401210911881
 30
0.0
 40
0.5052916804638991
 50
289.918094356710526
 51
307.9029735891817836
  0
ARC
  5
20470
  8
0
 10
56.1541142554271673
 20
75.6376796258130071
 30
0.0
 40
0.2854213317721243
 50
314.431677708339123
 51
357.6196985419044267
  0
ARC
  5
20471
  8
0
 10
56.1604729977868971
 20
75.6294101191384556
 30
0.0
 40
0.2788393612177435
 50
359.2634066182048969
 51
44.1577619932010634
  0
ARC
  5
20472
  8
0
 10
56.0174284748642108
 20
75.4708337786920396
 30
0.0
 40
0.4921355409707954
 50
45.8014700695002333
 51
87.0889323136117639
  0
ARC
  5
20473
  8
0
 10
55.6347603126721708
 20
75.4113858449673131
 30
0.0
 40
0.1232296986365709
 50
157.4309818027558947
 51
171.537418010710013
  0
ARC
  5
20474
  8
0
 10
55.8870096477386085
 20
75.8361661798415838
 30
0.0
 40
0.5258153231778238
 50
224.4841616997013887
 51
234.1450154155278938
  0
ARC
  5
20475
  8
0
 10
55.9182082835841427
 20
76.1161210255402665
 30
0.0
 40
0.5528426603586678
 50
235.3101674472401044
 51
242.4762728931634115
  0
ARC
  5
20476
  8
0
 10
55.9026249090618208
 20
75.843351914541671
 30
0.0
 40
0.4043156236102748
 50
213.7937723112015078
 51
233.6060771559290004
  0
ARC
  5
20477
  8
0
 10
56.0016851846186015
 20
76.0257483181124769
 30
0.0
 40
0.3240154483654728
 50
298.2116285233561257
 51
308.0115210646023911
  0
ARC
  5
20478
  8
0
 10
55.6013835340864304
 20
75.4133831754883914
 30
0.0
 40
0.2298253076579368
 50
175.3655068374955874
 51
212.0112514072789907
  0
ARC
  5
20479
  8
0
 10
56.0104656592945318
 20
75.5975538260990731
 30
0.0
 40
0.4294922771590255
 50
332.1070926772301277
 51
3.4517274724145892
  0
LINE
  5
2047A
  8
0
 10
56.4020686949078893
 20
75.3817054023337789
 30
0.0
 11
56.3923322655230592
 21
75.4009793842538727
 31
0.0
  0
ARC
  5
2047B
  8
0
 10
55.8500969612927776
 20
75.7948838109956569
 30
0.0
 40
0.3382742207780024
 50
138.2265312642012134
 51
183.1562366093124865
  0
ARC
  5
2047C
  8
0
 10
55.9681338180891998
 20
75.6894449925113975
 30
0.0
 40
0.4965462777107815
 50
86.3042367895915845
 51
138.2265312642012134
  0
ARC
  5
2047D
  8
0
 10
55.9722520880879699
 20
75.7532023643832559
 30
0.0
 40
0.4326560388961649
 50
58.7921029896134613
 51
86.3042367895915845
  0
ARC
  5
2047E
  8
0
 10
56.0862086330929372
 20
75.941308469086465
 30
0.0
 40
0.2127242295186002
 50
358.8192047301541265
 51
58.7921029896134613
  0
ARC
  5
2047F
  8
0
 10
56.1578222248476777
 20
75.9398323924056342
 30
0.0
 40
0.1410954271665883
 50
336.1074952618645852
 51
358.8192047301536718
  0
ARC
  5
20480
  8
0
 10
55.9854846072790622
 20
76.2446274471947874
 30
0.0
 40
0.3235807330625126
 50
301.5626977381368761
 51
326.990471688811283
  0
ARC
  5
20481
  8
0
 10
55.8976768831015605
 20
76.0993424901879791
 30
0.0
 40
0.3887742295628138
 50
204.7125258350380932
 51
220.5534022818675055
  0
ARC
  5
20482
  8
0
 10
55.9083222088138072
 20
76.3118785724286255
 30
0.0
 40
0.5313436154093063
 50
228.4233161729943049
 51
237.9017154202107918
  0
ARC
  5
20483
  8
0
 10
55.9221289211357373
 20
76.327358611676317
 30
0.0
 40
0.413327919336182
 50
223.2096569174032936
 51
231.1278958404926129
  0
ARC
  5
20484
  8
0
 10
55.8309633827637413
 20
75.7987663347014831
 30
0.0
 40
0.4593218403884857
 50
153.5152776047430905
 51
202.5112024122541925
  0
ARC
  5
20485
  8
0
 10
55.9283683737873503
 20
75.7502344221796449
 30
0.0
 40
0.5681477509490572
 50
113.8605342152201985
 51
153.5152776047430905
  0
ARC
  5
20486
  8
0
 10
55.9642361806095607
 20
75.7172275334372955
 30
0.0
 40
0.6131511700302427
 50
66.5878910396033064
 51
115.6783974309864931
  0
ARC
  5
20487
  8
0
 10
56.0251139898603867
 20
75.8810746369760523
 30
0.0
 40
0.4387014536315385
 50
41.3379755709521817
 51
65.3813516510241612
  0
ARC
  5
20488
  8
0
 10
56.1050601506952802
 20
75.9486222618073157
 30
0.0
 40
0.3340671105331194
 50
350.8459385415154088
 51
41.6960642624522322
  0
ARC
  5
20489
  8
0
 10
56.1963386944016392
 20
75.9195854540293453
 30
0.0
 40
0.2397492878074521
 50
325.2323961465446018
 51
354.2284298373617162
  0
ARC
  5
2048A
  8
0
 10
55.9706013705885681
 20
75.9172521398900102
 30
0.0
 40
0.4688534671835387
 50
339.5953546173399218
 51
2.5962571719713652
  0
ARC
  5
2048B
  8
0
 10
55.6628708620116797
 20
75.7632217487964539
 30
0.0
 40
0.2913449177281974
 50
176.6674253868787901
 51
207.2121542228335898
  0
ARC
  5
2048C
  8
0
 10
55.8708145143513235
 20
76.0877957544377637
 30
0.0
 40
0.499286372707415
 50
155.6793133672516092
 51
197.2163939721071984
  0
ARC
  5
2048D
  8
0
 10
55.9369162674050031
 20
76.0579209322779235
 30
0.0
 40
0.5718256500394255
 50
109.8102334750219029
 51
155.6793133672516092
  0
ARC
  5
2048E
  8
0
 10
55.9384977540846577
 20
76.0562185120613918
 30
0.0
 40
0.4323001127675369
 50
101.0185179830433952
 51
168.9348198164040866
  0
ARC
  5
2048F
  8
0
 10
55.9488465685099072
 20
76.063959013892358
 30
0.0
 40
0.570342560552329
 50
59.152032391801967
 51
111.1434999459350053
  0
ARC
  5
20490
  8
0
 10
56.0325066867889703
 20
76.2040334072181196
 30
0.0
 40
0.4071866502822802
 50
3.3946634127027968
 51
59.152032391801967
  0
ARC
  5
20491
  8
0
 10
56.0739630864171801
 20
76.2064924962830332
 30
0.0
 40
0.3656573812162025
 50
338.7421462979605735
 51
3.3946634127027968
  0
ARC
  5
20492
  8
0
 10
55.9182079159392273
 20
76.1850168510836738
 30
0.0
 40
0.5213003745338095
 50
345.3087095058504019
 51
1.0386223060119759
  0
ARC
  5
20493
  8
0
 10
55.9519137194564422
 20
76.0701719105657617
 30
0.0
 40
0.421465676523912
 50
57.4581970377640303
 51
103.1717690981876956
  0
ARC
  5
20494
  8
0
 10
56.0375546615186622
 20
76.2044516794167635
 30
0.0
 40
0.2622004096999686
 50
4.2191537078029517
 51
57.4503676978292432
  0
ARC
  5
20495
  8
0
 10
55.7658664986928088
 20
76.0635658218181163
 30
0.0
 40
0.3945345821748469
 50
177.8306416882136034
 51
198.8874252811610859
  0
ARC
  5
20496
  8
0
 10
55.9235220888414233
 20
76.3242763177476604
 30
0.0
 40
0.4132650250274733
 50
197.8106637318875869
 51
202.4577140965099886
  0
ARC
  5
20497
  8
0
 10
55.9173189367528707
 20
76.5994581920703297
 30
0.0
 40
0.3796454824402617
 50
308.7323786671872767
 51
325.2792137278506743
  0
ARC
  5
20498
  8
0
 10
55.6930640474074465
 20
75.5776681475684029
 30
0.0
 40
0.92128857378738
 50
56.5779719166734409
 51
59.9174860996307217
  0
ARC
  5
20499
  8
0
 10
55.9472292111791631
 20
76.4271354695827227
 30
0.0
 40
0.3562067226072734
 50
330.7174625134554731
 51
339.4777122689670819
  0
ARC
  5
2049A
  8
0
 10
55.8787107132932874
 20
76.5816016467009604
 30
0.0
 40
0.3541932454854257
 50
222.1150968997436905
 51
232.4264322507104907
  0
ARC
  5
2049B
  8
0
 10
55.9464190098865615
 20
76.4996221447830322
 30
0.0
 40
0.4399855669858409
 50
210.3855212113994924
 51
219.6140102828846068
  0
ARC
  5
2049C
  8
0
 10
55.9551875062754291
 20
76.3123875861897432
 30
0.0
 40
0.5835951685906251
 50
172.9560005473676938
 51
191.5221727641053917
  0
ARC
  5
2049D
  8
0
 10
55.9139092491927414
 20
76.3174880988286759
 30
0.0
 40
0.5420029849864334
 50
123.6213451374641039
 51
172.9560005473676938
  0
ARC
  5
2049E
  8
0
 10
55.9499395314283632
 20
76.2633019706761104
 30
0.0
 40
0.6070746202981735
 50
87.7605141296384232
 51
123.6213451374641039
  0
ARC
  5
2049F
  8
0
 10
55.9542702259660487
 20
76.3740435250553134
 30
0.0
 40
0.4962484195083839
 50
39.2242194134992204
 51
87.7605141296379969
  0
ARC
  5
204A0
  8
0
 10
55.9923556471403501
 20
76.4051320535052838
 30
0.0
 40
0.4470854669199813
 50
359.8315162836220793
 51
39.224219413498588
  0
ARC
  5
204A1
  8
0
 10
55.6700935399355075
 20
76.4060796987669875
 30
0.0
 40
0.7693489674465664
 50
351.2975300347818006
 51
359.8315162836220793
  0
ARC
  5
204A2
  8
0
 10
55.9405310955336432
 20
76.2942398873787226
 30
0.0
 40
0.4350046524501965
 50
90.4823778849843166
 51
155.652956458769296
  0
ARC
  5
204A3
  8
0
 10
55.9498761352622509
 20
76.3665248545649007
 30
0.0
 40
0.3629374288367453
 50
27.3207278039164798
 51
92.0538667424492729
  0
ARC
  5
204A4
  8
0
 10
55.9326428092808214
 20
76.2550620012292626
 30
0.0
 40
0.4586664126216923
 50
53.2340555879642281
 51
61.241601164639313
  0
ARC
  5
204A5
  8
0
 10
55.9087938926145114
 20
76.6296529105490265
 30
0.0
 40
0.2460629921003061
 50
0.000000000007328
 51
8.9843262819649521
  0
ARC
  5
204A6
  8
0
 10
55.9527808586923001
 20
76.4750323206157105
 30
0.0
 40
0.5812698509095358
 50
158.2535639576854862
 51
188.0650837404697882
  0
ARC
  5
204A7
  8
0
 10
55.9227065491970734
 20
76.4870285850671792
 30
0.0
 40
0.5488912398768783
 50
89.4472836431810947
 51
158.2535639576854862
  0
ARC
  5
204A8
  8
0
 10
55.9229155490778069
 20
76.5086932951481202
 30
0.0
 40
0.527225521706428
 50
28.1162091004045287
 51
89.4472836431806826
  0
ARC
  5
204A9
  8
0
 10
55.9526683773900331
 20
76.5391101137099241
 30
0.0
 40
0.4868179105747487
 50
351.9018379926661169
 51
26.6088304854388191
  0
ARC
  5
204AA
  8
0
 10
55.9244262792532183
 20
76.4888692356128388
 30
0.0
 40
0.4062840498299333
 50
58.6953995701175231
 51
130.9941739805271084
  0
ARC
  5
204AB
  8
0
 10
55.9087938926148169
 20
76.6296529105490691
 30
0.0
 40
0.2460629920999989
 50
77.9456368679622926
 51
114.8706720854411003
  0
ARC
  5
204AC
  8
0
 10
55.6772318333258625
 20
76.5588284864336543
 30
0.0
 40
0.3052234129541093
 50
180.1726514497337917
 51
186.1463362408887008
  0
ARC
  5
204AD
  8
0
 10
55.9183228968896628
 20
76.5804336835976471
 30
0.0
 40
0.5467772543901859
 50
160.6410446732917023
 51
182.3610146680038042
  0
ARC
  5
204AE
  8
0
 10
55.9160032085410776
 20
76.5830990011000949
 30
0.0
 40
0.5437080090813627
 50
94.4131023539917038
 51
160.8250040639871088
  0
ARC
  5
204AF
  8
0
 10
55.9129784253389985
 20
76.5934570272107038
 30
0.0
 40
0.5331525614931745
 50
54.2950255795247898
 51
94.1746565179719965
  0
ARC
  5
204B0
  8
0
 10
55.9171933959515286
 20
76.603670084997006
 30
0.0
 40
0.522405480810722
 50
356.2982486808865019
 51
54.0166903958291371
  0
ARC
  5
204B1
  8
0
 10
55.9013948422814906
 20
76.6114952489978549
 30
0.0
 40
0.529843188522567
 50
114.7590555356703987
 51
181.6552146113282049
  0
ARC
  5
204B2
  8
0
 10
55.9024610012627932
 20
76.6091835324298529
 30
0.0
 40
0.5323889160147028
 50
29.4298702460160193
 51
114.7590555356703987
  0
ARC
  5
204B3
  8
0
 10
55.9934467915610981
 20
76.6486846943626858
 30
0.0
 40
0.5082441162192909
 50
219.4061744494601953
 51
229.4053858416801006
  0
ARC
  5
204B4
  8
0
 10
55.9898949497304628
 20
76.5018370418572289
 30
0.0
 40
0.295916157535385
 50
313.2390186408451882
 51
331.1920614913263989
  0
LINE
  5
204B5
  8
0
 10
56.1548568847148175
 20
75.9809158855233449
 30
0.0
 11
56.2042885770927967
 21
76.0062384507980937
 31
0.0
  0
LINE
  5
204B6
  8
0
 10
55.9087960269148212
 20
59.3173191232490566
 30
0.0
 11
59.9776251119739001
 21
53.3288253792810423
 31
0.0
  0
ENDBLK
  5
204BA
  8
0
  0
BLOCK
  8
0
  2
A$C7A17AF49
 70
     0
 10
0.0
 20
0.0
 30
0.0
  3
A$C7A17AF49
  1

  0
LINE
  5
20731
  8
0
 10
62.0906082462148206
 20
59.3173192915490617
 30
0.0
 11
72.6029795390148251
 21
59.3173192915490617
 31
0.0
  0
LINE
  5
20732
  8
0
 10
72.6029795390148251
 20
59.3173192915490617
 30
0.0
 11
72.5988209772148139
 21
59.4756333305490585
 31
0.0
  0
ARC
  5
20733
  8
0
 10
72.4209256277084705
 20
59.470960410765521
 30
0.0
 40
0.1779567125884602
 50
1.504688167403621
 51
9.2765679984859073
  0
ARC
  5
20734
  8
0
 10
72.5305845228772341
 20
59.4859493088073208
 30
0.0
 40
0.0673775113740249
 50
11.7299266410828693
 51
91.1751163334543264
  0
LINE
  5
20735
  8
0
 10
72.5150232143565034
 20
59.5535395956490632
 30
0.0
 11
62.174726524114817
 21
59.5535395956490632
 31
0.0
  0
ARC
  5
20736
  8
0
 10
62.174726524114817
 20
59.3881778114397179
 30
0.0
 40
0.1653617842093435
 50
90.0
 51
99.2604675218546504
  0
ARC
  5
20737
  8
0
 10
62.1619735116128282
 20
59.4866364757033068
 30
0.0
 40
0.0662142564502852
 50
102.0803055143200027
 51
165.2084110831723081
  0
ARC
  5
20738
  8
0
 10
62.2186946374098468
 20
59.4755607018326486
 30
0.0
 40
0.1239408047743584
 50
166.9525928490197089
 51
179.9662680936343975
  0
LINE
  5
20739
  8
0
 10
62.0947538541148205
 20
59.4756336698490671
 30
0.0
 11
62.0906082462148206
 21
59.3173192915490617
 31
0.0
  0
LINE
  5
2073A
  8
0
 10
66.559598464340894
 20
59.5535395956490632
 30
0.0
 11
66.5604245493607465
 21
59.6481995668371496
 31
0.0
  0
LINE
  5
2073B
  8
0
 10
66.6811921381307542
 20
59.5535395956490632
 30
0.0
 11
66.6827653702949306
 21
59.6478995636976705
 31
0.0
  0
ARC
  5
2073C
  8
0
 10
66.625379384137986
 20
59.6488563410372876
 30
0.0
 40
0.0573939616169055
 50
359.0448151457309223
 51
10.1217225225895699
  0
ARC
  5
2073D
  8
0
 10
66.6703234767245476
 20
59.6557136454965118
 30
0.0
 40
0.0119992802431646
 50
15.6112252706129908
 51
89.7641143689378964
  0
LINE
  5
2073E
  8
0
 10
66.6703728773927935
 20
59.6677128240487278
 30
0.0
 11
66.5801088392148159
 21
59.6677128240490617
 31
0.0
  0
ARC
  5
2073F
  8
0
 10
66.5801088392148159
 20
59.6480277846490665
 30
0.0
 40
0.0196850393999982
 50
89.9999999999947136
 51
179.4999999857724049
  0
LINE
  5
20740
  8
0
 10
68.1339893208887304
 20
59.5535395956490632
 30
0.0
 11
68.1331632358688921
 21
59.6481995668371496
 31
0.0
  0
LINE
  5
20741
  8
0
 10
68.0123956470988844
 20
59.5535395956490632
 30
0.0
 11
68.010822414934708
 21
59.6478995636976705
 31
0.0
  0
ARC
  5
20742
  8
0
 10
68.0682084010916526
 20
59.6488563410372876
 30
0.0
 40
0.0573939616169055
 50
169.8782774774103927
 51
180.9551848542691062
  0
ARC
  5
20743
  8
0
 10
68.023264308505091
 20
59.6557136454965118
 30
0.0
 40
0.0119992802431646
 50
90.2358856310621036
 51
164.388774729386995
  0
LINE
  5
20744
  8
0
 10
68.0232149078368309
 20
59.6677128240487278
 30
0.0
 11
68.1134789460148227
 21
59.6677128240490617
 31
0.0
  0
ARC
  5
20745
  8
0
 10
68.1134789460148227
 20
59.6480277846490665
 30
0.0
 40
0.0196850393999982
 50
0.500000014227542
 51
90.0000000000052864
  0
LINE
  5
20746
  8
0
 10
54.8753335943148102
 20
59.3173191232490566
 30
0.0
 11
56.942258459514818
 21
59.3173191232490566
 31
0.0
  0
ARC
  5
20747
  8
0
 10
56.942258459514818
 20
59.337004162649059
 30
0.0
 40
0.0196850393999988
 50
270.0000000000025011
 51
0.0000000000024427
  0
LINE
  5
20748
  8
0
 10
56.9619434989148203
 20
59.337004162649059
 30
0.0
 11
56.9619434989148132
 21
59.4702107194490566
 31
0.0
  0
ARC
  5
20749
  8
0
 10
56.9304474359148074
 20
59.4702107194490566
 30
0.0
 40
0.0314960630000059
 50
0.0000000000016284
 51
65.6999999145883322
  0
LINE
  5
2074A
  8
0
 10
56.9434085181216432
 20
59.4989163344490635
 30
0.0
 11
56.7737855665262003
 21
59.5755040340957294
 31
0.0
  0
ARC
  5
2074B
  8
0
 10
56.7867466488855968
 20
59.6042096494336491
 30
0.0
 40
0.0314960633707739
 50
180.000001063442312
 51
245.6999999145876075
  0
ARC
  5
2074C
  8
0
 10
54.8753335943148173
 20
59.337004162649059
 30
0.0
 40
0.0196850393999988
 50
179.9999999999974989
 51
269.9999999999976126
  0
LINE
  5
2074D
  8
0
 10
54.8556485549148221
 20
59.337004162649059
 30
0.0
 11
54.8556485549148292
 21
59.4702107194490566
 31
0.0
  0
ARC
  5
2074E
  8
0
 10
54.8871446179148421
 20
59.4702107194490566
 30
0.0
 40
0.0314960630000059
 50
114.3000000854116962
 51
179.9999999999984084
  0
LINE
  5
2074F
  8
0
 10
54.8741835357079992
 20
59.4989163344490635
 30
0.0
 11
55.0438064873034492
 21
59.5755040340957294
 31
0.0
  0
ARC
  5
20750
  8
0
 10
55.0308454049440527
 20
59.6042096494336491
 30
0.0
 40
0.0314960633707739
 50
294.3000000854121936
 51
359.999998936557688
  0
LINE
  5
20751
  8
0
 10
56.7552505855148226
 20
59.6042096494336491
 30
0.0
 11
56.7552505855148226
 21
63.1224369295495578
 31
0.0
  0
LINE
  5
20752
  8
0
 10
55.0623414683148198
 20
59.6042096488490714
 30
0.0
 11
55.0623431465108268
 21
65.8511734861089622
 31
0.0
  0
ARC
  5
20753
  8
0
 10
55.0938431465108067
 20
65.8511734539490448
 30
0.0
 40
0.0315
 50
90.0
 51
179.9999415039243047
  0
LINE
  5
20754
  8
0
 10
56.7552468638148184
 20
65.2287329323055616
 30
0.0
 11
56.7552505854901526
 21
65.8511732656052686
 31
0.0
  0
ARC
  5
20755
  8
0
 10
56.7237505854907127
 20
65.8511734539490448
 30
0.0
 40
0.0315
 50
359.9996574189073044
 51
90.0
  0
LINE
  5
20756
  8
0
 10
56.7237505854907127
 20
65.8826734539490673
 30
0.0
 11
55.0938431465108067
 21
65.8826734539490673
 31
0.0
  0
LINE
  5
20757
  8
0
 10
55.1430458611148211
 20
65.8826734539490673
 30
0.0
 11
55.1430458611148211
 21
65.8905474697490661
 31
0.0
  0
LINE
  5
20758
  8
0
 10
55.1430458611148211
 20
65.8905474697490661
 30
0.0
 11
55.1509198769148199
 21
65.8984214854490631
 31
0.0
  0
LINE
  5
20759
  8
0
 10
55.1430458611148211
 20
65.8905474697490661
 30
0.0
 11
56.6745419241148198
 21
65.8905474697490661
 31
0.0
  0
LINE
  5
2075A
  8
0
 10
56.6745419241148198
 20
65.8905474697490661
 30
0.0
 11
56.6666679084148228
 21
65.8984214854490631
 31
0.0
  0
LINE
  5
2075B
  8
0
 10
56.6745419241148198
 20
65.8905474697490661
 30
0.0
 11
56.6745419241148198
 21
65.8826734539490673
 31
0.0
  0
LINE
  5
2075C
  8
0
 10
56.7291067006148211
 20
65.8985046951490716
 30
0.0
 11
55.0938431465108067
 21
65.8984214855490649
 31
0.0
  0
ARC
  5
2075D
  8
0
 10
55.0934583742709805
 20
65.9281451773619409
 30
0.0
 40
0.0297261821407188
 50
179.4674218458461894
 51
270.7416506084260277
  0
ARC
  5
2075E
  8
0
 10
56.727226891071183
 20
65.9278973744458625
 30
0.0
 40
0.0294527295876815
 50
273.659369210861712
 51
1.0196315921474071
  0
LINE
  5
2075F
  8
0
 10
56.7566749570148232
 20
65.9284214854490642
 30
0.0
 11
56.7568685176148193
 21
66.6751817092490597
 31
0.0
  0
LINE
  5
20760
  8
0
 10
55.0637334763148232
 20
65.9284214854490642
 30
0.0
 11
55.0637334763148232
 21
66.6751178062465186
 31
0.0
  0
ARC
  5
20761
  8
0
 10
55.0938483215258685
 20
66.6751178062465186
 30
0.0
 40
0.0301148452110525
 50
102.8003199712908042
 51
179.9999999999996021
  0
ARC
  5
20762
  8
0
 10
55.9435587105103522
 20
62.4123967726364484
 30
0.0
 40
4.3766889012539876
 50
98.0758094796753142
 51
101.283808835504999
  0
ARC
  5
20763
  8
0
 10
55.335013954603447
 20
66.687679477281776
 30
0.0
 40
0.0583446802310092
 50
86.9866453308517862
 51
96.2053712862030466
  0
ARC
  5
20764
  8
0
 10
62.2473214377504789
 20
243.3084859058637903
 30
0.0
 40
176.6976768063879888
 50
267.7590465879503085
 51
267.7773139188977893
  0
ARC
  5
20765
  8
0
 10
55.3291171461051832
 20
66.7445650550784961
 30
0.0
 40
0.001158758994494
 50
101.0054184076935968
 51
123.371344974142005
  0
ARC
  5
20766
  8
0
 10
55.328543255544993
 20
66.7454387854802036
 30
0.0
 40
0.0001134184238549
 50
124.0471015661213983
 51
209.3536673502264023
  0
ARC
  5
20767
  8
0
 10
55.3290779195195626
 20
66.745843989714075
 30
0.0
 40
0.0007833816233154
 50
216.0308951921865059
 51
246.4047309308274123
  0
ARC
  5
20768
  8
0
 10
55.342817647587438
 20
66.7847126776849365
 30
0.0
 40
0.0420070477820788
 50
250.4550598647242055
 51
260.2376885955533794
  0
ARC
  5
20769
  8
0
 10
55.3935734595097813
 20
67.0471176450919586
 30
0.0
 40
0.309267912143604
 50
259.2136635464938195
 51
262.4661767739514744
  0
ARC
  5
2076A
  8
0
 10
55.4719456467498091
 20
67.6472922802225156
 30
0.0
 40
0.9145376521664172
 50
262.5284580343993071
 51
265.4672815052678061
  0
ARC
  5
2076B
  8
0
 10
55.6392613907858902
 20
70.2937103214550518
 30
0.0
 40
3.5661528298794409
 50
266.1477104613862821
 51
271.0606909121719923
  0
ARC
  5
2076C
  8
0
 10
55.6527870527228785
 20
66.7624402846272176
 30
0.0
 40
0.0626870120271349
 50
269.4305789704720269
 51
341.1251732371082994
  0
LINE
  5
2076D
  8
0
 10
55.6521640624148191
 20
66.6997563683490711
 30
0.0
 11
55.0849544982508306
 21
66.7038893861412419
 31
0.0
  0
LINE
  5
2076E
  8
0
 10
55.7119398725148187
 20
66.8065977924490682
 30
0.0
 11
55.7119398725148187
 21
66.7514665720490683
 31
0.0
  0
LINE
  5
2076F
  8
0
 10
55.7119398725148187
 20
66.7514665720490683
 30
0.0
 11
55.7133742900148192
 21
66.6697564011490442
 31
0.0
  0
LINE
  5
20770
  8
0
 10
55.7133742900148192
 20
66.6697564011490442
 30
0.0
 11
55.7133742900148192
 21
65.928421481849071
 31
0.0
  0
LINE
  5
20771
  8
0
 10
56.1039390668148172
 20
65.928421481849071
 30
0.0
 11
56.1039390666578583
 21
66.6697714323988464
 31
0.0
  0
LINE
  5
20772
  8
0
 10
56.1039390666578583
 20
66.6697714323988464
 30
0.0
 11
56.1056479125148186
 21
66.7418025282953948
 31
0.0
  0
LINE
  5
20773
  8
0
 10
56.1056479125148186
 20
66.7418025282953948
 30
0.0
 11
56.1056479125148186
 21
66.8065977924490682
 31
0.0
  0
ARC
  5
20774
  8
0
 10
56.7267536724037598
 20
66.6751817092490597
 30
0.0
 40
0.0301148452110525
 50
0.0000000000004071
 51
77.1996800287091531
  0
ARC
  5
20775
  8
0
 10
55.8770432834192974
 20
62.4124606756389895
 30
0.0
 40
4.3766889012539876
 50
78.7161911644950152
 51
81.9241905203246858
  0
ARC
  5
20776
  8
0
 10
56.4855880393261884
 20
66.6877433802843029
 30
0.0
 40
0.0583446802310092
 50
83.7946287137969534
 51
93.0133546691478017
  0
ARC
  5
20777
  8
0
 10
49.5732805561791565
 20
243.3085498088661893
 30
0.0
 40
176.6976768063879888
 50
272.2237220105270126
 51
272.2409534120496915
  0
ARC
  5
20778
  8
0
 10
56.4914530921671982
 20
66.74457026001798
 30
0.0
 40
0.0012252602932233
 50
56.898368718431712
 51
76.9601490392579421
  0
ARC
  5
20779
  8
0
 10
56.4920587383846424
 20
66.7455026884827447
 30
0.0
 40
0.0001134184238549
 50
330.6463326497736261
 51
55.9528984338785804
  0
ARC
  5
2077A
  8
0
 10
56.4915240744100799
 20
66.7459078927166161
 30
0.0
 40
0.0007833816233154
 50
293.5952690691726161
 51
323.9691048078136077
  0
ARC
  5
2077B
  8
0
 10
56.4777843463421974
 20
66.7847765806874634
 30
0.0
 40
0.0420070477820788
 50
279.7623114044466206
 51
289.5449401352759082
  0
ARC
  5
2077C
  8
0
 10
56.4270285344198612
 20
67.0471815480944997
 30
0.0
 40
0.309267912143604
 50
277.5338232260484119
 51
280.7863364535061805
  0
ARC
  5
2077D
  8
0
 10
56.3486563471798192
 20
67.6473561832250567
 30
0.0
 40
0.9145376521664172
 50
274.5327184947321939
 51
277.4715419656008066
  0
ARC
  5
2077E
  8
0
 10
56.1627948030451094
 20
70.6984369792202756
 30
0.0
 40
3.971156760573419
 50
269.282333355828996
 51
273.7270089022625257
  0
ARC
  5
2077F
  8
0
 10
56.1658804159118716
 20
66.7632569908979718
 30
0.0
 40
0.0634882530304871
 50
198.4285034143163102
 51
272.3086870951344736
  0
LINE
  5
20780
  8
0
 10
56.1684379315148092
 20
66.6998202713516122
 30
0.0
 11
56.7356474956788119
 21
66.703953289143783
 31
0.0
  0
ARC
  5
20781
  8
0
 10
55.7423159123787215
 20
65.9271839131545647
 30
0.0
 40
0.0289680700311279
 50
177.5514747714663031
 51
262.6434244279312225
  0
ARC
  5
20782
  8
0
 10
56.074101650252949
 20
65.927514792869232
 30
0.0
 40
0.0298511894569153
 50
283.3621869952357883
 51
1.740548496193405
  0
LINE
  5
20783
  8
0
 10
55.0623414683148198
 20
59.6042096488490714
 30
0.0
 11
56.7552505855148226
 21
59.6042096488490714
 31
0.0
  0
LINE
  5
20784
  8
0
 10
56.7737855670725011
 20
59.5755040338490716
 30
0.0
 11
55.0438064867571484
 21
59.5755040338490716
 31
0.0
  0
LINE
  5
20785
  8
0
 10
54.8741835357080134
 20
59.4989163344490635
 30
0.0
 11
56.943408518121629
 21
59.4989163344490635
 31
0.0
  0
ARC
  5
20786
  8
0
 10
57.0609316028965381
 20
63.1377062952352404
 30
0.0
 40
0.3060621471465613
 50
155.5526304387367134
 51
182.8596595443688102
  0
ARC
  5
20787
  8
0
 10
56.8883464990265608
 20
63.2067372474989568
 30
0.0
 40
0.1206874010359196
 50
108.2126223521920991
 51
151.4740556688053061
  0
ARC
  5
20788
  8
0
 10
56.9611060225615589
 20
62.9866041551230822
 30
0.0
 40
0.352533240000106
 50
88.2651821386888287
 51
108.2635232580482949
  0
LINE
  5
20789
  8
0
 10
56.9717784930990234
 20
63.3389758107334728
 30
0.0
 11
58.0702112154148224
 21
63.3389726665490684
 31
0.0
  0
ARC
  5
2078A
  8
0
 10
58.0702112154148224
 20
63.3704687295490672
 30
0.0
 40
0.031496063
 50
270.0
 51
0.0
  0
LINE
  5
2078B
  8
0
 10
58.1017072784148212
 20
63.3704687295490672
 30
0.0
 11
58.1017072784148212
 21
64.9807000780490682
 31
0.0
  0
ARC
  5
2078C
  8
0
 10
58.0702114060142378
 20
64.9807000780490682
 30
0.0
 40
0.0314958724005772
 50
359.9999999999992042
 51
90.0003467293229562
  0
LINE
  5
2078D
  8
0
 10
58.0702112154148224
 20
65.012195950449069
 30
0.0
 11
56.9716884381370434
 21
65.0121977442800869
 31
0.0
  0
ARC
  5
2078E
  8
0
 10
56.9716868353620285
 20
65.5102048368239451
 30
0.0
 40
0.4980070925464352
 50
260.2944894133494813
 51
270.0001843994696173
  0
ARC
  5
2078F
  8
0
 10
56.9191658814625185
 20
65.2031224367373454
 30
0.0
 40
0.1864656811073536
 50
237.2653692222237112
 51
260.2944894133490834
  0
ARC
  5
20790
  8
0
 10
56.8927995838440026
 20
65.1493098234315084
 30
0.0
 40
0.1271303079944337
 50
196.6226352021606942
 51
234.1449942241083022
  0
ARC
  5
20791
  8
0
 10
57.106721071421731
 20
65.2175314058883941
 30
0.0
 40
0.3516526593202156
 50
178.174594285788487
 51
197.3028491125809012
  0
ARC
  5
20792
  8
0
 10
58.1098187856953672
 20
63.3854247967879303
 30
0.0
 40
0.0081153836028484
 50
181.7709664398140035
 51
295.7763331356410959
  0
ARC
  5
20793
  8
0
 10
57.7258572930728704
 20
64.178663683171024
 30
0.0
 40
0.8893953349846228
 50
295.828484059978507
 51
315.7190851128987106
  0
ARC
  5
20794
  8
0
 10
58.3495984618150274
 20
63.5709915647949018
 30
0.0
 40
0.0185856867879007
 50
314.3817103425902815
 51
1.3842618505145801
  0
ARC
  5
20795
  8
0
 10
58.520469481211471
 20
63.5751205995567972
 30
0.0
 40
0.1523352136240867
 50
160.8629203897120021
 51
181.3842618505140933
  0
ARC
  5
20796
  8
0
 10
57.7033813405451212
 20
64.1342975491962335
 30
0.0
 40
0.9337286077421012
 50
57.8609587477123029
 51
63.9516994751188079
  0
ARC
  5
20797
  8
0
 10
58.1098379407051269
 20
64.965877120633408
 30
0.0
 40
0.0081306650881238
 50
63.9516994751188079
 51
179.9524682809941964
  0
LINE
  5
20798
  8
0
 10
58.2001300585148229
 20
64.9925106598490601
 30
0.0
 11
58.1997926794148199
 21
64.1725968358490633
 31
0.0
  0
ARC
  5
20799
  8
0
 10
58.67118706575841
 20
64.1724028659352115
 30
0.0
 40
0.4713944262510724
 50
179.9764238669123131
 51
201.0237614411873039
  0
ARC
  5
2079A
  8
0
 10
6667.9909588555510709
 20
2604.3979355480992126
 30
0.0
 40
7081.1389902580076523
 50
201.0237614411877018
 51
201.0294105601448109
  0
ARC
  5
2079B
  8
0
 10
39.858488374515801
 20
86.3031941724719047
 30
0.0
 40
27.317111283570469
 50
307.0539173757925937
 51
308.7941936883283915
  0
ARC
  5
2079C
  8
0
 10
56.8721257267105713
 20
63.7694852999234598
 30
0.0
 40
0.9181838539832708
 50
127.0539173757922953
 51
142.0199837878352866
  0
ARC
  5
2079D
  8
0
 10
56.4078589726976887
 20
64.1319495422194876
 30
0.0
 40
0.3291813532883344
 50
142.0199837878352866
 51
170.0880593759551118
  0
ARC
  5
2079E
  8
0
 10
56.3105764025630435
 20
64.1809359843687446
 30
0.0
 40
0.2271150359306842
 50
178.0629066989399973
 51
214.9210418252858972
  0
ARC
  5
2079F
  8
0
 10
57.5187576108948306
 20
65.1926809355072123
 30
0.0
 40
1.802211188839189
 50
219.3111009637341056
 51
235.9145055807057929
  0
ARC
  5
207A0
  8
0
 10
112.3513765501747059
 20
136.0295094118579016
 30
0.0
 40
91.3780333777776832
 50
232.329717396169201
 51
232.701791461620104
  0
LINE
  5
207A1
  8
0
 10
58.8269028466145869
 20
65.012201021749064
 30
0.0
 11
58.2198150672148103
 21
65.0121955695490641
 31
0.0
  0
ARC
  5
207A2
  8
0
 10
58.2198152580878983
 20
64.9925103699747808
 30
0.0
 40
0.01968519957521
 50
90.0005555555400889
 51
179.999156291353188
  0
ARC
  5
207A3
  8
0
 10
58.500061099814971
 20
63.3586660710778204
 30
0.0
 40
0.0196933868621226
 50
201.0080698744762913
 51
269.9592710819596277
  0
LINE
  5
207A4
  8
0
 10
58.5000471006988292
 20
63.3389726891913583
 30
0.0
 11
58.5000471006988292
 21
63.3389726891913583
 31
0.0
  0
LINE
  5
207A5
  8
0
 10
58.5000471006988292
 20
63.3389726891913583
 30
0.0
 11
58.5938313298421178
 21
63.3389727339894222
 31
0.0
  0
ARC
  5
207A6
  8
0
 10
58.7043627075823125
 20
62.5210054871293295
 30
0.0
 40
0.8254014795243648
 50
90.0205082510340588
 51
97.6957258825852932
  0
ARC
  5
207A7
  8
0
 10
58.7036090547112011
 20
62.5185984440279583
 30
0.0
 40
0.8278085965665765
 50
82.315448128044892
 51
89.968285434824125
  0
ARC
  5
207A8
  8
0
 10
58.8231587218484506
 20
712.2693471469601718
 30
0.0
 40
648.9303744764446265
 50
269.9992180859038058
 51
270.0003305780026039
  0
ARC
  5
207A9
  8
0
 10
58.8268657694148231
 20
63.3706821825490607
 30
0.0
 40
0.0317095228999953
 50
270.0669807440406203
 51
289.7910085040010131
  0
ARC
  5
207AA
  8
0
 10
59.169825901467199
 20
62.4253821480709021
 30
0.0
 40
0.9738818618902353
 50
105.9741726443419054
 51
109.9459398146596953
  0
ARC
  5
207AB
  8
0
 10
59.1247149934998006
 20
62.5984197414024166
 30
0.0
 40
0.7951226326083489
 50
93.6623720763286087
 51
106.2805441241901008
  0
ARC
  5
207AC
  8
0
 10
59.0721126312085332
 20
63.4233637498078409
 30
0.0
 40
0.031497373711117
 50
273.2986374531764113
 51
359.9989952233200938
  0
LINE
  5
207AD
  8
0
 10
59.103610068314822
 20
64.9278097794490634
 30
0.0
 11
59.103610004914799
 21
63.4233631974490635
 31
0.0
  0
ARC
  5
207AE
  8
0
 10
59.0721050024236476
 20
64.9278064194269149
 30
0.0
 40
0.0315050660703382
 50
0.0061106073570616
 51
86.5392669460296844
  0
ARC
  5
207AF
  8
0
 10
59.1191235419706871
 20
65.7051673040682402
 30
0.0
 40
0.7472764745648112
 50
259.070257004771122
 51
266.5386672156407144
  0
ARC
  5
207B0
  8
0
 10
59.1486578891490211
 20
65.8581093742195236
 30
0.0
 40
0.903044104338811
 50
249.8516534572453054
 51
259.070257004771122
  0
ARC
  5
207B1
  8
0
 10
58.8270578238254416
 20
64.9815883512168853
 30
0.0
 40
0.0306130628171736
 50
69.8516534572452912
 51
90.2900584656903078
  0
ARC
  5
207B2
  8
0
 10
60.4684815348452105
 20
64.1833679461764604
 30
0.0
 40
1.642185627106701
 50
162.8995013430752863
 51
180.2715871069484024
  0
ARC
  5
207B3
  8
0
 10
59.6155944092110772
 20
64.4457584115977227
 30
0.0
 40
0.7498486921900569
 50
136.7496822438062907
 51
162.8995013430752863
  0
ARC
  5
207B4
  8
0
 10
60.2234642091040868
 20
64.1357606395284563
 30
0.0
 40
1.3977172820559289
 50
178.3673294896235006
 51
212.2843516782000961
  0
ARC
  5
207B5
  8
0
 10
58.8981376101248131
 20
63.3714690566615602
 30
0.0
 40
0.031316219448578
 50
216.3631210278537083
 51
270.0451610071874029
  0
LINE
  5
207B6
  8
0
 10
59.33674521898579
 20
63.3401527804490669
 30
0.0
 11
58.8981622938253793
 21
63.3401528469409314
 31
0.0
  0
ARC
  5
207B7
  8
0
 10
59.336745245605897
 20
63.371648847764753
 30
0.0
 40
0.0314960673156967
 50
269.9999515742761105
 51
0.0011885980275334
  0
LINE
  5
207B8
  8
0
 10
59.3682413129148188
 20
63.3716495011490721
 30
0.0
 11
59.3682418051148204
 21
67.2440077799490723
 31
0.0
  0
LINE
  5
207B9
  8
0
 10
58.8666670019148199
 20
67.2440078396525678
 30
0.0
 11
58.8666667167044224
 21
65.0002226491535566
 31
0.0
  0
LINE
  5
207BA
  8
0
 10
59.3367457421148217
 20
67.2755038429490639
 30
0.0
 11
58.8981630689180307
 21
67.2755038986490632
 31
0.0
  0
ARC
  5
207BB
  8
0
 10
58.8981630649148187
 20
67.2440078356490716
 30
0.0
 40
0.0314960629999999
 50
89.9999927176008754
 51
179.9999927170605929
  0
ARC
  5
207BC
  8
0
 10
59.3367457421148217
 20
67.2440077799490439
 30
0.0
 40
0.031496063000001
 50
0.0000000000016284
 51
89.9999999999983658
  0
ARC
  5
207BD
  8
0
 10
59.1155850153797076
 20
62.3412600130327021
 30
0.0
 40
1.060823590905235
 50
76.2214532332233432
 51
91.1036536866996016
  0
ARC
  5
207BE
  8
0
 10
53.8772170350814505
 20
68.005240102415101
 30
0.0
 40
1.9222531081373371
 50
321.0205109700054891
 51
322.0457584476275201
  0
ARC
  5
207BF
  8
0
 10
55.4430958689315787
 20
66.7961816642722539
 30
0.0
 40
0.0715747320426857
 50
180.0958843789694015
 51
238.3970752077611905
  0
LINE
  5
207C0
  8
0
 10
55.4356502467836592
 20
66.733374872639132
 30
0.0
 11
55.7119398725148187
 21
66.7516095310338073
 31
0.0
  0
ARC
  5
207C1
  8
0
 10
56.2991679491487105
 20
66.6713616292721554
 30
0.0
 40
0.1491071595946172
 50
26.00301080026059
 51
56.1444941442189602
  0
ARC
  5
207C2
  8
0
 10
55.7428813901091402
 20
73.8912603974473683
 30
0.0
 40
7.1295081825161501
 50
272.9166065042933838
 51
274.2523047084567906
  0
ARC
  5
207C3
  8
0
 10
56.2384588303542472
 20
67.4972016078266677
 30
0.0
 40
0.7165865910010377
 50
272.6447530950489977
 51
281.6187805766761016
  0
ARC
  5
207C4
  8
0
 10
56.3623082847145014
 20
66.8724664170843113
 30
0.0
 40
0.0798369639475597
 50
284.8566836027126215
 51
321.7821109301397087
  0
LINE
  5
207C5
  8
0
 10
55.4859070228148212
 20
66.8220795912490644
 30
0.0
 11
55.4859311322075683
 21
66.8165541593652534
 31
0.0
  0
ARC
  5
207C6
  8
0
 10
55.4959310370148202
 20
66.8165977924490733
 30
0.0
 40
0.0100000000000007
 50
180.2499999482386954
 51
269.9999999999947136
  0
LINE
  5
207C7
  8
0
 10
55.4959310370148202
 20
66.8065977924490682
 30
0.0
 11
56.321634053714817
 21
66.8065977924490682
 31
0.0
  0
ARC
  5
207C8
  8
0
 10
56.321634053714817
 20
66.816597240453703
 30
0.0
 40
0.0099994480046322
 50
269.9999999999988063
 51
359.7531490630934172
  0
LINE
  5
207C9
  8
0
 10
56.3316334089148114
 20
66.8165541593490673
 30
0.0
 11
56.3316850385455368
 21
66.8230118810900251
 31
0.0
  0
LINE
  5
207CA
  8
0
 10
55.3423578842148203
 20
66.8681096034490707
 30
0.0
 11
55.3439787499148181
 21
66.8412706592490622
 31
0.0
  0
LINE
  5
207CB
  8
0
 10
55.3632345200148208
 20
66.8681096034490707
 30
0.0
 11
55.3664737492148191
 21
66.8385150282490628
 31
0.0
  0
LINE
  5
207CC
  8
0
 10
55.4169093754148108
 20
66.8681096034490707
 30
0.0
 11
55.4218187773148188
 21
66.8362883329490671
 31
0.0
  0
LINE
  5
207CD
  8
0
 10
55.4914080452148113
 20
66.8274428738490656
 30
0.0
 11
55.502772072230357
 21
66.8538832269228891
 31
0.0
  0
LINE
  5
207CE
  8
0
 10
55.4999943726148217
 20
66.8681096034490707
 30
0.0
 11
55.5065563284148169
 21
66.8345016303490667
 31
0.0
  0
LINE
  5
207CF
  8
0
 10
55.1770966060133716
 20
66.8681096034490707
 30
0.0
 11
56.6404915304148204
 21
66.8681096034490707
 31
0.0
  0
ARC
  5
207D0
  8
0
 10
55.1770966060133716
 20
66.887809603449071
 30
0.0
 40
0.0197
 50
180.0000055736732065
 51
270.0
  0
LINE
  5
207D1
  8
0
 10
55.5764351243148198
 20
66.8284115646490591
 30
0.0
 11
55.5916818795259573
 21
66.8681096034490707
 31
0.0
  0
LINE
  5
207D2
  8
0
 10
55.6070910862279675
 20
66.8681096034490707
 30
0.0
 11
55.6153884864315273
 21
66.8325411780004544
 31
0.0
  0
LINE
  5
207D3
  8
0
 10
55.6853034421148223
 20
66.829458080049065
 30
0.0
 11
55.6985951170148184
 21
66.8681096034490707
 31
0.0
  0
LINE
  5
207D4
  8
0
 10
55.7408896868148176
 20
66.831820454149053
 30
0.0
 11
55.7311588381148226
 21
66.8681096034490707
 31
0.0
  0
LINE
  5
207D5
  8
0
 10
55.8110131473196986
 20
66.8305430806649383
 30
0.0
 11
55.8225685274148091
 21
66.8681096034490707
 31
0.0
  0
LINE
  5
207D6
  8
0
 10
55.8752965484148234
 20
66.8307281829490591
 30
0.0
 11
55.8639935609017897
 21
66.8681096034490707
 31
0.0
  0
ARC
  5
207D7
  8
0
 10
55.8860219212876501
 20
66.8343436658144725
 30
0.0
 40
0.011318362938661
 50
198.6287680767183019
 51
263.5842458347891011
  0
ARC
  5
207D8
  8
0
 10
55.7515857233136387
 20
66.8349840720671722
 30
0.0
 40
0.0111540878208823
 50
196.4768887276391922
 51
261.3924918681771032
  0
ARC
  5
207D9
  8
0
 10
55.7811465763875489
 20
67.0550696093489336
 30
0.0
 40
0.2332145052548049
 50
262.3042872305659898
 51
273.740178838250074
  0
ARC
  5
207DA
  8
0
 10
55.7959414723273568
 20
66.8480701609100549
 30
0.0
 40
0.0257217372237752
 50
270.9315294820294753
 51
291.2786853054474818
  0
ARC
  5
207DB
  8
0
 10
55.8010413136404679
 20
66.8336494478156737
 30
0.0
 40
0.0104444714467216
 50
293.9192373276804915
 51
342.6974502241708933
  0
ARC
  5
207DC
  8
0
 10
55.62534663790899
 20
66.835444714766453
 30
0.0
 40
0.010372815750769
 50
196.2553045792207911
 51
241.328441323978808
  0
ARC
  5
207DD
  8
0
 10
55.6325446408794733
 20
66.8539464032413235
 30
0.0
 40
0.0301683637084962
 50
246.1990565681049929
 51
265.9125563351456094
  0
ARC
  5
207DE
  8
0
 10
55.6642617266647122
 20
67.109348575532465
 30
0.0
 40
0.2874955903802933
 50
263.2347540732320113
 51
271.5661333656502165
  0
ARC
  5
207DF
  8
0
 10
55.6727999264292279
 20
66.8381228715714002
 30
0.0
 40
0.0161768195738653
 50
267.5882799029469084
 51
305.2305484594639893
  0
ARC
  5
207E0
  8
0
 10
55.675944624648217
 20
66.8326029604510126
 30
0.0
 40
0.0098730814397349
 50
308.8050596607794773
 51
341.425903635480779
  0
ARC
  5
207E1
  8
0
 10
55.51722783596027
 20
66.8368646145790564
 30
0.0
 40
0.0109299939507715
 50
192.4855061796193922
 51
261.3081746705158253
  0
ARC
  5
207E2
  8
0
 10
55.5785253703176778
 20
67.227837802929983
 30
0.0
 40
0.4066791069821604
 50
261.0954664567940995
 51
267.3011276420057243
  0
ARC
  5
207E3
  8
0
 10
55.5622136181376689
 20
66.8818031995554492
 30
0.0
 40
0.0602602564676835
 50
267.3011276420061222
 51
274.7049294665574166
  0
ARC
  5
207E4
  8
0
 10
55.566326080002078
 20
66.8326927893665328
 30
0.0
 40
0.0109782358326926
 50
274.3377185896371202
 51
337.0471287178274906
  0
ARC
  5
207E5
  8
0
 10
55.4817685253377491
 20
66.8317389386038911
 30
0.0
 40
0.0105535072766327
 50
264.6095859471406015
 51
335.978802248666284
  0
ARC
  5
207E6
  8
0
 10
55.5010673675035022
 20
67.1816631470737917
 30
0.0
 40
0.3610017073065698
 50
259.7157974352957126
 51
266.7779679847002967
  0
ARC
  5
207E7
  8
0
 10
55.4441696218416169
 20
66.8791868181594538
 30
0.0
 40
0.0532637635126422
 50
252.4856860383833919
 51
261.8486072248593928
  0
ARC
  5
207E8
  8
0
 10
55.4319064444296927
 20
66.8378858779254301
 30
0.0
 40
0.0102133822885388
 50
188.9989775339616074
 51
248.3611465384435917
  0
ARC
  5
207E9
  8
0
 10
55.4264413827410607
 20
66.8311330382827435
 30
0.0
 40
0.0102218624080537
 50
263.0614880533286737
 51
333.7699783100565014
  0
ARC
  5
207EA
  8
0
 10
55.5223135274225612
 20
67.5392729681956467
 30
0.0
 40
0.7248212762455425
 50
258.2600071679748908
 51
262.3007219187488204
  0
ARC
  5
207EB
  8
0
 10
55.3766783535048575
 20
66.8397231341622131
 30
0.0
 40
0.0102758682656853
 50
186.7517242742125916
 51
259.6580229038377183
  0
ARC
  5
207EC
  8
0
 10
55.3539605636735317
 20
66.8418734841686302
 30
0.0
 40
0.0100000001898722
 50
183.4560276497373934
 51
257.4560259345473128
  0
ARC
  5
207ED
  8
0
 10
54.1321406307968331
 20
61.2339542343966485
 30
0.0
 40
5.729477622343051
 50
77.2027929129106667
 51
77.7092604340297584
  0
ARC
  5
207EE
  8
0
 10
55.403665447610102
 20
66.8308315645198121
 30
0.0
 40
0.0100206636277065
 50
255.9069516535431035
 51
310.2561545119023094
  0
LINE
  5
207EF
  8
0
 10
56.4752287477924995
 20
66.8681096034490707
 30
0.0
 11
56.4736090353148228
 21
66.8412706592490622
 31
0.0
  0
LINE
  5
207F0
  8
0
 10
56.4561532652148301
 20
66.8681096034490707
 30
0.0
 11
56.4529140360148176
 21
66.8385150282490628
 31
0.0
  0
LINE
  5
207F1
  8
0
 10
56.4024784098148189
 20
66.8681096034490707
 30
0.0
 11
56.397569007914818
 21
66.8362883329490671
 31
0.0
  0
LINE
  5
207F2
  8
0
 10
56.3279797400148325
 20
66.8274428738490656
 30
0.0
 11
56.3166157129992797
 21
66.8538832269228891
 31
0.0
  0
LINE
  5
207F3
  8
0
 10
56.3193934126148221
 20
66.8681096034490707
 30
0.0
 11
56.3128314568148198
 21
66.8345016303490667
 31
0.0
  0
LINE
  5
207F4
  8
0
 10
56.2429526609148169
 20
66.8284115646490591
 30
0.0
 11
56.2277059057036794
 21
66.8681096034490707
 31
0.0
  0
LINE
  5
207F5
  8
0
 10
56.2122966990016621
 20
66.8681096034490707
 30
0.0
 11
56.2039992987981094
 21
66.8325411780004544
 31
0.0
  0
LINE
  5
207F6
  8
0
 10
56.1340843431148215
 20
66.829458080049065
 30
0.0
 11
56.1207926682148113
 21
66.8681096034490707
 31
0.0
  0
LINE
  5
207F7
  8
0
 10
56.0784980984148191
 20
66.831820454149053
 30
0.0
 11
56.0882289471148212
 21
66.8681096034490707
 31
0.0
  0
LINE
  5
207F8
  8
0
 10
56.0083746379099381
 20
66.8305430806649383
 30
0.0
 11
55.9968192578148205
 21
66.8681096034490707
 31
0.0
  0
LINE
  5
207F9
  8
0
 10
55.9440912368148204
 20
66.8307281829490591
 30
0.0
 11
55.9553942243278613
 21
66.8681096034490707
 31
0.0
  0
ARC
  5
207FA
  8
0
 10
55.9333658639419866
 20
66.8343436658144725
 30
0.0
 40
0.011318362938661
 50
276.4157541652108989
 51
341.3712319232815844
  0
ARC
  5
207FB
  8
0
 10
56.067802061915998
 20
66.8349840720671722
 30
0.0
 40
0.0111540878208823
 50
278.6075081318227831
 51
343.5231112723607794
  0
ARC
  5
207FC
  8
0
 10
56.0382412088420807
 20
67.0550696093489336
 30
0.0
 40
0.2332145052548049
 50
266.259821161749926
 51
277.6957127694341239
  0
ARC
  5
207FD
  8
0
 10
56.023446312902287
 20
66.8480701609100549
 30
0.0
 40
0.0257217372237752
 50
248.7213146945524898
 51
269.0684705179705247
  0
ARC
  5
207FE
  8
0
 10
56.0183464715891617
 20
66.8336494478156737
 30
0.0
 40
0.0104444714467216
 50
197.3025497758291067
 51
246.0807626723195085
  0
ARC
  5
207FF
  8
0
 10
56.1940411473206467
 20
66.835444714766453
 30
0.0
 40
0.010372815750769
 50
298.6715586760212204
 51
343.7446954207791805
  0
ARC
  5
20800
  8
0
 10
56.1868431443501635
 20
66.8539464032413235
 30
0.0
 40
0.0301683637084962
 50
274.0874436648545043
 51
293.8009434318950071
  0
ARC
  5
20801
  8
0
 10
56.1551260585649388
 20
67.109348575532465
 30
0.0
 40
0.2874955903802933
 50
268.4338666343497835
 51
276.765245926768273
  0
ARC
  5
20802
  8
0
 10
56.1465878588004088
 20
66.8381228715714002
 30
0.0
 40
0.0161768195738653
 50
234.7694515405360107
 51
272.4117200970530916
  0
ARC
  5
20803
  8
0
 10
56.1434431605814197
 20
66.8326029604510126
 30
0.0
 40
0.0098730814397349
 50
198.5740963645191073
 51
231.1949403392204943
  0
ARC
  5
20804
  8
0
 10
56.3021599492693667
 20
66.8368646145790564
 30
0.0
 40
0.0109299939507715
 50
278.6918253294841179
 51
347.5144938203804941
  0
ARC
  5
20805
  8
0
 10
56.2408624149119589
 20
67.227837802929983
 30
0.0
 40
0.4066791069821604
 50
272.6988723579942757
 51
278.9045335432060142
  0
ARC
  5
20806
  8
0
 10
56.2571741670919678
 20
66.8818031995554492
 30
0.0
 40
0.0602602564676835
 50
265.2950705334426971
 51
272.6988723579938778
  0
ARC
  5
20807
  8
0
 10
56.2530617052275517
 20
66.8326927893665328
 30
0.0
 40
0.0109782358326926
 50
202.9528712821725094
 51
265.6622814103624819
  0
ARC
  5
20808
  8
0
 10
56.3376192598918877
 20
66.8317389386038911
 30
0.0
 40
0.0105535072766327
 50
204.0211977513336876
 51
275.3904140528593985
  0
ARC
  5
20809
  8
0
 10
56.3183204177261274
 20
67.1816631470737917
 30
0.0
 40
0.3610017073065698
 50
273.222032015299817
 51
280.2842025647044011
  0
ARC
  5
2080A
  8
0
 10
56.3752181633880198
 20
66.8791868181594538
 30
0.0
 40
0.0532637635126422
 50
278.1513927751406072
 51
287.5143139616167218
  0
ARC
  5
2080B
  8
0
 10
56.3874813407999582
 20
66.8378858779254301
 30
0.0
 40
0.0102133822885388
 50
291.6388534615563799
 51
351.001022466038421
  0
ARC
  5
2080C
  8
0
 10
56.3929464024885831
 20
66.8311330382827435
 30
0.0
 40
0.0102218624080537
 50
206.2300216899434133
 51
276.9385119466713263
  0
ARC
  5
2080D
  8
0
 10
56.2970742578070826
 20
67.5392729681956467
 30
0.0
 40
0.7248212762455425
 50
277.6992780812507817
 51
281.7399928320249956
  0
ARC
  5
2080E
  8
0
 10
56.4427094317247793
 20
66.8397231341622131
 30
0.0
 40
0.0102758682656853
 50
280.3419770961622817
 51
353.2482757257873232
  0
ARC
  5
2080F
  8
0
 10
56.4636272215560879
 20
66.8418734841686302
 30
0.0
 40
0.0100000001898722
 50
282.5439740654525735
 51
356.5439723502624929
  0
ARC
  5
20810
  8
0
 10
57.6854471544328007
 20
61.2339542343966485
 30
0.0
 40
5.729477622343051
 50
102.290739565970199
 51
102.7972070870893049
  0
ARC
  5
20811
  8
0
 10
56.4139223376195389
 20
66.8308315645198121
 30
0.0
 40
0.0100206636277065
 50
231.8716629637899871
 51
284.0930483464568965
  0
ARC
  5
20812
  8
0
 10
55.9096938926148184
 20
67.0757174491961621
 30
0.0
 40
0.253849052649255
 50
264.3624914684526175
 51
275.6375085315473825
  0
LINE
  5
20813
  8
0
 10
56.6601915304148207
 20
66.887809603449071
 30
0.0
 11
56.6601915304148207
 21
70.4980308632490704
 31
0.0
  0
ARC
  5
20814
  8
0
 10
56.6404915304148204
 20
66.887809603449071
 30
0.0
 40
0.0197
 50
270.0
 51
0.0
  0
LINE
  5
20815
  8
0
 10
55.1573962548148202
 20
70.4980308632490704
 30
0.0
 11
55.1573966060133714
 21
66.8878096015326662
 31
0.0
  0
LINE
  5
20816
  8
0
 10
55.18889268751483
 20
70.5295269262490621
 30
0.0
 11
56.6286954674149285
 21
70.5295269262490621
 31
0.0
  0
LINE
  5
20817
  8
0
 10
56.3024946800148172
 20
70.5304706372490671
 30
0.0
 11
56.3024946800148172
 21
70.5295269262490621
 31
0.0
  0
LINE
  5
20818
  8
0
 10
56.6300905435148181
 20
70.5304706372490671
 30
0.0
 11
55.1874972566148188
 21
70.5304706372490671
 31
0.0
  0
LINE
  5
20819
  8
0
 10
55.4027285754148195
 20
70.5295269262490621
 30
0.0
 11
55.403798110214808
 21
70.5304706372490671
 31
0.0
  0
ARC
  5
2081A
  8
0
 10
56.6300905435120612
 20
70.5619667002547999
 30
0.0
 40
0.0314960630057275
 50
270.0000000050021072
 51
1.000000002768926
  0
ARC
  5
2081B
  8
0
 10
56.628695467414822
 20
70.4980308632490704
 30
0.0
 40
0.0314960629999943
 50
359.9999999999951115
 51
89.9999999998094751
  0
ARC
  5
2081C
  8
0
 10
55.188892317818329
 20
70.4980308632477346
 30
0.0
 40
0.031496063003507
 50
89.9993274699493924
 51
179.9999999975682954
  0
ARC
  5
2081D
  8
0
 10
55.1874972566199702
 20
70.5619667002571589
 30
0.0
 40
0.0314960630080953
 50
179.0000000016175079
 51
269.9999999906124231
  0
LINE
  5
2081E
  8
0
 10
56.6615818095148214
 20
70.5625163823490595
 30
0.0
 11
56.6583664784148198
 21
70.7463005354490662
 31
0.0
  0
LINE
  5
2081F
  8
0
 10
55.1560059906148226
 20
70.5625163823490595
 30
0.0
 11
55.1592139549177034
 21
70.7463005354380385
 31
0.0
  0
ARC
  5
20820
  8
0
 10
55.1907052207950528
 20
70.7457508533511543
 30
0.0
 40
0.0314960628802049
 50
106.9900365208616932
 51
179.0000000066945915
  0
ARC
  5
20821
  8
0
 10
56.0186760777212811
 20
68.0719511779634416
 30
0.0
 40
2.8305564782445458
 50
99.4227640692223247
 51
107.2033022014478973
  0
ARC
  5
20822
  8
0
 10
55.5582547062591772
 20
70.8466963527214091
 30
0.0
 40
0.0178712979776082
 50
89.5335411896365514
 51
99.6360297498073919
  0
ARC
  5
20823
  8
0
 10
55.9087939000147784
 20
14856.7368059279997397
 30
0.0
 40
14785.8722430213401822
 50
269.9986422119779945
 51
270.0013577880220055
  0
ARC
  5
20824
  8
0
 10
56.2593330937704579
 20
70.8466963527214517
 30
0.0
 40
0.0178712979775657
 50
80.3639702501632911
 51
90.4664588103638607
  0
ARC
  5
20825
  8
0
 10
55.7989117222192874
 20
68.0719511775462962
 30
0.0
 40
2.8305564786706441
 50
72.7966977923996978
 51
80.5772359303814909
  0
ARC
  5
20826
  8
0
 10
56.6268934368749868
 20
70.745766877899527
 30
0.0
 40
0.0314775655689618
 50
0.9714153448319112
 51
73.0203404293461915
  0
LINE
  5
20827
  8
0
 10
55.1815019010421111
 20
70.7758722889490457
 30
0.0
 11
56.6360858989918299
 21
70.7758722889490741
 31
0.0
  0
ARC
  5
20828
  8
0
 10
55.5859592469148325
 20
70.8740271932490629
 30
0.0
 40
0.0196850393999879
 50
331.2737471426290767
 51
0.0000000000077351
  0
LINE
  5
20829
  8
0
 10
56.2119434989148203
 20
70.8740271932490629
 30
0.0
 11
55.6056442863148206
 21
70.8740271932490629
 31
0.0
  0
ARC
  5
2082A
  8
0
 10
56.2316285383148013
 20
70.8740271932490629
 30
0.0
 40
0.0196850393999891
 50
179.9999999999845102
 51
208.7262528583833046
  0
LINE
  5
2082B
  8
0
 10
56.2229340034856904
 20
70.8645662437598958
 30
0.0
 11
56.2133098098693935
 21
70.8668212953645451
 31
0.0
  0
LINE
  5
2082C
  8
0
 10
55.6056442863148206
 20
70.8740271932490629
 30
0.0
 11
55.6056442863148206
 21
71.4682355877490636
 31
0.0
  0
LINE
  5
2082D
  8
0
 10
56.2119434989148203
 20
70.8740271932490629
 30
0.0
 11
56.2119434989148203
 21
71.4682355877490636
 31
0.0
  0
ARC
  5
2082E
  8
0
 10
56.1725734202148104
 20
71.4682355877490636
 30
0.0
 40
0.0393700787000011
 50
359.9999999999988063
 51
89.9999999999987637
  0
LINE
  5
2082F
  8
0
 10
56.172573420014821
 20
71.5076056664490665
 30
0.0
 11
55.6450143652148128
 21
71.5076056664490665
 31
0.0
  0
ARC
  5
20830
  8
0
 10
55.6450143652037212
 20
71.4682355875601587
 30
0.0
 40
0.0393700788889016
 50
89.9999999838490936
 51
179.9999997250893102
  0
LINE
  5
20831
  8
0
 10
56.1548568847148175
 20
71.5076056664490665
 30
0.0
 11
56.1548568847148175
 21
71.7691910935820374
 31
0.0
  0
LINE
  5
20832
  8
0
 10
55.6627309005148234
 20
71.5076056664490665
 30
0.0
 11
55.6627309005148092
 21
71.7691910637504407
 31
0.0
  0
LINE
  5
20833
  8
0
 10
55.2839673121593194
 20
72.1068960293990386
 30
0.0
 11
55.286720405330712
 21
71.7914228004990491
 31
0.0
  0
ARC
  5
20834
  8
0
 10
55.3064196552150733
 20
71.7915947132490686
 30
0.0
 40
0.0197
 50
180.5000000020446862
 51
270.0
  0
LINE
  5
20835
  8
0
 10
55.3036665620436807
 20
72.1267679421490584
 30
0.0
 11
56.5139204700389186
 21
72.1267679421490584
 31
0.0
  0
ARC
  5
20836
  8
0
 10
55.3036665620436807
 20
72.1070679421490581
 30
0.0
 40
0.0197
 50
90.0
 51
180.5000000020446862
  0
LINE
  5
20837
  8
0
 10
56.5336197166367427
 20
72.1068956532104863
 30
0.0
 11
56.530860598541139
 21
71.7914224243104826
 31
0.0
  0
ARC
  5
20838
  8
0
 10
56.5139204700389186
 20
72.1070679421490581
 30
0.0
 40
0.0197
 50
359.4989058436768232
 51
90.0
  0
LINE
  5
20839
  8
0
 10
56.5111613519433291
 20
71.7718947132490683
 30
0.0
 11
55.3064196552150733
 21
71.7718947132490683
 31
0.0
  0
ARC
  5
2083A
  8
0
 10
56.5111613519433291
 20
71.7915947132490686
 30
0.0
 40
0.0197
 50
270.0
 51
359.4989058436764253
  0
ARC
  5
2083B
  8
0
 10
55.9087905035793682
 20
127.6774403712709045
 30
0.0
 40
55.9087907753345021
 50
269.38267355450688
 51
270.6173264454926084
  0
LINE
  5
2083C
  8
0
 10
55.6196556546148102
 20
69.338205700049059
 30
0.0
 11
55.6196556546148102
 21
69.7618300597470409
 31
0.0
  0
ARC
  5
2083D
  8
0
 10
55.9088176709148215
 20
69.7618300597470409
 30
0.0
 40
0.2891620162999997
 50
0.0000000007999731
 51
180.0
  0
LINE
  5
2083E
  8
0
 10
56.1979796872148114
 20
69.761830059751091
 30
0.0
 11
56.1979796872148114
 21
69.3382056979490642
 31
0.0
  0
LINE
  5
2083F
  8
0
 10
55.6399430527148127
 20
69.318606591149063
 30
0.0
 11
56.1776927746597181
 21
69.3186065911434355
 31
0.0
  0
ARC
  5
20840
  8
0
 10
56.1777415936414712
 20
69.33885504031106
 30
0.0
 40
0.0202485080187801
 50
269.8618602258604824
 51
358.1622864966359998
  0
ARC
  5
20841
  8
0
 10
55.6396227432962078
 20
69.3385745168837104
 30
0.0
 40
0.0199704946425433
 50
181.0582036063819942
 51
270.919014031162078
  0
LINE
  5
20842
  8
0
 10
55.6821364863148105
 20
69.7618300597486751
 30
0.0
 11
55.6821379171148223
 21
69.3422760682490633
 31
0.0
  0
LINE
  5
20843
  8
0
 10
56.1354982958148199
 20
69.7618300598490606
 30
0.0
 11
56.1354974306128796
 21
69.3422751333356615
 31
0.0
  0
ARC
  5
20844
  8
0
 10
55.9088173910648223
 20
69.7618303551770254
 30
0.0
 40
0.2266809047501935
 50
359.9999253530174883
 51
180.0000746723584939
  0
LINE
  5
20845
  8
0
 10
55.6196556548530623
 20
69.3382056871513299
 30
0.0
 11
55.6821379171148223
 21
69.3422760682490633
 31
0.0
  0
LINE
  5
20846
  8
0
 10
55.6821379171148223
 20
69.3422760682490633
 30
0.0
 11
56.1354974306128867
 21
69.3422751333356615
 31
0.0
  0
LINE
  5
20847
  8
0
 10
56.1354974306128867
 20
69.3422751333356615
 30
0.0
 11
56.1979796872148114
 21
69.3382058679556508
 31
0.0
  0
LINE
  5
20848
  8
0
 10
55.6090871896790802
 20
69.2757988588993356
 30
0.0
 11
55.6090826955148216
 21
67.7617559864490602
 31
0.0
  0
LINE
  5
20849
  8
0
 10
56.2085050897148193
 20
67.7617559863490726
 30
0.0
 11
56.2085050897148193
 21
69.2753854318490596
 31
0.0
  0
ARC
  5
2084A
  8
0
 10
56.1888943023389515
 20
69.2753854318490596
 30
0.0
 40
0.0196107873758589
 50
359.9999999999988063
 51
91.9772094569413383
  0
ARC
  5
2084B
  8
0
 10
55.6291248160396918
 20
69.2749295698255168
 30
0.0
 40
0.0200564736098242
 50
89.2992837082286854
 51
177.5159041824776125
  0
LINE
  5
2084C
  8
0
 10
55.6293700967148226
 20
69.294984543549063
 30
0.0
 11
56.1882176916148168
 21
69.294984543549063
 31
0.0
  0
ARC
  5
2084D
  8
0
 10
55.908793892616103
 20
67.7694183671140138
 30
0.0
 40
0.2998091288559039
 50
181.4644980384508131
 51
358.5355019424320062
  0
LINE
  5
2084E
  8
0
 10
55.6821149141880625
 20
69.270627894515215
 30
0.0
 11
55.6821149008468481
 21
67.7617559910033265
 31
0.0
  0
LINE
  5
2084F
  8
0
 10
55.6090871884510207
 20
69.275385139926243
 30
0.0
 11
55.6821153051148201
 21
69.2706278690490649
 31
0.0
  0
LINE
  5
20850
  8
0
 10
55.6821153051148201
 20
69.2706278690490649
 30
0.0
 11
56.1354724707148165
 21
69.2706278523490653
 31
0.0
  0
LINE
  5
20851
  8
0
 10
56.1354724707148165
 20
69.2706278523490653
 30
0.0
 11
56.2085050897148193
 21
69.2753854299726157
 31
0.0
  0
LINE
  5
20852
  8
0
 10
56.1354728196177106
 20
69.2706278750777074
 30
0.0
 11
56.1354750772148208
 21
67.7617559869947854
 31
0.0
  0
ARC
  5
20853
  8
0
 10
55.9087949890308309
 20
67.7617556478325866
 30
0.0
 40
0.2266800881842392
 50
179.9999132599810991
 51
0.000085726818122
  0
ARC
  5
20854
  8
0
 10
55.9087937261148227
 20
69.7478977525490649
 30
0.0
 40
0.3149606299000007
 50
0.0
 51
180.0
  0
LINE
  5
20855
  8
0
 10
56.2237543560148225
 20
69.7478977525490649
 30
0.0
 11
56.2237543580148227
 21
67.7597087658490551
 31
0.0
  0
ARC
  5
20856
  8
0
 10
55.9087937271148192
 20
67.7597087658649002
 30
0.0
 40
0.3149606308999999
 50
180.0000027673667091
 51
359.9999999971179818
  0
LINE
  5
20857
  8
0
 10
55.5938330962148228
 20
67.7597087506524218
 30
0.0
 11
55.5938330962148228
 21
69.7478977525490649
 31
0.0
  0
ARC
  5
20858
  8
0
 10
55.7749356249148178
 20
69.3075189896490542
 30
0.0
 40
0.0118110236000008
 50
359.9999995149044025
 51
69.8427273409231049
  0
ARC
  5
20859
  8
0
 10
56.0426521603148231
 20
69.3075189896490542
 30
0.0
 40
0.0118110235999982
 50
110.1572726973464995
 51
180.0000004851129916
  0
LINE
  5
2085A
  8
0
 10
56.0308411367148125
 20
69.3075189895490666
 30
0.0
 11
56.0308411367148125
 21
69.294984543549063
 31
0.0
  0
LINE
  5
2085B
  8
0
 10
55.7867466485148213
 20
69.3075189895490666
 30
0.0
 11
55.7867466485148213
 21
69.294984543549063
 31
0.0
  0
LINE
  5
2085C
  8
0
 10
55.5938330962148228
 20
69.3098236428093344
 30
0.0
 11
55.7342986373148221
 21
69.3091251540490703
 31
0.0
  0
LINE
  5
2085D
  8
0
 10
56.2237543580927905
 20
69.3098388645637868
 30
0.0
 11
56.0832883238148199
 21
69.3091257355490455
 31
0.0
  0
LINE
  5
2085E
  8
0
 10
55.7311905545018789
 20
69.294984543549063
 30
0.0
 11
55.7342986373148221
 21
69.3091251540490703
 31
0.0
  0
LINE
  5
2085F
  8
0
 10
55.7342986373148221
 20
69.3091251540490703
 30
0.0
 11
55.7343135310103719
 21
69.3186065911480824
 31
0.0
  0
LINE
  5
20860
  8
0
 10
56.08635679021085
 20
69.294984543549063
 30
0.0
 11
56.0832883238148199
 21
69.3091257355490455
 31
0.0
  0
LINE
  5
20861
  8
0
 10
56.0832883238148199
 20
69.3091257355490455
 30
0.0
 11
56.0832734470565697
 21
69.3186065911444302
 31
0.0
  0
LINE
  5
20862
  8
0
 10
55.6196556546148102
 20
69.373346586844022
 30
0.0
 11
55.5938330962148228
 21
69.3732165360759865
 31
0.0
  0
LINE
  5
20863
  8
0
 10
56.223754358096059
 20
69.374949711566444
 30
0.0
 11
56.1979796872148114
 21
69.3750789124490694
 31
0.0
  0
LINE
  5
20864
  8
0
 10
55.5938330962148228
 20
67.8051689570757645
 30
0.0
 11
55.6090828246154416
 21
67.8052488051250464
 31
0.0
  0
LINE
  5
20865
  8
0
 10
56.2085050897148193
 20
67.8052488043490627
 30
0.0
 11
56.2237543580171106
 21
67.8051689586658028
 31
0.0
  0
LINE
  5
20866
  8
0
 10
55.5938330962148228
 20
68.4783974653459353
 30
0.0
 11
55.609084822973351
 21
68.4784773239885283
 31
0.0
  0
LINE
  5
20867
  8
0
 10
56.2085050897148193
 20
68.4784773128490656
 30
0.0
 11
56.2235693910474907
 21
68.4783984356296287
 31
0.0
  0
ARC
  5
20868
  8
0
 10
55.5932710156431469
 20
68.490203890947825
 30
0.0
 40
0.0118290893387491
 50
273.6224526041524996
 51
0.0096301191960059
  0
LINE
  5
20869
  8
0
 10
55.6051001048148308
 20
68.4902058791490589
 30
0.0
 11
55.6036757824148182
 21
69.0264845169490684
 31
0.0
  0
ARC
  5
2086A
  8
0
 10
55.649811618254553
 20
69.0207248579243355
 30
0.0
 40
0.0464939675733527
 50
151.1543593303993873
 51
172.8839351842418068
  0
ARC
  5
2086B
  8
0
 10
56.2243167726864783
 20
68.490203890947825
 30
0.0
 40
0.0118290893387491
 50
179.9903698808039962
 51
267.2748419635885284
  0
LINE
  5
2086C
  8
0
 10
56.2124876835148228
 20
68.4902058791490589
 30
0.0
 11
56.2139120059148212
 21
69.0264845169490684
 31
0.0
  0
ARC
  5
2086D
  8
0
 10
55.5959628244794075
 20
69.0250833001653064
 30
0.0
 40
0.0079365961531976
 50
12.3926481089354397
 51
105.5656762948552938
  0
ARC
  5
2086E
  8
0
 10
56.2216249638502319
 20
69.0250833001653064
 30
0.0
 40
0.0079365961531976
 50
74.4343237051447204
 51
167.5992650017714141
  0
ARC
  5
2086F
  8
0
 10
56.1683515711665393
 20
69.0208563304056639
 30
0.0
 40
0.0459067500289339
 50
7.0422037183755739
 51
28.9933823938131709
  0
LINE
  5
20870
  8
0
 10
56.1979796872148114
 20
69.3643591958490617
 30
0.0
 11
56.2237543580955119
 21
69.3642242387743124
 31
0.0
  0
LINE
  5
20871
  8
0
 10
56.1854239524220418
 20
69.3201204882600166
 30
0.0
 11
56.2237543580933021
 21
69.3201204882600166
 31
0.0
  0
LINE
  5
20872
  8
0
 10
55.6320925734545213
 20
69.3200781064637539
 30
0.0
 11
55.5938330962148228
 21
69.3202784344014162
 31
0.0
  0
LINE
  5
20873
  8
0
 10
55.6196556546148173
 20
69.3643594448490717
 30
0.0
 11
55.5938330962148228
 21
69.3642242370846844
 31
0.0
  0
LINE
  5
20874
  8
0
 10
55.5938330962148228
 20
69.4489369899443147
 30
0.0
 11
55.6196556546148102
 21
69.4488111786490663
 31
0.0
  0
LINE
  5
20875
  8
0
 10
55.5938330962148228
 20
69.5106330301434951
 30
0.0
 11
55.6196556546148102
 21
69.5107662814490652
 31
0.0
  0
LINE
  5
20876
  8
0
 10
56.1979796872148114
 20
69.4462937827663183
 30
0.0
 11
56.2237543580996473
 21
69.4464173340593334
 31
0.0
  0
LINE
  5
20877
  8
0
 10
56.22375435810293
 20
69.5115343168325381
 30
0.0
 11
56.1979796872148114
 21
69.5116670373490706
 31
0.0
  0
LINE
  5
20878
  8
0
 10
55.5938330962148228
 20
69.46201071794016
 30
0.0
 11
55.6196556546148173
 21
69.4618755100490688
 31
0.0
  0
LINE
  5
20879
  8
0
 10
56.1979796872148114
 20
69.4618757590490645
 30
0.0
 11
56.2237543581004431
 21
69.4620107161505587
 31
0.0
  0
LINE
  5
2087A
  8
0
 10
56.1979796872148114
 20
69.5060914793490667
 30
0.0
 11
56.2237543581026529
 21
69.5059565222355218
 31
0.0
  0
LINE
  5
2087B
  8
0
 10
55.5938330962148228
 20
69.5059565205459364
 30
0.0
 11
55.6196556546148102
 21
69.5060917283490625
 31
0.0
  0
ARC
  5
2087C
  8
0
 10
55.5910226780133883
 20
69.7841536669562288
 30
0.0
 40
0.0128365385446535
 50
3.1374215560670069
 51
60.1176834397213611
  0
LINE
  5
2087D
  8
0
 10
55.603839976343977
 20
69.7848562232267255
 30
0.0
 11
55.6036757904148189
 21
69.6658799965490658
 31
0.0
  0
ARC
  5
2087E
  8
0
 10
55.5961221228992315
 20
69.6669644546817182
 30
0.0
 40
0.0075988064268106
 50
252.4682029898640963
 51
314.1036701156539266
  0
ARC
  5
2087F
  8
0
 10
55.5960125701503074
 20
69.6670774898597216
 30
0.0
 40
0.0077562191209093
 50
314.1036701156580193
 51
351.1185004663445852
  0
ARC
  5
20880
  8
0
 10
56.2266131493611496
 20
69.7841536669562288
 30
0.0
 40
0.0128365385446535
 50
119.8823165602785963
 51
176.8625784439329891
  0
LINE
  5
20881
  8
0
 10
56.2137958510305609
 20
69.7848562232267255
 30
0.0
 11
56.213960036959719
 21
69.6658799965490658
 31
0.0
  0
ARC
  5
20882
  8
0
 10
56.2215137044752993
 20
69.6669644546817182
 30
0.0
 40
0.0075988064268106
 50
225.8963298843457892
 51
287.5317970101359037
  0
ARC
  5
20883
  8
0
 10
56.2216232572242376
 20
69.6670774898597216
 30
0.0
 40
0.0077562191209093
 50
188.8814995336553864
 51
225.8963298843420091
  0
ARC
  5
20884
  8
0
 10
55.7520190578006591
 20
69.7143707316192689
 30
0.0
 40
0.1571559245749684
 50
198.6830187232961009
 51
212.6223118176517062
  0
ARC
  5
20885
  8
0
 10
56.0489857005526702
 20
69.7224174163849995
 30
0.0
 40
0.1755898177684994
 50
328.0526100436748038
 51
340.537421524521676
  0
ARC
  5
20886
  8
0
 10
55.1078139804718177
 20
69.8183350494460058
 30
0.0
 40
0.4976423455363433
 50
355.3676034137121178
 51
1.5732263915152129
  0
LINE
  5
20887
  8
0
 10
55.6052945859068686
 20
69.8320908061820234
 30
0.0
 11
55.6282901929925799
 21
69.8319656840849774
 31
0.0
  0
LINE
  5
20888
  8
0
 10
55.6087958744035475
 20
69.8438221360791545
 30
0.0
 11
55.6314885496190001
 21
69.8437033163817347
 31
0.0
  0
LINE
  5
20889
  8
0
 10
55.6267185910210671
 20
69.8880184738891046
 30
0.0
 11
55.6486982802382926
 21
69.8881335603507665
 31
0.0
  0
LINE
  5
2088A
  8
0
 10
55.632887816581551
 20
69.899806038931402
 30
0.0
 11
55.6547616687268203
 21
69.8999250249808739
 31
0.0
  0
LINE
  5
2088B
  8
0
 10
56.1628738107020808
 20
69.8999247718365382
 30
0.0
 11
56.1846996301996526
 21
69.8998060488272586
 31
0.0
  0
LINE
  5
2088C
  8
0
 10
56.1689371827967321
 20
69.8881333107305238
 30
0.0
 11
56.1908688603285
 21
69.888018475660715
 31
0.0
  0
LINE
  5
2088D
  8
0
 10
56.1861467188074499
 20
69.8437035650198084
 30
0.0
 11
56.2087915783833409
 21
69.8438221343364063
 31
0.0
  0
LINE
  5
2088E
  8
0
 10
56.1893450844191094
 20
69.8319659417424674
 30
0.0
 11
56.2122928671152096
 21
69.8320908033254
 31
0.0
  0
ARC
  5
2088F
  8
0
 10
56.7098218469027202
 20
69.8183350494460058
 30
0.0
 40
0.4976423455363433
 50
178.4450956205245973
 51
184.6323965862879106
  0
LINE
  5
20890
  8
0
 10
55.8023300396450423
 20
70.0306702651800066
 30
0.0
 11
55.7697383911160429
 21
70.0304996141766622
 31
0.0
  0
LINE
  5
20891
  8
0
 10
56.0153059391848771
 20
70.0306700128632542
 30
0.0
 11
56.0478490575644273
 21
70.0304996159230484
 31
0.0
  0
LINE
  5
20892
  8
0
 10
56.0203712734349679
 20
70.0424323843345746
 30
0.0
 11
55.9777145300756231
 21
70.0426643426764315
 31
0.0
  0
LINE
  5
20893
  8
0
 10
55.8399206578964922
 20
70.042664304930625
 30
0.0
 11
55.7972152247745683
 21
70.0424320229246291
 31
0.0
  0
ARC
  5
20894
  8
0
 10
55.536161659335427
 20
65.7636493026264333
 30
0.0
 40
1.04833974747086
 50
92.6476987790951512
 51
98.341653109583234
  0
ARC
  5
20895
  8
0
 10
55.3895702474913705
 20
66.7602876002378167
 30
0.0
 40
0.0409809757629053
 50
97.7086770188916631
 51
114.0857209125602054
  0
ARC
  5
20896
  8
0
 10
55.7198735138042665
 20
70.4889926061124896
 30
0.0
 40
0.6518010479951492
 50
100.0933045496181961
 51
117.666160890012705
  0
ARC
  5
20897
  8
0
 10
55.45718034417159
 20
70.9900681867983963
 30
0.0
 40
0.0860409937925042
 50
117.6661608900119944
 51
193.8774723650487886
  0
ARC
  5
20898
  8
0
 10
55.4708318688287889
 20
70.9934409018987935
 30
0.0
 40
0.1001029756092624
 50
193.8774723650487886
 51
242.9970787258322105
  0
ARC
  5
20899
  8
0
 10
55.6796697974723926
 20
71.4032567584474833
 30
0.0
 40
0.5600620136973073
 50
242.9970787258322105
 51
255.35085323002059
  0
ARC
  5
2089A
  8
0
 10
56.9240853078646509
 20
76.3017599570015079
 30
0.0
 40
5.4765842304501628
 50
255.992317490894095
 51
256.0696924596239796
  0
ARC
  5
2089B
  8
0
 10
55.6994666114172219
 20
70.5286973755427766
 30
0.0
 40
0.4703069391357476
 50
101.5072359042364951
 51
126.4299310974586064
  0
ARC
  5
2089C
  8
0
 10
56.1776955808516618
 20
71.4972686171198575
 30
0.0
 40
0.3878871556125449
 50
275.0654415001311008
 51
307.7512805131070195
  0
ARC
  5
2089D
  8
0
 10
56.3542011176140818
 20
71.2501121665710713
 30
0.0
 40
0.0852188573768906
 50
315.6826940422034795
 51
22.3055522728786109
  0
ARC
  5
2089E
  8
0
 10
56.3026900187938821
 20
71.2130223332627708
 30
0.0
 40
0.1476925819444858
 50
28.0425510520521613
 51
75.8109448745909447
  0
ARC
  5
2089F
  8
0
 10
55.9713174185849027
 20
70.3032916514075197
 30
0.0
 40
1.115233992160295
 50
70.7558163560191815
 51
77.5397132953425796
  0
ARC
  5
208A0
  8
0
 10
56.0573521998761422
 20
71.9120851892100319
 30
0.0
 40
0.6793286973472989
 50
283.1537436053798729
 51
300.198386369362197
  0
ARC
  5
208A1
  8
0
 10
56.1439072029948179
 20
71.0641532657099617
 30
0.0
 40
0.2520977927777316
 50
55.6922050685394368
 51
74.3428398248492925
  0
ARC
  5
208A2
  8
0
 10
55.8259749320013796
 20
70.6646463649913272
 30
0.0
 40
1.0164661992128901
 50
99.241698937468513
 51
112.2475664149874035
  0
ARC
  5
208A3
  8
0
 10
55.4831395971493109
 20
71.5027491200504386
 30
0.0
 40
0.1109540265388832
 50
112.2475664149874035
 51
179.5569627923541987
  0
ARC
  5
208A4
  8
0
 10
55.4741882191844766
 20
71.5201075951643332
 30
0.0
 40
0.103325366388656
 50
189.1891888472123924
 51
244.7859748843457055
  0
ARC
  5
208A5
  8
0
 10
55.7083823696247009
 20
72.0012935653153363
 30
0.0
 40
0.638469406443873
 50
244.1671930111799895
 51
260.740100968083425
  0
ARC
  5
208A6
  8
0
 10
56.0897145752599968
 20
72.2537016964870702
 30
0.0
 40
0.6335166204655226
 50
275.9019574680904157
 51
299.036822267389482
  0
ARC
  5
208A7
  8
0
 10
56.3578810107053911
 20
71.7706490377962183
 30
0.0
 40
0.081019463759919
 50
299.0368222673898799
 51
0.3633324196805709
  0
ARC
  5
208A8
  8
0
 10
55.7976202109837516
 20
70.7693499128335759
 30
0.0
 40
0.7701448212467727
 50
100.0872697959397044
 51
119.9432965522101
  0
ARC
  5
208A9
  8
0
 10
56.0277672487547278
 20
73.2264451432603778
 30
0.0
 40
1.7661809568763509
 50
255.9280696004136075
 51
257.0389381091163159
  0
ARC
  5
208AA
  8
0
 10
55.3858149387468899
 20
75.2537397547966975
 30
0.0
 40
3.5750691479722758
 50
282.4221256083280878
 51
282.9311897936124183
  0
ARC
  5
208AB
  8
0
 10
56.3670397366569631
 20
72.1332468809815595
 30
0.0
 40
0.0723892644414222
 50
354.8650776789997963
 51
74.0400557659997389
  0
ARC
  5
208AC
  8
0
 10
55.4448993890095565
 20
72.2043558274483104
 30
0.0
 40
0.0730530581215463
 50
93.5663040688940129
 51
255.6419044123076105
  0
ARC
  5
208AD
  8
0
 10
55.4814664753617279
 20
71.9638851398178758
 30
0.0
 40
0.178292243466122
 50
93.8041667698718129
 51
113.9962600850727057
  0
ARC
  5
208AE
  8
0
 10
57.8654529937680735
 20
36.1106745575479167
 30
0.0
 40
36.1106745855338005
 50
92.9195304460922245
 51
93.8041667698718129
  0
ARC
  5
208AF
  8
0
 10
55.7418752406520426
 20
78.9815301783961985
 30
0.0
 40
6.8129867825507144
 50
272.3919286738428127
 51
275.210970314568101
  0
ARC
  5
208B0
  8
0
 10
56.3548941254977294
 20
72.2814564472220553
 30
0.0
 40
0.0849505793826597
 50
273.88704572823832
 51
354.604981590843181
  0
ARC
  5
208B1
  8
0
 10
56.3758193239748806
 20
72.2793888684237089
 30
0.0
 40
0.0639237439224745
 50
354.6865425316294136
 51
83.8239610706856695
  0
ARC
  5
208B2
  8
0
 10
56.3517033083042591
 20
72.3001268645754607
 30
0.0
 40
0.0877198419787094
 50
353.4158732433730279
 51
42.6519028464046315
  0
ARC
  5
208B3
  8
0
 10
56.0816041435925428
 20
66.396431494038481
 30
0.0
 40
5.9156936470017163
 50
91.2982426854648992
 51
96.2229711850225158
  0
ARC
  5
208B4
  8
0
 10
55.8385821319886517
 20
77.1199677988214773
 30
0.0
 40
4.8105960459966477
 50
271.2982426854649134
 51
276.1819549722461034
  0
ARC
  5
208B5
  8
0
 10
56.3427126904371676
 20
72.4657151375875799
 30
0.0
 40
0.1291202685772629
 50
276.1819549722461034
 51
304.7371830216957846
  0
ARC
  5
208B6
  8
0
 10
56.3656243977455631
 20
72.4132327338508759
 30
0.0
 40
0.0737725192903076
 50
313.3727664826876094
 51
77.3665356333614369
  0
ARC
  5
208B7
  8
0
 10
55.4436400288601305
 20
72.3437268212723126
 30
0.0
 40
0.0720232228964217
 50
105.9656583179259002
 51
254.286151875084812
  0
ARC
  5
208B8
  8
0
 10
55.7136549759627684
 20
70.6841958726023449
 30
0.0
 40
1.7529019990899111
 50
91.6647508950605214
 51
99.5170168495812248
  0
ARC
  5
208B9
  8
0
 10
53.6673413062016991
 20
115.3323842324370929
 30
0.0
 40
42.94241079957159
 50
272.6633014257653826
 51
273.6517649345204859
  0
ARC
  5
208BA
  8
0
 10
55.8716046272785789
 20
70.1508827721451524
 30
0.0
 40
2.3894317918096251
 50
77.6721869153008413
 51
83.1919330265109664
  0
LINE
  5
208BB
  8
0
 10
55.6627309005148234
 20
72.4363580103490676
 30
0.0
 11
55.6627309005148234
 21
72.6388732627436013
 31
0.0
  0
LINE
  5
208BC
  8
0
 10
56.1548568847148175
 20
72.4620808567224231
 30
0.0
 11
56.1548568847148175
 21
72.744014514331738
 31
0.0
  0
LINE
  5
208BD
  8
0
 10
55.6627309005148234
 20
72.7965310693121523
 30
0.0
 11
55.6627309005148234
 21
73.2089004402793648
 31
0.0
  0
LINE
  5
208BE
  8
0
 10
56.1548568847148175
 20
72.8957339181589532
 30
0.0
 11
56.1548568847148175
 21
73.3168928251974705
 31
0.0
  0
LINE
  5
208BF
  8
0
 10
55.6627309005148234
 20
73.3704985757408821
 30
0.0
 11
55.6627309005148234
 21
73.7732257009612624
 31
0.0
  0
LINE
  5
208C0
  8
0
 10
56.1548568847148175
 20
73.4683178660074816
 30
0.0
 11
56.1548568847148175
 21
73.8766344425097259
 31
0.0
  0
LINE
  5
208C1
  8
0
 10
55.6627309005148092
 20
73.9338340757045955
 30
0.0
 11
55.6627309005148234
 21
74.3142690247774311
 31
0.0
  0
LINE
  5
208C2
  8
0
 10
56.1548568847148175
 20
74.411862172539216
 30
0.0
 11
56.1548568847148175
 21
74.0262790602189398
 31
0.0
  0
LINE
  5
208C3
  8
0
 10
55.6627309005148234
 20
74.4758808848381477
 30
0.0
 11
55.6627309005148234
 21
74.8232003729959843
 31
0.0
  0
LINE
  5
208C4
  8
0
 10
56.1548568847148175
 20
74.9162036892654015
 30
0.0
 11
56.1548568847148175
 21
74.5622660482489863
 31
0.0
  0
LINE
  5
208C5
  8
0
 10
55.6627309005148092
 20
74.9882651722804354
 30
0.0
 11
55.6627309005148234
 21
75.2932343082055127
 31
0.0
  0
LINE
  5
208C6
  8
0
 10
56.1548568847148175
 20
75.0652516510960339
 30
0.0
 11
56.1548568847148175
 21
75.3797971141970038
 31
0.0
  0
LINE
  5
208C7
  8
0
 10
55.6627309005148092
 20
75.459578916791699
 30
0.0
 11
55.6627309005148234
 21
75.7140283398182845
 31
0.0
  0
LINE
  5
208C8
  8
0
 10
56.1548568847148175
 20
75.5282785342358949
 30
0.0
 11
56.1548568847148175
 21
75.7919930531570003
 31
0.0
  0
LINE
  5
208C9
  8
0
 10
55.6627309005148092
 20
75.8827583297731252
 30
0.0
 11
55.6627309005148234
 21
76.080964166812592
 31
0.0
  0
LINE
  5
208CA
  8
0
 10
56.1548568847148175
 20
75.9433915242137232
 30
0.0
 11
56.1548568847148175
 21
76.1454353770711094
 31
0.0
  0
LINE
  5
208CB
  8
0
 10
55.6627309005148234
 20
76.2524580772396803
 30
0.0
 11
55.6627309005148234
 21
76.3891389679829445
 31
0.0
  0
LINE
  5
208CC
  8
0
 10
56.1548568847148175
 20
76.2999951582036999
 30
0.0
 11
56.1548568847148175
 21
76.4395597665690048
 31
0.0
  0
LINE
  5
208CD
  8
0
 10
55.6627309005148234
 20
76.6289877018612344
 30
0.0
 11
55.6627309005148234
 21
76.5597246375515255
 31
0.0
  0
LINE
  5
208CE
  8
0
 10
56.1548568847148175
 20
76.5957958178036051
 30
0.0
 11
56.1548568847148175
 21
76.6296529105490691
 31
0.0
  0
ARC
  5
208CF
  8
0
 10
55.4554303591015625
 20
72.5633653614811749
 30
0.0
 40
0.0838549600726987
 50
159.2541587037520969
 51
211.1134868009719128
  0
ARC
  5
208D0
  8
0
 10
55.4847214573345369
 20
72.5810442867352492
 30
0.0
 40
0.1180677184214874
 50
211.1134868009716001
 51
247.6805446162688042
  0
ARC
  5
208D1
  8
0
 10
55.6692177127027676
 20
72.9628862511796967
 30
0.0
 40
0.5419764544929548
 50
244.9666674771573867
 51
259.0062002966737964
  0
ARC
  5
208D2
  8
0
 10
55.7722673648989868
 20
73.2329197654833024
 30
0.0
 40
0.7731284219363733
 50
241.9677783013688099
 51
261.8549554501266812
  0
ARC
  5
208D3
  8
0
 10
55.4720207989107124
 20
72.631155075841491
 30
0.0
 40
0.1024109719336458
 50
204.2657753117968866
 51
231.9654941725665935
  0
ARC
  5
208D4
  8
0
 10
55.454477934921151
 20
72.6225846473190728
 30
0.0
 40
0.0828980486525649
 50
164.131826547910407
 51
203.8485646543140888
  0
ARC
  5
208D5
  8
0
 10
55.4923325386428417
 20
72.6056402574985924
 30
0.0
 40
0.1240858126993637
 50
117.5771058092820027
 51
161.3841853062068878
  0
ARC
  5
208D6
  8
0
 10
56.0516006262001127
 20
71.340087620036158
 30
0.0
 40
1.507463825268613
 50
100.0096074023576023
 51
114.1486921691166998
  0
ARC
  5
208D7
  8
0
 10
55.7262346836012483
 20
72.1081839995274834
 30
0.0
 40
0.531706115947186
 50
101.6320630901179953
 51
124.9638643379641962
  0
ARC
  5
208D8
  8
0
 10
60.5416001798331891
 20
51.0070496163788221
 30
0.0
 40
22.1751924391222204
 50
101.2433491182699044
 51
102.8256781151744974
  0
ARC
  5
208D9
  8
0
 10
55.8932207828513512
 20
74.2291197977989725
 30
0.0
 40
1.507849708904659
 50
282.4369641433260085
 51
287.4449566671281104
  0
ARC
  5
208DA
  8
0
 10
56.2855153421321504
 20
72.9807398360633073
 30
0.0
 40
0.1992827254817846
 50
287.4449566671277125
 51
312.0926773666457166
  0
ARC
  5
208DB
  8
0
 10
56.3630071849979828
 20
72.8846046063096082
 30
0.0
 40
0.076315326285153
 50
317.3093615161112098
 51
20.9631223016652299
  0
ARC
  5
208DC
  8
0
 10
56.3475081322451672
 20
72.8692529317394957
 30
0.0
 40
0.0966812902457516
 50
26.179806451130041
 51
59.5281376038570471
  0
ARC
  5
208DD
  8
0
 10
56.0867971862672974
 20
71.9087059250159228
 30
0.0
 40
1.0888583717634319
 50
73.4732711285800235
 51
86.4163593153831329
  0
ARC
  5
208DE
  8
0
 10
55.7397426105017786
 20
71.5241322047673265
 30
0.0
 40
1.549835192542782
 50
70.3180996915883725
 51
74.4639791982785511
  0
ARC
  5
208DF
  8
0
 10
55.7570504911267903
 20
74.9800586618973028
 30
0.0
 40
2.1219471162447601
 50
279.1294917307703827
 51
287.3447518026388252
  0
ARC
  5
208E0
  8
0
 10
58.3922250451370317
 20
60.5119334513095808
 30
0.0
 40
12.5847385101585605
 50
100.5236463072097024
 51
101.9354376997326028
  0
ARC
  5
208E1
  8
0
 10
56.0408356280051976
 20
73.4547600312987186
 30
0.0
 40
0.7970187442219248
 50
278.224936397201418
 51
294.7547840004014006
  0
ARC
  5
208E2
  8
0
 10
56.3273005443255315
 20
72.833506030968536
 30
0.0
 40
0.1128998355454619
 50
294.7547840004014006
 51
351.3439465479953014
  0
ARC
  5
208E3
  8
0
 10
56.3657717742451396
 20
72.8276493008444277
 30
0.0
 40
0.0739853547025346
 50
351.3439465479953014
 51
22.8910605297085112
  0
ARC
  5
208E4
  8
0
 10
56.0989000432531384
 20
74.6393538659392846
 30
0.0
 40
2.0777781958334072
 50
255.9740028079937986
 51
257.8822810920602251
  0
LINE
  5
208E5
  8
0
 10
55.6573691547485723
 20
72.6090305651871262
 30
0.0
 11
55.6627309005148234
 21
72.6090305651871262
 31
0.0
  0
ARC
  5
208E6
  8
0
 10
55.7075599089660116
 20
73.4091646286335902
 30
0.0
 40
0.4566834857857979
 50
226.9965899064252994
 51
264.3666543709151142
  0
ARC
  5
208E7
  8
0
 10
55.4953950032766699
 20
73.1485575736609519
 30
0.0
 40
0.1234760364081266
 50
132.6633570769629955
 51
216.4568369044968961
  0
ARC
  5
208E8
  8
0
 10
55.7962007003458922
 20
72.8059251135997556
 30
0.0
 40
0.5793875122045631
 50
104.7951771107895951
 51
131.5753490997495021
  0
ARC
  5
208E9
  8
0
 10
56.4191869543911082
 20
70.8516356765124442
 30
0.0
 40
2.6299992521967712
 50
94.5306394314722382
 51
107.045654342918894
  0
ARC
  5
208EA
  8
0
 10
55.736837090765107
 20
73.4446809328739079
 30
0.0
 40
0.3698332252059427
 50
233.8318186055373076
 51
257.5623012819856967
  0
ARC
  5
208EB
  8
0
 10
56.2160359061101431
 20
71.7196156474306008
 30
0.0
 40
1.5878791563766099
 50
98.0581422058715759
 51
116.0553441304548983
  0
ARC
  5
208EC
  8
0
 10
56.5089557706967511
 20
70.5056894826987559
 30
0.0
 40
2.8334167102510071
 50
92.8983873048198632
 51
100.4826488749391018
  0
ARC
  5
208ED
  8
0
 10
55.1380812287838182
 20
79.6243645677524938
 30
0.0
 40
6.5345069995046252
 50
273.9611896377259086
 51
274.6051832756078852
  0
ARC
  5
208EE
  8
0
 10
55.4424903987852602
 20
73.087521962298041
 30
0.0
 40
0.0708635493554858
 50
157.9413001462339992
 51
220.9438664662750114
  0
ARC
  5
208EF
  8
0
 10
55.5004331774168733
 20
73.1669832901804114
 30
0.0
 40
0.1681552806330365
 50
228.4787780340066945
 51
272.1871824905283006
  0
ARC
  5
208F0
  8
0
 10
56.0587177008345705
 20
73.6691375707052885
 30
0.0
 40
0.5404600373352273
 50
280.2465319703634918
 51
307.4740368645464059
  0
ARC
  5
208F1
  8
0
 10
56.0342779424732598
 20
73.6885075799034723
 30
0.0
 40
0.438181476768931
 50
285.972763503961005
 51
305.1843020514297109
  0
ARC
  5
208F2
  8
0
 10
56.2969674503177515
 20
73.3497106487441926
 30
0.0
 40
0.1420992526140337
 50
309.594595806852908
 51
13.1108566211250395
  0
ARC
  5
208F3
  8
0
 10
56.3072500573296892
 20
72.5506640239198646
 30
0.0
 40
0.9277137058109866
 50
86.0249003519005981
 51
95.9279700659090366
  0
ARC
  5
208F4
  8
0
 10
56.3662788076850489
 20
73.4030575110422774
 30
0.0
 40
0.0732790827505386
 50
4.0307593864303186
 51
85.8656512957652893
  0
ARC
  5
208F5
  8
0
 10
56.3693434918898078
 20
73.4054726133706765
 30
0.0
 40
0.07008655662936
 50
267.0074441857711918
 51
2.237111448032866
  0
ARC
  5
208F6
  8
0
 10
55.7791358440105967
 20
73.931902247190294
 30
0.0
 40
0.5279645427211892
 50
226.7646533427679003
 51
257.2628482736341198
  0
ARC
  5
208F7
  8
0
 10
55.5359862415576799
 20
73.6611819239524692
 30
0.0
 40
0.1643851237373706
 50
150.3616804973011938
 51
223.8716039601403054
  0
ARC
  5
208F8
  8
0
 10
55.7726756746039527
 20
73.4845269193065178
 30
0.0
 40
0.4589204737423184
 50
109.5459913624899002
 51
145.8006484177504092
  0
ARC
  5
208F9
  8
0
 10
56.1828813744219886
 20
72.5218932686226054
 30
0.0
 40
1.5047037443328091
 50
93.7659325677905429
 51
112.0029468776400989
  0
ARC
  5
208FA
  8
0
 10
56.163261517684937
 20
72.7234630028245306
 30
0.0
 40
1.153202066925374
 50
77.551623422907042
 51
105.5210479617053068
  0
ARC
  5
208FB
  8
0
 10
56.0328453644308766
 20
72.9467045555821016
 30
0.0
 40
0.9056058304575609
 50
101.3465818057153029
 51
121.3637023225895035
  0
ARC
  5
208FC
  8
0
 10
55.6081450150033092
 20
73.6291918275588841
 30
0.0
 40
0.102070640104982
 50
117.189236166600395
 51
162.5611930115748862
  0
ARC
  5
208FD
  8
0
 10
55.5854586076690467
 20
73.6802144486632642
 30
0.0
 40
0.0774373279555206
 50
195.2998076190135066
 51
229.6339698054472933
  0
ARC
  5
208FE
  8
0
 10
55.7613576146930114
 20
73.8834425139234554
 30
0.0
 40
0.3462138559884557
 50
229.2372766628066074
 51
253.4487885201531014
  0
ARC
  5
208FF
  8
0
 10
55.9568035493634497
 20
72.938662812290957
 30
0.0
 40
0.6794032873414759
 50
52.2796001993510302
 51
73.0515782495398582
  0
ARC
  5
20900
  8
0
 10
56.055523217473862
 20
74.0397273264031242
 30
0.0
 40
0.4548321198220306
 50
282.614859380999917
 51
319.0292600198940818
  0
ARC
  5
20901
  8
0
 10
56.0179209168087411
 20
74.0869401203967612
 30
0.0
 40
0.3813925124845215
 50
291.0413796473229127
 51
311.0906584404872888
  0
ARC
  5
20902
  8
0
 10
56.1821928203389191
 20
74.329832188439255
 30
0.0
 40
0.537328112018008
 50
267.0838858041456092
 51
292.1496971140995811
  0
ARC
  5
20903
  8
0
 10
56.3517508186143985
 20
73.9132980209638646
 30
0.0
 40
0.0876052779817464
 50
292.1496971140995811
 51
1.7714133374694629
  0
ARC
  5
20904
  8
0
 10
56.3284758420986904
 20
73.8972508273202919
 30
0.0
 40
0.1124140024572296
 50
9.6041932267507164
 51
81.7201366168790031
  0
ARC
  5
20905
  8
0
 10
56.1999307229447069
 20
73.4379071734012001
 30
0.0
 40
0.5886561929593166
 50
75.7666674100733815
 51
90.561823000914984
  0
ARC
  5
20906
  8
0
 10
56.1848003411893515
 20
72.4463049561127264
 30
0.0
 40
1.580257820810218
 50
89.6606915308069148
 51
93.655352894752653
  0
ARC
  5
20907
  8
0
 10
56.2547682988602986
 20
73.8566756582501114
 30
0.0
 40
0.1845265211254045
 50
321.3811733153182217
 51
10.4452523676982398
  0
ARC
  5
20908
  8
0
 10
55.4422737822816032
 20
73.6033683035206536
 30
0.0
 40
0.0706943441664412
 50
161.1599783478552013
 51
262.4053583026304182
  0
ARC
  5
20909
  8
0
 10
55.5546253287687009
 20
72.327533204118339
 30
0.0
 40
1.363043293757277
 50
85.4509843940084437
 51
91.1875568968125663
  0
LINE
  5
2090A
  8
0
 10
55.6295997532266497
 20
73.5632802113014748
 30
0.0
 11
55.6627309005148234
 21
73.563376102676429
 31
0.0
  0
ARC
  5
2090B
  8
0
 10
55.7400990209508933
 20
74.273356566662855
 30
0.0
 40
0.4068870250263314
 50
213.9547247624761042
 51
246.5298224507336045
  0
ARC
  5
2090C
  8
0
 10
55.5649843243860175
 20
74.1554414369476831
 30
0.0
 40
0.195772992407107
 50
156.2310484339363938
 51
213.9547247624761042
  0
ARC
  5
2090D
  8
0
 10
55.7840341462547684
 20
74.0476954325282719
 30
0.0
 40
0.4397906557018954
 50
114.2649990716548984
 51
154.8865833132086038
  0
ARC
  5
2090E
  8
0
 10
56.0963898940553918
 20
73.451577400682865
 30
0.0
 40
1.1123208846062631
 50
90.8251306000975234
 51
116.314577217495895
  0
ARC
  5
2090F
  8
0
 10
56.1023310525113885
 20
73.8125607725049662
 30
0.0
 40
0.7515430550055479
 50
76.1497400213622342
 51
91.6743693786916367
  0
ARC
  5
20910
  8
0
 10
55.7531930819676376
 20
74.2630193078602758
 30
0.0
 40
0.2736882701962612
 50
212.6128075493425058
 51
250.6990530716323917
  0
ARC
  5
20911
  8
0
 10
55.6081638514793184
 20
74.1576208304448841
 30
0.0
 40
0.0953130656654896
 50
131.7678698226307858
 51
206.2181084465024981
  0
ARC
  5
20912
  8
0
 10
55.9116723503042721
 20
73.8465451678893459
 30
0.0
 40
0.5298466303804757
 50
107.850514466089507
 51
133.8401913909762868
  0
ARC
  5
20913
  8
0
 10
56.1064808324360698
 20
73.3541959687035501
 30
0.0
 40
1.058771949557713
 50
85.2300634092491833
 51
109.718268987032701
  0
ARC
  5
20914
  8
0
 10
56.1325142321050379
 20
74.6940388933591208
 30
0.0
 40
0.4701380694181666
 50
272.7239275771256075
 51
302.7892582312882155
  0
ARC
  5
20915
  8
0
 10
56.3255929661528327
 20
74.3944539722298828
 30
0.0
 40
0.1137246866531542
 50
302.7516011843333104
 51
32.4585397839976224
  0
ARC
  5
20916
  8
0
 10
56.2415046465628379
 20
74.321621441930418
 30
0.0
 40
0.2243598992275286
 50
36.6313026218512832
 51
79.5393763937249645
  0
ARC
  5
20917
  8
0
 10
56.1003589376078722
 20
74.7797146133716666
 30
0.0
 40
0.4299938302089448
 50
277.2813207751585196
 51
294.8437068591439925
  0
ARC
  5
20918
  8
0
 10
56.1769735898597702
 20
74.13364846691303
 30
0.0
 40
0.276210605576764
 50
38.2128136058330128
 51
86.3571867685096777
  0
ARC
  5
20919
  8
0
 10
55.4634819122886427
 20
74.1025867819021187
 30
0.0
 40
0.0918123604385547
 50
170.5921402925181951
 51
242.1614482156898021
  0
ARC
  5
2091A
  8
0
 10
55.7086239925353794
 20
74.7056661572632237
 30
0.0
 40
0.6179145238780182
 50
252.4353300055190061
 51
265.7406666374752717
  0
ARC
  5
2091B
  8
0
 10
55.6684597328220079
 20
73.3478074173896601
 30
0.0
 40
0.889730827303407
 50
90.3689207687971816
 51
97.9834088948821602
  0
ARC
  5
2091C
  8
0
 10
56.0048269076043894
 20
74.5089935591090295
 30
0.0
 40
0.4955714758849559
 50
287.6223295338573962
 51
321.1660022444065135
  0
ARC
  5
2091D
  8
0
 10
55.9733849409685718
 20
74.5408747458003518
 30
0.0
 40
0.4068049623206208
 50
296.4931478210082787
 51
311.7504156623132872
  0
ARC
  5
2091E
  8
0
 10
56.0201358871492019
 20
73.6650590645217989
 30
0.0
 40
0.4914465007045889
 50
42.1038596603038684
 51
59.6728904536139098
  0
ARC
  5
2091F
  8
0
 10
56.197596133918168
 20
74.3434731364754526
 30
0.0
 40
0.2417528014268675
 50
323.0755759547506045
 51
7.2163300736975007
  0
LINE
  5
20920
  8
0
 10
55.6627309005148234
 20
74.2896429052125882
 30
0.0
 11
55.6378963495773533
 21
74.3001795505715847
 31
0.0
  0
ARC
  5
20921
  8
0
 10
56.0334553875947279
 20
74.2461912000663773
 30
0.0
 40
0.4340136283901414
 50
33.148707159198942
 51
46.790950578341679
  0
ARC
  5
20922
  8
0
 10
56.0706611390074769
 20
74.8337537752842223
 30
0.0
 40
0.3756815442960653
 50
307.9948681548806917
 51
341.2500470755301194
  0
ARC
  5
20923
  8
0
 10
56.1023533916783919
 20
75.0493447367033042
 30
0.0
 40
0.4259184191588174
 50
277.0809331989040061
 51
313.7240059701690029
  0
ARC
  5
20924
  8
0
 10
55.6790076384625792
 20
74.6354014607027949
 30
0.0
 40
0.307786199268551
 50
182.9632816752761926
 51
234.6663324719307866
  0
ARC
  5
20925
  8
0
 10
55.7389821954171225
 20
74.6048709520364071
 30
0.0
 40
0.3676399871840685
 50
124.464160425873402
 51
177.7210326059652914
  0
ARC
  5
20926
  8
0
 10
55.7468466223316028
 20
74.6703798672642733
 30
0.0
 40
0.2442376433905321
 50
200.4893607108984952
 51
239.9785793929110014
  0
ARC
  5
20927
  8
0
 10
55.6690259920545287
 20
74.6265336099627064
 30
0.0
 40
0.1566046075399257
 50
136.849328471245002
 51
195.4219259272003058
  0
ARC
  5
20928
  8
0
 10
55.8883739479540509
 20
74.4413662946703738
 30
0.0
 40
0.4435223198762566
 50
114.6687466512636036
 51
138.777892009036691
  0
ARC
  5
20929
  8
0
 10
56.053242947366563
 20
74.107246303026983
 30
0.0
 40
0.816026685978943
 50
85.095288128819945
 51
115.396893713949197
  0
ARC
  5
2092A
  8
0
 10
55.4984127270705869
 20
74.5757530110401063
 30
0.0
 40
0.1267261361661591
 50
170.1226361384246104
 51
226.4329698143835117
  0
ARC
  5
2092B
  8
0
 10
55.6520174540263781
 20
74.4619826332466204
 30
0.0
 40
0.1916127025664651
 50
86.7948077873714254
 51
135.4926438259348913
  0
ARC
  5
2092C
  8
0
 10
55.7214753861424725
 20
74.9012257367027559
 30
0.0
 40
0.3923731899437593
 50
240.7009165585787969
 51
261.3895399881402
  0
ARC
  5
2092D
  8
0
 10
55.9023914325065618
 20
75.0106163720833052
 30
0.0
 40
0.4846886666918269
 50
301.3914121719076888
 51
309.7226819806463141
  0
ARC
  5
2092E
  8
0
 10
56.1143559003877002
 20
75.005062724905244
 30
0.0
 40
0.2484663188171846
 50
279.3812977924794723
 51
315.3808442819304787
  0
ARC
  5
2092F
  8
0
 10
56.2710291917544509
 20
74.8504585213663205
 30
0.0
 40
0.0283550288304976
 50
315.3808442819328093
 51
357.8066981780798983
  0
ARC
  5
20930
  8
0
 10
56.2681049517697218
 20
74.8400020468362186
 30
0.0
 40
0.0326330326059054
 50
16.6887348030142384
 51
50.0491941295179004
  0
ARC
  5
20931
  8
0
 10
56.1530107661511622
 20
74.6912273545302412
 30
0.0
 40
0.2207093341045713
 50
51.9450991590446165
 51
77.9604765520921603
  0
ARC
  5
20932
  8
0
 10
56.0744408668268335
 20
74.4150194229978581
 30
0.0
 40
0.5075947248416776
 50
75.7895060091163515
 51
84.5090000193813182
  0
ARC
  5
20933
  8
0
 10
55.8852214014786881
 20
75.4444868232209558
 30
0.0
 40
0.6529220886793774
 50
294.391373829741724
 51
302.6890983588422728
  0
ARC
  5
20934
  8
0
 10
55.9179278339525325
 20
75.2653843838725862
 30
0.0
 40
0.6340648470179558
 50
235.7868166793259093
 51
246.266839626004213
  0
LINE
  5
20935
  8
0
 10
55.6627309005148234
 20
74.8155142439930216
 30
0.0
 11
55.6567244472428087
 21
74.8195865440604138
 31
0.0
  0
ARC
  5
20936
  8
0
 10
56.2740846563162691
 20
74.8525399697639813
 30
0.0
 40
0.1654240805525357
 50
317.8569306339379068
 51
358.6660125513575963
  0
ARC
  5
20937
  8
0
 10
56.2920406138018521
 20
74.8521218351097986
 30
0.0
 40
0.1474632552426231
 50
358.6660125513575963
 51
43.5156999302849101
  0
ARC
  5
20938
  8
0
 10
56.1306567440816906
 20
74.686436685710305
 30
0.0
 40
0.3786872965711614
 50
44.8822452774691385
 51
83.4316453606944748
  0
ARC
  5
20939
  8
0
 10
56.0426280838882107
 20
74.1730338189992864
 30
0.0
 40
0.8992485549871091
 50
81.6012126887811178
 51
110.9890077566386992
  0
ARC
  5
2093A
  8
0
 10
55.9757588432918425
 20
74.3260756236801257
 30
0.0
 40
0.7324489683484411
 50
110.3933496871104012
 51
127.394964572624005
  0
ARC
  5
2093B
  8
0
 10
56.1467876174283091
 20
74.7993458634700943
 30
0.0
 40
0.292647482720132
 50
342.8384335313392057
 51
5.8989224707291452
  0
ARC
  5
2093C
  8
0
 10
55.715673515103461
 20
75.0625174248195179
 30
0.0
 40
0.3440758972293072
 50
181.9276576274114916
 51
220.7017358634562925
  0
ARC
  5
2093D
  8
0
 10
55.7310116814483507
 20
75.0630336564572502
 30
0.0
 40
0.3594227484349324
 50
139.2681349155768089
 51
181.9276576274110937
  0
ARC
  5
2093E
  8
0
 10
55.7261953116444602
 20
75.0617155526823723
 30
0.0
 40
0.2140383117615921
 50
166.7211388561526917
 51
218.5641941960076053
  0
ARC
  5
2093F
  8
0
 10
55.8420077980238005
 20
75.0021208735600737
 30
0.0
 40
0.3418877561590984
 50
118.0240322516695954
 51
161.4514473730106943
  0
ARC
  5
20940
  8
0
 10
56.0173159338167324
 20
74.7275182585922551
 30
0.0
 40
0.6671569625093966
 50
86.0475084064879638
 51
120.2345915728926968
  0
ARC
  5
20941
  8
0
 10
56.0645590477199107
 20
75.0797715988325507
 30
0.0
 40
0.3133193406664767
 50
44.4199102892851485
 51
90.2297652039503504
  0
ARC
  5
20942
  8
0
 10
56.0961378295209414
 20
75.3524603816164245
 30
0.0
 40
0.2298217951653995
 50
284.8031078917397849
 51
328.4919192626643962
  0
ARC
  5
20943
  8
0
 10
56.2465013061839088
 20
75.2602883519060981
 30
0.0
 40
0.0534561007259825
 50
328.4919192626653057
 51
4.7979562228412016
  0
ARC
  5
20944
  8
0
 10
56.2232939757937729
 20
75.2583404115800079
 30
0.0
 40
0.0767450392022374
 50
4.7979562228416084
 51
32.0513793796199735
  0
ARC
  5
20945
  8
0
 10
55.8945662128988587
 20
75.697530302786177
 30
0.0
 40
0.5843377493277297
 50
296.4518508226527729
 51
313.6908059762723724
  0
ARC
  5
20946
  8
0
 10
55.99419379303162
 20
75.8343291365610526
 30
0.0
 40
0.5434236498874832
 50
287.1965061161245103
 51
295.8352977791918761
  0
ARC
  5
20947
  8
0
 10
55.7388861992865188
 20
74.3497914420473762
 30
0.0
 40
0.9223422222300944
 50
59.9282763929268327
 51
63.1925326826723506
  0
ARC
  5
20948
  8
0
 10
55.9199634011033808
 20
75.5863519700611306
 30
0.0
 40
0.6008984304206466
 50
229.0336077798590964
 51
244.6542368039000905
  0
ARC
  5
20949
  8
0
 10
55.6282605268276882
 20
74.9907032690769171
 30
0.0
 40
0.122922190974137
 50
118.7383340109057031
 51
158.6499170065904991
  0
ARC
  5
2094A
  8
0
 10
55.8878461435256213
 20
75.5272910809244138
 30
0.0
 40
0.3989911804938604
 50
224.5813285299697952
 51
235.6524751042979915
  0
LINE
  5
2094B
  8
0
 10
55.6326222240862975
 20
75.2723891092785351
 30
0.0
 11
55.6579265219148169
 21
75.262049753649066
 31
0.0
  0
ARC
  5
2094C
  8
0
 10
55.6745407915318324
 20
75.1162218383754805
 30
0.0
 40
0.2012304863371774
 50
224.0687424054135874
 51
240.9376280228310065
  0
ARC
  5
2094D
  8
0
 10
56.0577371965156672
 20
75.2257359951215108
 30
0.0
 40
0.3822172430686725
 50
321.7807733900062885
 51
3.9692231414877561
  0
ARC
  5
2094E
  8
0
 10
56.1762155218701267
 20
75.2846782105120695
 30
0.0
 40
0.2648220855158176
 50
291.1959926164029184
 51
353.0573512341945843
  0
ARC
  5
2094F
  8
0
 10
56.2310647269775572
 20
75.262825988811187
 30
0.0
 40
0.2082789832521325
 50
357.2044141732924913
 51
34.7269805143075132
  0
ARC
  5
20950
  8
0
 10
56.0979019596705726
 20
75.1492558452251984
 30
0.0
 40
0.382818755320202
 50
37.344416495612812
 51
79.5022994887336978
  0
ARC
  5
20951
  8
0
 10
56.0085853766862769
 20
74.7790778407424028
 30
0.0
 40
0.763345945945924
 50
77.9726725309433704
 51
122.8475886058938045
  0
ARC
  5
20952
  8
0
 10
55.9032907510489565
 20
74.9421654739238932
 30
0.0
 40
0.569220897884501
 50
122.8475886058938045
 51
141.3647800853374008
  0
ARC
  5
20953
  8
0
 10
55.5476411091697102
 20
75.0159988378714218
 30
0.0
 40
0.1760373072993229
 50
173.6868596125405872
 51
217.2618886431262126
  0
ARC
  5
20954
  8
0
 10
55.7708358400811903
 20
75.4546547856544549
 30
0.0
 40
0.3991722629611834
 50
171.5395295887120994
 51
210.2812110008910054
  0
ARC
  5
20955
  8
0
 10
55.8269566528535393
 20
75.4463070536794191
 30
0.0
 40
0.455910523908776
 50
125.9070246495250984
 51
171.5395295887120994
  0
ARC
  5
20956
  8
0
 10
55.9898135512429889
 20
75.2677287920528215
 30
0.0
 40
0.6965948554761439
 50
85.6687666385408164
 51
128.1430216600141136
  0
ARC
  5
20957
  8
0
 10
55.7800260928660308
 20
75.4556453748603957
 30
0.0
 40
0.2684280832000255
 50
142.6286299155680126
 51
198.9430208635195072
  0
ARC
  5
20958
  8
0
 10
55.9630744570260603
 20
75.3158392110807
 30
0.0
 40
0.498759294833315
 50
97.2061749095551733
 51
142.6286299155680126
  0
ARC
  5
20959
  8
0
 10
55.982709043447457
 20
75.1605500500045594
 30
0.0
 40
0.655284821606654
 50
76.9295189329452427
 51
97.2061749095551733
  0
ARC
  5
2095A
  8
0
 10
56.0755983453084923
 20
75.5606517059878655
 30
0.0
 40
0.2445418879841551
 50
28.3539038047100789
 51
76.9295189329452427
  0
ARC
  5
2095B
  8
0
 10
56.1264026043388782
 20
75.6316715118284435
 30
0.0
 40
0.1704786540647688
 50
311.8447265547188749
 51
15.3461426770938996
  0
ARC
  5
2095C
  8
0
 10
55.8972459041150884
 20
75.9853096910487409
 30
0.0
 40
0.5662473808995764
 50
303.7791505016152769
 51
313.5017596383900127
  0
ARC
  5
2095D
  8
0
 10
55.9827158926500417
 20
76.0659401210911881
 30
0.0
 40
0.5052916804638991
 50
289.918094356710526
 51
307.9029735891817836
  0
ARC
  5
2095E
  8
0
 10
56.1541142554271673
 20
75.6376796258130071
 30
0.0
 40
0.2854213317721243
 50
314.431677708339123
 51
357.6196985419044267
  0
ARC
  5
2095F
  8
0
 10
56.1604729977868971
 20
75.6294101191384556
 30
0.0
 40
0.2788393612177435
 50
359.2634066182048969
 51
44.1577619932010634
  0
ARC
  5
20960
  8
0
 10
56.0174284748642108
 20
75.4708337786920396
 30
0.0
 40
0.4921355409707954
 50
45.8014700695002333
 51
87.0889323136117639
  0
ARC
  5
20961
  8
0
 10
55.6347603126721708
 20
75.4113858449673131
 30
0.0
 40
0.1232296986365709
 50
157.4309818027558947
 51
171.537418010710013
  0
ARC
  5
20962
  8
0
 10
55.8870096477386085
 20
75.8361661798415838
 30
0.0
 40
0.5258153231778238
 50
224.4841616997013887
 51
234.1450154155278938
  0
ARC
  5
20963
  8
0
 10
55.9182082835841427
 20
76.1161210255402665
 30
0.0
 40
0.5528426603586678
 50
235.3101674472401044
 51
242.4762728931634115
  0
ARC
  5
20964
  8
0
 10
55.9026249090618208
 20
75.843351914541671
 30
0.0
 40
0.4043156236102748
 50
213.7937723112015078
 51
233.6060771559290004
  0
ARC
  5
20965
  8
0
 10
56.0016851846186015
 20
76.0257483181124769
 30
0.0
 40
0.3240154483654728
 50
298.2116285233561257
 51
308.0115210646023911
  0
ARC
  5
20966
  8
0
 10
55.6013835340864304
 20
75.4133831754883914
 30
0.0
 40
0.2298253076579368
 50
175.3655068374955874
 51
212.0112514072789907
  0
ARC
  5
20967
  8
0
 10
56.0104656592945318
 20
75.5975538260990731
 30
0.0
 40
0.4294922771590255
 50
332.1070926772301277
 51
3.4517274724145892
  0
LINE
  5
20968
  8
0
 10
56.4020686949078893
 20
75.3817054023337789
 30
0.0
 11
56.3923322655230592
 21
75.4009793842538727
 31
0.0
  0
ARC
  5
20969
  8
0
 10
55.8500969612927776
 20
75.7948838109956569
 30
0.0
 40
0.3382742207780024
 50
138.2265312642012134
 51
183.1562366093124865
  0
ARC
  5
2096A
  8
0
 10
55.9681338180891998
 20
75.6894449925113975
 30
0.0
 40
0.4965462777107815
 50
86.3042367895915845
 51
138.2265312642012134
  0
ARC
  5
2096B
  8
0
 10
55.9722520880879699
 20
75.7532023643832559
 30
0.0
 40
0.4326560388961649
 50
58.7921029896134613
 51
86.3042367895915845
  0
ARC
  5
2096C
  8
0
 10
56.0862086330929372
 20
75.941308469086465
 30
0.0
 40
0.2127242295186002
 50
358.8192047301541265
 51
58.7921029896134613
  0
ARC
  5
2096D
  8
0
 10
56.1578222248476777
 20
75.9398323924056342
 30
0.0
 40
0.1410954271665883
 50
336.1074952618645852
 51
358.8192047301536718
  0
ARC
  5
2096E
  8
0
 10
55.9854846072790622
 20
76.2446274471947874
 30
0.0
 40
0.3235807330625126
 50
301.5626977381368761
 51
326.990471688811283
  0
ARC
  5
2096F
  8
0
 10
55.8976768831015605
 20
76.0993424901879791
 30
0.0
 40
0.3887742295628138
 50
204.7125258350380932
 51
220.5534022818675055
  0
ARC
  5
20970
  8
0
 10
55.9083222088138072
 20
76.3118785724286255
 30
0.0
 40
0.5313436154093063
 50
228.4233161729943049
 51
237.9017154202107918
  0
ARC
  5
20971
  8
0
 10
55.9221289211357373
 20
76.327358611676317
 30
0.0
 40
0.413327919336182
 50
223.2096569174032936
 51
231.1278958404926129
  0
ARC
  5
20972
  8
0
 10
55.8309633827637413
 20
75.7987663347014831
 30
0.0
 40
0.4593218403884857
 50
153.5152776047430905
 51
202.5112024122541925
  0
ARC
  5
20973
  8
0
 10
55.9283683737873503
 20
75.7502344221796449
 30
0.0
 40
0.5681477509490572
 50
113.8605342152201985
 51
153.5152776047430905
  0
ARC
  5
20974
  8
0
 10
55.9642361806095607
 20
75.7172275334372955
 30
0.0
 40
0.6131511700302427
 50
66.5878910396033064
 51
115.6783974309864931
  0
ARC
  5
20975
  8
0
 10
56.0251139898603867
 20
75.8810746369760523
 30
0.0
 40
0.4387014536315385
 50
41.3379755709521817
 51
65.3813516510241612
  0
ARC
  5
20976
  8
0
 10
56.1050601506952802
 20
75.9486222618073157
 30
0.0
 40
0.3340671105331194
 50
350.8459385415154088
 51
41.6960642624522322
  0
ARC
  5
20977
  8
0
 10
56.1963386944016392
 20
75.9195854540293453
 30
0.0
 40
0.2397492878074521
 50
325.2323961465446018
 51
354.2284298373617162
  0
ARC
  5
20978
  8
0
 10
55.9706013705885681
 20
75.9172521398900102
 30
0.0
 40
0.4688534671835387
 50
339.5953546173399218
 51
2.5962571719713652
  0
ARC
  5
20979
  8
0
 10
55.6628708620116797
 20
75.7632217487964539
 30
0.0
 40
0.2913449177281974
 50
176.6674253868787901
 51
207.2121542228335898
  0
ARC
  5
2097A
  8
0
 10
55.8708145143513235
 20
76.0877957544377637
 30
0.0
 40
0.499286372707415
 50
155.6793133672516092
 51
197.2163939721071984
  0
ARC
  5
2097B
  8
0
 10
55.9369162674050031
 20
76.0579209322779235
 30
0.0
 40
0.5718256500394255
 50
109.8102334750219029
 51
155.6793133672516092
  0
ARC
  5
2097C
  8
0
 10
55.9384977540846577
 20
76.0562185120613918
 30
0.0
 40
0.4323001127675369
 50
101.0185179830433952
 51
168.9348198164040866
  0
ARC
  5
2097D
  8
0
 10
55.9488465685099072
 20
76.063959013892358
 30
0.0
 40
0.570342560552329
 50
59.152032391801967
 51
111.1434999459350053
  0
ARC
  5
2097E
  8
0
 10
56.0325066867889703
 20
76.2040334072181196
 30
0.0
 40
0.4071866502822802
 50
3.3946634127027968
 51
59.152032391801967
  0
ARC
  5
2097F
  8
0
 10
56.0739630864171801
 20
76.2064924962830332
 30
0.0
 40
0.3656573812162025
 50
338.7421462979605735
 51
3.3946634127027968
  0
ARC
  5
20980
  8
0
 10
55.9182079159392273
 20
76.1850168510836738
 30
0.0
 40
0.5213003745338095
 50
345.3087095058504019
 51
1.0386223060119759
  0
ARC
  5
20981
  8
0
 10
55.9519137194564422
 20
76.0701719105657617
 30
0.0
 40
0.421465676523912
 50
57.4581970377640303
 51
103.1717690981876956
  0
ARC
  5
20982
  8
0
 10
56.0375546615186622
 20
76.2044516794167635
 30
0.0
 40
0.2622004096999686
 50
4.2191537078029517
 51
57.4503676978292432
  0
ARC
  5
20983
  8
0
 10
55.7658664986928088
 20
76.0635658218181163
 30
0.0
 40
0.3945345821748469
 50
177.8306416882136034
 51
198.8874252811610859
  0
ARC
  5
20984
  8
0
 10
55.9235220888414233
 20
76.3242763177476604
 30
0.0
 40
0.4132650250274733
 50
197.8106637318875869
 51
202.4577140965099886
  0
ARC
  5
20985
  8
0
 10
55.9173189367528707
 20
76.5994581920703297
 30
0.0
 40
0.3796454824402617
 50
308.7323786671872767
 51
325.2792137278506743
  0
ARC
  5
20986
  8
0
 10
55.6930640474074465
 20
75.5776681475684029
 30
0.0
 40
0.92128857378738
 50
56.5779719166734409
 51
59.9174860996307217
  0
ARC
  5
20987
  8
0
 10
55.9472292111791631
 20
76.4271354695827227
 30
0.0
 40
0.3562067226072734
 50
330.7174625134554731
 51
339.4777122689670819
  0
ARC
  5
20988
  8
0
 10
55.8787107132932874
 20
76.5816016467009604
 30
0.0
 40
0.3541932454854257
 50
222.1150968997436905
 51
232.4264322507104907
  0
ARC
  5
20989
  8
0
 10
55.9464190098865615
 20
76.4996221447830322
 30
0.0
 40
0.4399855669858409
 50
210.3855212113994924
 51
219.6140102828846068
  0
ARC
  5
2098A
  8
0
 10
55.9551875062754291
 20
76.3123875861897432
 30
0.0
 40
0.5835951685906251
 50
172.9560005473676938
 51
191.5221727641053917
  0
ARC
  5
2098B
  8
0
 10
55.9139092491927414
 20
76.3174880988286759
 30
0.0
 40
0.5420029849864334
 50
123.6213451374641039
 51
172.9560005473676938
  0
ARC
  5
2098C
  8
0
 10
55.9499395314283632
 20
76.2633019706761104
 30
0.0
 40
0.6070746202981735
 50
87.7605141296384232
 51
123.6213451374641039
  0
ARC
  5
2098D
  8
0
 10
55.9542702259660487
 20
76.3740435250553134
 30
0.0
 40
0.4962484195083839
 50
39.2242194134992204
 51
87.7605141296379969
  0
ARC
  5
2098E
  8
0
 10
55.9923556471403501
 20
76.4051320535052838
 30
0.0
 40
0.4470854669199813
 50
359.8315162836220793
 51
39.224219413498588
  0
ARC
  5
2098F
  8
0
 10
55.6700935399355075
 20
76.4060796987669875
 30
0.0
 40
0.7693489674465664
 50
351.2975300347818006
 51
359.8315162836220793
  0
ARC
  5
20990
  8
0
 10
55.9405310955336432
 20
76.2942398873787226
 30
0.0
 40
0.4350046524501965
 50
90.4823778849843166
 51
155.652956458769296
  0
ARC
  5
20991
  8
0
 10
55.9498761352622509
 20
76.3665248545649007
 30
0.0
 40
0.3629374288367453
 50
27.3207278039164798
 51
92.0538667424492729
  0
ARC
  5
20992
  8
0
 10
55.9326428092808214
 20
76.2550620012292626
 30
0.0
 40
0.4586664126216923
 50
53.2340555879642281
 51
61.241601164639313
  0
ARC
  5
20993
  8
0
 10
55.9087938926145114
 20
76.6296529105490265
 30
0.0
 40
0.2460629921003061
 50
0.000000000007328
 51
8.9843262819649521
  0
ARC
  5
20994
  8
0
 10
55.9527808586923001
 20
76.4750323206157105
 30
0.0
 40
0.5812698509095358
 50
158.2535639576854862
 51
188.0650837404697882
  0
ARC
  5
20995
  8
0
 10
55.9227065491970734
 20
76.4870285850671792
 30
0.0
 40
0.5488912398768783
 50
89.4472836431810947
 51
158.2535639576854862
  0
ARC
  5
20996
  8
0
 10
55.9229155490778069
 20
76.5086932951481202
 30
0.0
 40
0.527225521706428
 50
28.1162091004045287
 51
89.4472836431806826
  0
ARC
  5
20997
  8
0
 10
55.9526683773900331
 20
76.5391101137099241
 30
0.0
 40
0.4868179105747487
 50
351.9018379926661169
 51
26.6088304854388191
  0
ARC
  5
20998
  8
0
 10
55.9244262792532183
 20
76.4888692356128388
 30
0.0
 40
0.4062840498299333
 50
58.6953995701175231
 51
130.9941739805271084
  0
ARC
  5
20999
  8
0
 10
55.9087938926148169
 20
76.6296529105490691
 30
0.0
 40
0.2460629920999989
 50
77.9456368679622926
 51
114.8706720854411003
  0
ARC
  5
2099A
  8
0
 10
55.6772318333258625
 20
76.5588284864336543
 30
0.0
 40
0.3052234129541093
 50
180.1726514497337917
 51
186.1463362408887008
  0
ARC
  5
2099B
  8
0
 10
55.9183228968896628
 20
76.5804336835976471
 30
0.0
 40
0.5467772543901859
 50
160.6410446732917023
 51
182.3610146680038042
  0
ARC
  5
2099C
  8
0
 10
55.9160032085410776
 20
76.5830990011000949
 30
0.0
 40
0.5437080090813627
 50
94.4131023539917038
 51
160.8250040639871088
  0
ARC
  5
2099D
  8
0
 10
55.9129784253389985
 20
76.5934570272107038
 30
0.0
 40
0.5331525614931745
 50
54.2950255795247898
 51
94.1746565179719965
  0
ARC
  5
2099E
  8
0
 10
55.9171933959515286
 20
76.603670084997006
 30
0.0
 40
0.522405480810722
 50
356.2982486808865019
 51
54.0166903958291371
  0
ARC
  5
2099F
  8
0
 10
55.9013948422814906
 20
76.6114952489978549
 30
0.0
 40
0.529843188522567
 50
114.7590555356703987
 51
181.6552146113282049
  0
ARC
  5
209A0
  8
0
 10
55.9024610012627932
 20
76.6091835324298529
 30
0.0
 40
0.5323889160147028
 50
29.4298702460160193
 51
114.7590555356703987
  0
ARC
  5
209A1
  8
0
 10
55.9934467915610981
 20
76.6486846943626858
 30
0.0
 40
0.5082441162192909
 50
219.4061744494601953
 51
229.4053858416801006
  0
ARC
  5
209A2
  8
0
 10
55.9898949497304628
 20
76.5018370418572289
 30
0.0
 40
0.295916157535385
 50
313.2390186408451882
 51
331.1920614913263989
  0
LINE
  5
209A3
  8
0
 10
56.1548568847148175
 20
75.9809158855233449
 30
0.0
 11
56.2042885770927967
 21
76.0062384507980937
 31
0.0
  0
LINE
  5
209A4
  8
0
 10
55.9087960269148212
 20
59.3173191232490566
 30
0.0
 11
59.9776251119739001
 21
53.3288253792810423
 31
0.0
  0
ENDBLK
  5
209A8
  8
0
  0
BLOCK
  8
0
  2
A$C286C2BD7
 70
     0
 10
0.0
 20
0.0
 30
0.0
  3
A$C286C2BD7
  1

  0
ARC
  5
20EF8
  8
0
 10
117.1705860100907017
 20
66.1591304197665266
 30
0.0
 40
0.1416843791398265
 50
3.3033240410309981
 51
85.8408985172840886
  0
ARC
  5
20EF9
  8
0
 10
144.6890208713543018
 20
67.7474351982998826
 30
0.0
 40
27.4225491361081417
 50
183.3033240410310043
 51
184.3423989886805998
  0
ARC
  5
20EFA
  8
0
 10
117.4611886912519054
 20
65.6782407586346721
 30
0.0
 40
0.1162171867697103
 50
183.5264477615804992
 51
268.741426898938073
  0
LINE
  5
20EFB
  8
0
 10
117.4586360414073027
 20
65.5620516090576331
 30
0.0
 11
118.6664319298519956
 21
65.5620516090576331
 31
0.0
  0
ARC
  5
20EFC
  8
0
 10
118.6626839678326064
 20
65.6784233102030726
 30
0.0
 40
0.1164320404647343
 50
271.8446770158536197
 51
356.3901041616363159
  0
ARC
  5
20EFD
  8
0
 10
-298.1964370096964103
 20
93.7872871066220455
 30
0.0
 40
417.9221692640663832
 50
356.1424468499961904
 51
356.2111244796274718
  0
ARC
  5
20EFE
  8
0
 10
118.9545282727234934
 20
66.1582578455432468
 30
0.0
 40
0.142803835690715
 50
95.3411413451945435
 51
174.9128960211124877
  0
ARC
  5
20EFF
  8
0
 10
121.948453580796695
 20
66.4208421820715245
 30
0.0
 40
0.1208562207277191
 50
172.7297102231202075
 51
265.0223706039266176
  0
ARC
  5
20F00
  8
0
 10
123.5732919395572935
 20
66.4114420523245741
 30
0.0
 40
0.1110003000307703
 50
270.0000056046296208
 51
340.2534621354299134
  0
ARC
  5
20F01
  8
0
 10
123.5209064846746969
 20
66.4302467790755031
 30
0.0
 40
0.1666586653627148
 50
340.2534621354299134
 51
2.341857056226238
  0
ARC
  5
20F02
  8
0
 10
125.5024074004168
 20
66.6943902931602679
 30
0.0
 40
0.7796062161849484
 50
198.8142019283926913
 51
202.3629452164466898
  0
ARC
  5
20F03
  8
0
 10
124.8437446756580016
 20
66.4234073180260651
 30
0.0
 40
0.0673784732548072
 50
202.3629452164466898
 51
265.7009601376283854
  0
ARC
  5
20F04
  8
0
 10
124.9081495227411978
 20
68.6978581759740052
 30
0.0
 40
2.3426695947480161
 50
268.3010407492545255
 51
271.8069955722564828
  0
ARC
  5
20F05
  8
0
 10
124.9684008173487939
 20
66.4340759647168397
 30
0.0
 40
0.0789067046748401
 50
279.9392639753597791
 51
343.9722692138885805
  0
ARC
  5
20F06
  8
0
 10
1477.0648505243050295
 20
-320.0274944713146965
 30
0.0
 40
1406.16337502774104
 50
164.0470349636877074
 51
164.0487985946919878
  0
LINE
  5
20F07
  8
0
 10
117.4509910467393041
 20
66.3004415494277737
 30
0.0
 11
117.4648597088512929
 21
65.6893035144047843
 31
0.0
  0
ARC
  5
20F08
  8
0
 10
117.5408870022746015
 20
65.6951044431445155
 30
0.0
 40
0.0762482794528568
 50
184.3632486429704045
 51
272.4165446194759284
  0
LINE
  5
20F09
  8
0
 10
117.5441019466830994
 20
65.61892397155259
 30
0.0
 11
118.5799746043025067
 21
65.61892397155259
 31
0.0
  0
ARC
  5
20F0A
  8
0
 10
118.583189548704695
 20
65.6951044431440181
 30
0.0
 40
0.0762482794520785
 50
267.5834553852312183
 51
355.6367513568225718
  0
LINE
  5
20F0B
  8
0
 10
118.659216842127293
 20
65.6893035144040596
 30
0.0
 11
118.673085504739305
 21
66.3004415735277632
 31
0.0
  0
LINE
  5
20F0C
  8
0
 10
112.5419459750366968
 20
66.300441752293807
 30
0.0
 11
123.5732919504151965
 21
66.300441752293807
 31
0.0
  0
ARC
  5
20F0D
  8
0
 10
112.5603709513042929
 20
66.4237405994040699
 30
0.0
 40
0.124084125061434
 50
173.8394958383360915
 51
227.3041835583051977
  0
ARC
  5
20F0E
  8
0
 10
112.5605575127608944
 20
66.4218607047452849
 30
0.0
 40
0.1228370927321148
 50
226.6456140299625019
 51
261.2853254575337019
  0
ARC
  5
20F0F
  8
0
 10
114.1749989045802067
 20
66.4232166621044655
 30
0.0
 40
0.1222012564448127
 50
313.1975715423267843
 51
6.0687869473874398
  0
ARC
  5
20F10
  8
0
 10
114.1699186466650957
 20
66.4293398956966143
 30
0.0
 40
0.1301435129429585
 50
277.9322150282852135
 51
312.9827477764097807
  0
ARC
  5
20F11
  8
0
 10
117.2014550862743931
 20
66.16263208310707
 30
0.0
 40
0.1381589135481521
 50
1.997604603448466
 51
85.9247538351517051
  0
LINE
  5
20F12
  8
0
 10
117.3395300386071938
 20
66.1674479870826815
 30
0.0
 11
117.3452697353172027
 21
65.6699190834510205
 31
0.0
  0
ARC
  5
20F13
  8
0
 10
118.9226310524045971
 20
66.1627050208261807
 30
0.0
 40
0.1381589135481521
 50
94.480892528263368
 51
178.002395396551492
  0
LINE
  5
20F14
  8
0
 10
118.7845561000717964
 20
66.1675209248017779
 30
0.0
 11
118.7788175645435018
 21
65.6700926748269893
 31
0.0
  0
LINE
  5
20F15
  8
0
 10
117.454416243385694
 20
66.1495064461615669
 30
0.0
 11
117.3602179541972959
 21
66.1535484079855109
 31
0.0
  0
LINE
  5
20F16
  8
0
 10
117.3602179541972959
 20
66.1535484079855109
 30
0.0
 11
117.3396965493029995
 21
66.1530144920563288
 31
0.0
  0
LINE
  5
20F17
  8
0
 10
118.6696599193068948
 20
66.1494893374640185
 30
0.0
 11
118.7638586721196958
 21
66.1535483231956363
 31
0.0
  0
LINE
  5
20F18
  8
0
 10
118.7638586721196958
 20
66.1535483231956363
 30
0.0
 11
118.7843884908999996
 21
66.1529922115813633
 31
0.0
  0
LINE
  5
20F19
  8
0
 10
117.6171563857393068
 20
66.300441665889025
 30
0.0
 11
117.6171774476459007
 21
66.1331160674993441
 31
0.0
  0
LINE
  5
20F1A
  8
0
 10
117.9163689841392966
 20
66.3004416607949736
 30
0.0
 11
117.9163475497357041
 21
66.1345309606033709
 31
0.0
  0
LINE
  5
20F1B
  8
0
 10
118.2077075668393036
 20
66.3004416558349732
 30
0.0
 11
118.2077305118125992
 21
66.1322528279514046
 31
0.0
  0
LINE
  5
20F1C
  8
0
 10
118.5069201652392934
 20
66.3004416507409218
 30
0.0
 11
118.5067905906931003
 21
66.1376673389321326
 31
0.0
  0
LINE
  5
20F1D
  8
0
 10
118.4373233179033065
 20
66.2585679357277684
 30
0.0
 11
118.2773044115820937
 21
66.2585679363283617
 31
0.0
  0
LINE
  5
20F1E
  8
0
 10
118.2933450597392948
 20
66.0281247943277805
 30
0.0
 11
118.4212826723393022
 21
66.0281247943277805
 31
0.0
  0
ARC
  5
20F1F
  8
0
 10
118.4212826723393022
 20
66.0395984291433535
 30
0.0
 40
0.0114736348155771
 50
270.0
 51
291.3783042244074863
  0
ARC
  5
20F20
  8
0
 10
118.3724897120429063
 20
66.1642423003429201
 30
0.0
 40
0.1453274640551675
 50
291.3783042244066905
 51
321.3415691372479728
  0
ARC
  5
20F21
  8
0
 10
118.4113994206097971
 20
66.1331160674993441
 30
0.0
 40
0.095499682729897
 50
321.3415691372479728
 51
7.1570165718243892
  0
ARC
  5
20F22
  8
0
 10
118.2300487506143014
 20
66.1103443579359435
 30
0.0
 40
0.2782744519521673
 50
7.1570165718243892
 51
8.5708893913193354
  0
ARC
  5
20F23
  8
0
 10
118.3423981517350967
 20
66.1300108633530925
 30
0.0
 40
0.1642710273134802
 50
7.6280340663221882
 51
49.3335746203222527
  0
ARC
  5
20F24
  8
0
 10
118.4373746149489932
 20
66.2381678733732144
 30
0.0
 40
0.0204001268490417
 50
53.7199641583549905
 51
90.1440729924405986
  0
ARC
  5
20F25
  8
0
 10
118.2772410337566953
 20
66.2382072618185731
 30
0.0
 40
0.020360773149406
 50
89.8216527560607148
 51
126.3172454091742054
  0
ARC
  5
20F26
  8
0
 10
118.3722261742827015
 20
66.1300119053298801
 30
0.0
 40
0.1642675369596929
 50
130.6656537015632011
 51
172.3721827319573947
  0
ARC
  5
20F27
  8
0
 10
-1126.2598595140771067
 20
238.0289794816956999
 30
0.0
 40
1256.2824234418449123
 50
352.1361525749027805
 51
352.1364657462452783
  0
ARC
  5
20F28
  8
0
 10
118.2972050361525049
 20
66.1334512227027602
 30
0.0
 40
0.0894825494485983
 50
172.5753996020264083
 51
188.9593133578804043
  0
ARC
  5
20F29
  8
0
 10
118.3105795663592943
 20
66.1362003373746461
 30
0.0
 40
0.1031239684489147
 50
189.3108536466299938
 51
220.4694512957773895
  0
ARC
  5
20F2A
  8
0
 10
118.3406776931035012
 20
66.1621274650828752
 30
0.0
 40
0.1428491160955504
 50
220.5453193977101023
 51
248.772875112473514
  0
ARC
  5
20F2B
  8
0
 10
118.2933448533511012
 20
66.0399336599668345
 30
0.0
 40
0.0118088656408568
 50
248.186818047405211
 51
270.0010013806809184
  0
LINE
  5
20F2C
  8
0
 10
117.6867532330822996
 20
66.2585679357277684
 30
0.0
 11
117.8467721394034982
 21
66.2585679363283617
 31
0.0
  0
LINE
  5
20F2D
  8
0
 10
117.8307314912463966
 20
66.0281247943277805
 30
0.0
 11
117.7027938786463039
 21
66.0281247943277805
 31
0.0
  0
ARC
  5
20F2E
  8
0
 10
117.7027938786463039
 20
66.0395984291433535
 30
0.0
 40
0.0114736348155771
 50
248.6216957755925137
 51
270.0
  0
ARC
  5
20F2F
  8
0
 10
117.7515868389427993
 20
66.1642423003429201
 30
0.0
 40
0.1453274640551675
 50
218.6584308627519988
 51
248.6216957755931958
  0
ARC
  5
20F30
  8
0
 10
117.7126771303757948
 20
66.1331160674993441
 30
0.0
 40
0.095499682729897
 50
172.8429834281755859
 51
218.6584308627519988
  0
ARC
  5
20F31
  8
0
 10
117.8940278003713047
 20
66.1103443579359435
 30
0.0
 40
0.2782744519521673
 50
171.4291106086805883
 51
172.8429834281755859
  0
ARC
  5
20F32
  8
0
 10
117.7816783992504952
 20
66.1300108633530925
 30
0.0
 40
0.1642710273134802
 50
130.6664253796776904
 51
172.3719659336778136
  0
ARC
  5
20F33
  8
0
 10
117.6867019360365987
 20
66.2381678733732144
 30
0.0
 40
0.0204001268490417
 50
89.8559270075594014
 51
126.2800358416450024
  0
ARC
  5
20F34
  8
0
 10
117.8468355172288966
 20
66.2382072618185731
 30
0.0
 40
0.020360773149406
 50
53.6827545908257804
 51
90.1783472439393137
  0
ARC
  5
20F35
  8
0
 10
117.7518503767029046
 20
66.1300119053298801
 30
0.0
 40
0.1642675369596929
 50
7.627817268042576
 51
49.3343462984368273
  0
ARC
  5
20F36
  8
0
 10
1362.383936065062926
 20
238.0289794816956999
 30
0.0
 40
1256.2824234418449123
 50
187.8635342537546933
 51
187.8638474250971058
  0
ARC
  5
20F37
  8
0
 10
117.8268715148332006
 20
66.1334512227027602
 30
0.0
 40
0.0894825494485983
 50
351.0406866421195105
 51
7.4246003979736148
  0
ARC
  5
20F38
  8
0
 10
117.8134969846262976
 20
66.1362003373746461
 30
0.0
 40
0.1031239684489147
 50
319.5305487042226105
 51
350.6891463533698925
  0
ARC
  5
20F39
  8
0
 10
117.7833988578822044
 20
66.1621274650828752
 30
0.0
 40
0.1428491160955504
 50
291.227124887526486
 51
319.4546806022898977
  0
ARC
  5
20F3A
  8
0
 10
117.8307316976345049
 20
66.0399336599668345
 30
0.0
 40
0.0118088656408568
 50
269.9989986193190816
 51
291.8131819525946753
  0
LINE
  5
20F3B
  8
0
 10
117.6746305180392937
 20
66.2546131167147934
 30
0.0
 11
117.6746305180392937
 21
66.3004416649105366
 31
0.0
  0
LINE
  5
20F3C
  8
0
 10
117.8588948554393028
 20
66.2546124802517653
 30
0.0
 11
117.8588948554393028
 21
66.300441661773462
 31
0.0
  0
LINE
  5
20F3D
  8
0
 10
118.4494460329463976
 20
66.2546131167147934
 30
0.0
 11
118.4494460329463976
 21
66.3004416517194102
 31
0.0
  0
LINE
  5
20F3E
  8
0
 10
118.2651816955464028
 20
66.2546124802517653
 30
0.0
 11
118.2651816955464028
 21
66.3004416548564848
 31
0.0
  0
LINE
  5
20F3F
  8
0
 10
117.6298252440392957
 20
66.1381667033277694
 30
0.0
 11
117.9037000471392957
 21
66.1381664203277637
 31
0.0
  0
LINE
  5
20F40
  8
0
 10
118.2202233287996052
 20
66.1362821508875243
 30
0.0
 11
118.4944048377062984
 21
66.1362821638697653
 31
0.0
  0
ARC
  5
20F41
  8
0
 10
118.4944048370668952
 20
66.1497875354738625
 30
0.0
 40
0.0135053716040985
 50
270.0000027129013915
 51
332.0696849198586733
  0
ARC
  5
20F42
  8
0
 10
118.2204511956475983
 20
66.1501781667937365
 30
0.0
 40
0.0138978840607562
 50
208.9005873460154987
 51
269.0605480916647139
  0
ARC
  5
20F43
  8
0
 10
117.9030660096671994
 20
66.1533982948663919
 30
0.0
 40
0.0152450649548033
 50
272.3836009977538879
 51
325.5352095324112156
  0
ARC
  5
20F44
  8
0
 10
117.6308142733520015
 20
66.1542368637265668
 30
0.0
 40
0.0161005662702965
 50
216.5307592719597949
 51
266.4782043439805079
  0
ARC
  5
20F45
  8
0
 10
117.7615668859949949
 20
66.2728878139009936
 30
0.0
 40
0.0149853913517849
 50
104.1732352438463067
 51
136.7997955224398936
  0
ARC
  5
20F46
  8
0
 10
117.7543159572425964
 20
66.2792517551331315
 30
0.0
 40
0.0053531212446794
 50
133.3242124195568863
 51
221.674038346934708
  0
ARC
  5
20F47
  8
0
 10
117.7633275728423001
 20
66.2881611190340294
 30
0.0
 40
0.018020218596838
 50
223.7825575748582025
 51
260.2845540505430222
  0
ARC
  5
20F48
  8
0
 10
117.7666932658776062
 20
66.2998271687732057
 30
0.0
 40
0.0301171463745636
 50
257.7178554372410986
 51
293.0797836900500783
  0
ARC
  5
20F49
  8
0
 10
117.7707134656887007
 20
66.2707277465659814
 30
0.0
 40
0.0173941510654166
 50
45.8649435463615589
 51
69.0536304294758168
  0
ARC
  5
20F4A
  8
0
 10
117.7667416472232986
 20
66.2583820423543983
 30
0.0
 40
0.0303520656404988
 50
70.3830189545446814
 51
106.9406259035114033
  0
ARC
  5
20F4B
  8
0
 10
117.7746862261534062
 20
66.2819793782251594
 30
0.0
 40
0.0105705727936139
 50
291.146290404505578
 51
329.9109668258669217
  0
ARC
  5
20F4C
  8
0
 10
117.7791192313483037
 20
66.279296994473242
 30
0.0
 40
0.0053910257461239
 50
330.9574569818100258
 51
46.5622393811090731
  0
ARC
  5
20F4D
  8
0
 10
118.3768996122201003
 20
66.2722968220665223
 30
0.0
 40
0.0116885683643398
 50
104.1732352438463067
 51
136.7997955224398936
  0
ARC
  5
20F4E
  8
0
 10
118.3712439056430981
 20
66.2772606805612554
 30
0.0
 40
0.0041754213928876
 50
133.3242124195568863
 51
221.674038346934708
  0
ARC
  5
20F4F
  8
0
 10
118.3782729436266976
 20
66.2842099624714791
 30
0.0
 40
0.0140557261445429
 50
223.7825575748582025
 51
260.2845540505430222
  0
ARC
  5
20F50
  8
0
 10
118.380898175908797
 20
66.2933094525493232
 30
0.0
 40
0.0234913000317464
 50
257.7178554372410986
 51
293.0797836900500783
  0
ARC
  5
20F51
  8
0
 10
118.3840339218646989
 20
66.2706119748627316
 30
0.0
 40
0.0135673950112461
 50
45.8649435463615589
 51
69.0536304294758168
  0
ARC
  5
20F52
  8
0
 10
118.3809359132392984
 20
66.2609823559695457
 30
0.0
 40
0.023674536480867
 50
70.3830189545446814
 51
106.9406259035114033
  0
ARC
  5
20F53
  8
0
 10
118.3871326652472931
 20
66.2793882198583617
 30
0.0
 40
0.0082450207570769
 50
291.146290404505578
 51
329.9109668258669217
  0
ARC
  5
20F54
  8
0
 10
118.3905903983864931
 20
66.2772959671351884
 30
0.0
 40
0.0042049868107035
 50
330.9574569818100258
 51
46.5622393811090731
  0
ARC
  5
20F55
  8
0
 10
118.3296555178201004
 20
66.2722968220665223
 30
0.0
 40
0.0116885683643398
 50
104.1732352438463067
 51
136.7997955224398936
  0
ARC
  5
20F56
  8
0
 10
118.3239998112430982
 20
66.2772606805612554
 30
0.0
 40
0.0041754213928876
 50
133.3242124195568863
 51
221.674038346934708
  0
ARC
  5
20F57
  8
0
 10
118.3310288492266977
 20
66.2842099624714791
 30
0.0
 40
0.0140557261445429
 50
223.7825575748582025
 51
260.2845540505430222
  0
ARC
  5
20F58
  8
0
 10
118.3336540815087972
 20
66.2933094525493232
 30
0.0
 40
0.0234913000317464
 50
257.7178554372410986
 51
293.0797836900500783
  0
ARC
  5
20F59
  8
0
 10
118.336789827464699
 20
66.2706119748627316
 30
0.0
 40
0.0135673950112461
 50
45.8649435463615589
 51
69.0536304294758168
  0
ARC
  5
20F5A
  8
0
 10
118.3336918188392985
 20
66.2609823559695457
 30
0.0
 40
0.023674536480867
 50
70.3830189545446814
 51
106.9406259035114033
  0
ARC
  5
20F5B
  8
0
 10
118.3398885708472932
 20
66.2793882198583617
 30
0.0
 40
0.0082450207570769
 50
291.146290404505578
 51
329.9109668258669217
  0
ARC
  5
20F5C
  8
0
 10
118.3433463039864932
 20
66.2772959671351884
 30
0.0
 40
0.0042049868107035
 50
330.9574569818100258
 51
46.5622393811090731
  0
ARC
  5
20F5D
  8
0
 10
119.1283715349799053
 20
68.7363880641698159
 30
0.0
 40
8.3773474818515083
 50
195.8106377776418014
 51
196.1214665351106987
  0
ARC
  5
20F5E
  8
0
 10
111.1529706355673
 20
66.4311695144903354
 30
0.0
 40
0.0754770860829966
 50
196.1214665351110966
 51
259.6674234696653798
  0
ARC
  5
20F5F
  8
0
 10
111.2225248266181978
 20
68.3347554420998762
 30
0.0
 40
1.979583653889003
 50
267.5943359669440724
 51
271.8087638239819057
  0
ARC
  5
20F60
  8
0
 10
111.2713923311370934
 20
66.4355137292802738
 30
0.0
 40
0.0805151517927034
 50
279.7356763212608826
 51
338.2191849025509214
  0
ARC
  5
20F61
  8
0
 10
110.8659916501023019
 20
66.5975049940599746
 30
0.0
 40
0.5170823081941162
 50
338.2191849025505235
 51
342.6111070220364923
  0
ARC
  5
20F62
  8
0
 10
118.066047985226902
 20
-2.0506480635020941
 30
0.0
 40
72.7763887230542252
 50
89.4936847605698631
 51
90.0031568304393943
  0
ARC
  5
20F63
  8
0
 10
118.3837892539395966
 20
19.9614881989250605
 30
0.0
 40
50.762453654911738
 50
87.123713972211533
 51
89.6327559497701429
  0
ARC
  5
20F64
  8
0
 10
120.034007578244001
 20
49.8906457329679967
 30
0.0
 40
20.7887081178340516
 50
80.9954316945655677
 51
87.5269538305478676
  0
ARC
  5
20F65
  8
0
 10
121.8772371902425959
 20
62.1613211043759009
 30
0.0
 40
8.3813651140091103
 50
77.7658618587286696
 51
80.3117417076505973
  0
ARC
  5
20F66
  8
0
 10
122.5801879823323048
 20
65.2236396151650695
 30
0.0
 40
5.2397703869273906
 50
71.1648318310197254
 51
78.1820384333333323
  0
ARC
  5
20F67
  8
0
 10
123.7390850526971064
 20
68.4358672932374787
 30
0.0
 40
1.8263860085365671
 50
52.8015386403537619
 51
73.0406123674512031
  0
ARC
  5
20F68
  8
0
 10
124.4269156141776023
 20
69.3116086868181469
 30
0.0
 40
0.713208828854393
 50
5.7021466659747313
 51
54.282687127154297
  0
ARC
  5
20F69
  8
0
 10
110.9562149785121932
 20
67.5338722725739018
 30
0.0
 40
14.3003673206951305
 50
3.006730018112918
 51
7.4273710306092626
  0
ARC
  5
20F6A
  8
0
 10
46.0265980007817674
 20
63.784968681568607
 30
0.0
 40
79.337962987831574
 50
2.1218819367817332
 51
3.2508058959464701
  0
ARC
  5
20F6B
  8
0
 10
124.4261359809917025
 20
66.6897316265979754
 30
0.0
 40
0.884631616390148
 50
352.5842251904314821
 51
2.1218819367817332
  0
ARC
  5
20F6C
  8
0
 10
125.1887959826480028
 20
66.5856630511853353
 30
0.0
 40
0.1150174191773145
 50
286.8132639931773156
 51
354.9574048387678999
  0
ARC
  5
20F6D
  8
0
 10
125.0317246479953042
 20
67.2874485171775518
 30
0.0
 40
0.8338996877430874
 50
271.6774966368170112
 51
283.1942692667328174
  0
ARC
  5
20F6E
  8
0
 10
124.3567256989846044
 20
81.2087132550275186
 30
0.0
 40
14.7713745340518692
 50
270.1791421838776159
 51
272.7139142430590937
  0
LINE
  5
20F6F
  8
0
 10
124.4029101126359933
 20
66.4374109216118427
 30
0.0
 11
118.062038254439301
 21
66.4342720537277813
 31
0.0
  0
LINE
  5
20F70
  8
0
 10
125.1406295946906937
 20
69.3512570703387325
 30
0.0
 11
125.1648172043041995
 21
68.5038633894178162
 31
0.0
  0
ARC
  5
20F71
  8
0
 10
124.5669735199659982
 20
67.8308484640468805
 30
0.0
 40
0.5955372772185996
 50
347.9191420162376858
 51
359.803946222163006
  0
ARC
  5
20F72
  8
0
 10
125.0146851322428034
 20
67.7350238507148106
 30
0.0
 40
0.1376857245427016
 50
322.1016248771001074
 51
347.9191420162376858
  0
ARC
  5
20F73
  8
0
 10
112.002762689263804
 20
68.2113709592411936
 30
0.0
 40
13.1653040556838405
 50
358.3348522872316266
 51
1.2730401570946099
  0
LINE
  5
20F74
  8
0
 10
118.0620382183467996
 20
67.5096336744470165
 30
0.0
 11
123.2982815540965049
 21
67.5118746381329089
 31
0.0
  0
ARC
  5
20F75
  8
0
 10
123.2886791374784963
 20
89.9489138187006461
 30
0.0
 40
22.4370412353486586
 50
270.0245209676427862
 51
272.6669687670948861
  0
ARC
  5
20F76
  8
0
 10
123.9259838296024014
 20
76.2672786963236433
 30
0.0
 40
8.7405710005595925
 50
272.6669687670948861
 51
276.4598578820363173
  0
ARC
  5
20F77
  8
0
 10
124.805713659446198
 20
68.4975954304460686
 30
0.0
 40
0.921242216989037
 50
276.4598578820363173
 51
282.3608436251785747
  0
ARC
  5
20F78
  8
0
 10
124.8783651761676055
 20
68.1660772682942451
 30
0.0
 40
0.5818566917843871
 50
282.3608436251785747
 51
289.1326806534402749
  0
ARC
  5
20F79
  8
0
 10
125.0243558459005015
 20
67.7477709179240009
 30
0.0
 40
0.1388097028360196
 50
288.7926879502148267
 51
315.483051641378097
  0
ARC
  5
20F7A
  8
0
 10
117.9509657257615061
 20
2072.0711385105742011
 30
0.0
 40
2004.8760217274150364
 50
270.0031742536593242
 51
270.0686576763326912
  0
ARC
  5
20F7B
  8
0
 10
116.5336654814063024
 20
1490.653621439284052
 30
0.0
 40
1423.462190230384067
 50
270.1537488543809786
 51
270.2557053850421198
  0
ARC
  5
20F7C
  8
0
 10
124.0174100827805006
 20
-122.9385559336815987
 30
0.0
 40
190.1475266135807942
 50
90.0513857228710748
 51
90.3407965630948553
  0
ARC
  5
20F7D
  8
0
 10
124.0715101812980947
 20
41.5993928747294035
 30
0.0
 40
25.6104865033731208
 50
87.9980635216207929
 51
90.5025573859023922
  0
ARC
  5
20F7E
  8
0
 10
125.0059541136188983
 20
67.9807720820193424
 30
0.0
 40
0.7875297689821089
 50
267.1042001243606023
 51
275.5703942506899011
  0
ARC
  5
20F7F
  8
0
 10
125.0721026100644053
 20
67.3689778926279246
 30
0.0
 40
0.1723244728678464
 50
273.4253151982827035
 51
310.7192619657519117
  0
ARC
  5
20F80
  8
0
 10
125.0693774363319051
 20
67.3522636228799882
 30
0.0
 40
0.1619543582502039
 50
315.3123385423357945
 51
343.9496081794434872
  0
ARC
  5
20F81
  8
0
 10
124.5890386323458046
 20
67.463954572629703
 30
0.0
 40
0.6549450082697278
 50
346.1781785979387109
 51
357.0366650763148755
  0
ARC
  5
20F82
  8
0
 10
120.7665400151354049
 20
67.7105736359677763
 30
0.0
 40
4.4853458531596262
 50
356.4148407235841773
 51
1.6733743571156909
  0
LINE
  5
20F83
  8
0
 10
125.2499730398393041
 20
67.841553540727773
 30
0.0
 11
125.2339285765719978
 21
68.3384839295747639
 31
0.0
  0
ARC
  5
20F84
  8
0
 10
117.8813632545107026
 20
65.9216425757585114
 30
0.0
 40
7.4448407706119299
 50
10.6030753801426201
 51
13.4234166154527497
  0
ARC
  5
20F85
  8
0
 10
125.131046458939295
 20
67.2787866729731832
 30
0.0
 40
0.0692223785597198
 50
332.887807147571209
 51
10.6030753801426201
  0
ARC
  5
20F86
  8
0
 10
121.5984642125426944
 20
67.2121368496922429
 30
0.0
 40
0.1137806220369375
 50
186.1012071486032085
 51
244.256496460582099
  0
ARC
  5
20F87
  8
0
 10
118.1560371337545945
 20
-19.3110513131106494
 30
0.0
 40
86.4752562407764174
 50
89.2368418223700246
 51
90.0622807312336846
  0
ARC
  5
20F88
  8
0
 10
118.8562099868264994
 20
33.2528576434891434
 30
0.0
 40
33.9066841960471521
 50
88.1220693483526816
 51
89.2368418223700246
  0
ARC
  5
20F89
  8
0
 10
118.7782959699381991
 20
30.8765475026836214
 30
0.0
 40
36.2842713089250068
 50
86.9346458581800192
 51
88.1220693483526816
  0
ARC
  5
20F8A
  8
0
 10
119.188421141906403
 20
3207.1100985673369905
 30
0.0
 40
3140.001568553324887
 50
269.9794468290502891
 51
270.0367239196908145
  0
ARC
  5
20F8B
  8
0
 10
121.0464659162650065
 20
308.233561564956176
 30
0.0
 40
241.1244360909464888
 50
270.0367239196908145
 51
270.6108571390416273
  0
ARC
  5
20F8C
  8
0
 10
123.9924892019525942
 20
31.9196833703328515
 30
0.0
 40
35.205146719423233
 50
88.8892944645257757
 51
90.6108571390415278
  0
ARC
  5
20F8D
  8
0
 10
124.8344736979478
 20
75.3480388323951757
 30
0.0
 40
8.2313701302360531
 50
268.8892944645257899
 51
270.3063164622187173
  0
ARC
  5
20F8E
  8
0
 10
124.8777783972916069
 20
67.2480730377971838
 30
0.0
 40
0.1312885769032245
 50
270.3063164622179215
 51
295.4680911045119274
  0
ARC
  5
20F8F
  8
0
 10
124.9078910579376043
 20
67.1778106028429818
 30
0.0
 40
0.054988581559943
 50
298.6236662220721882
 51
346.782013148387307
  0
ARC
  5
20F90
  8
0
 10
124.819998835377703
 20
67.2027804084354727
 30
0.0
 40
0.1463224095919103
 50
345.1328135517388773
 51
356.658340536818173
  0
ARC
  5
20F91
  8
0
 10
124.9474648000482944
 20
66.839020514931903
 30
0.0
 40
0.3004323370772664
 50
4.4475459188053188
 51
90.0329815118820562
  0
LINE
  5
20F92
  8
0
 10
125.2469924587392995
 20
66.862317957727754
 30
0.0
 11
125.2716323653393005
 21
66.5362019277277739
 31
0.0
  0
ARC
  5
20F93
  8
0
 10
125.2174424414669005
 20
66.5319704802495977
 30
0.0
 40
0.0543548801585893
 50
304.7417660437466225
 51
4.464909787461357
  0
ARC
  5
20F94
  8
0
 10
123.2624223744867038
 20
67.2140438216305114
 30
0.0
 40
0.1157565667445713
 50
305.6127150575518954
 51
354.2704492777837118
  0
LINE
  5
20F95
  8
0
 10
123.3902711454924059
 20
67.2079364715577583
 30
0.0
 11
123.3902711454924059
 21
67.2024914440277712
 31
0.0
  0
LINE
  5
20F96
  8
0
 10
123.3902711454924059
 20
67.2024914440277712
 30
0.0
 11
122.0372431538794018
 21
67.202070578389737
 31
0.0
  0
ARC
  5
20F97
  8
0
 10
118.0580284514667966
 20
-2.0506480635022788
 30
0.0
 40
72.7763887230544384
 50
89.9968431695606057
 51
90.5063152394300943
  0
ARC
  5
20F98
  8
0
 10
117.740287182754102
 20
19.9614881989250605
 30
0.0
 40
50.762453654911738
 50
90.3672440502298713
 51
92.8762860277884528
  0
ARC
  5
20F99
  8
0
 10
116.0900688584496976
 20
49.8906457329679967
 30
0.0
 40
20.7887081178340516
 50
92.4730461694521182
 51
99.0045683054344465
  0
ARC
  5
20F9A
  8
0
 10
114.2468392464511027
 20
62.1613211043759009
 30
0.0
 40
8.3813651140091103
 50
99.6882582923494169
 51
102.2341381412713019
  0
ARC
  5
20F9B
  8
0
 10
113.5438884543613938
 20
65.2236396151650695
 30
0.0
 40
5.2397703869273906
 50
101.8179615666665967
 51
108.8351681689802035
  0
ARC
  5
20F9C
  8
0
 10
112.3849913839966064
 20
68.4358672932374787
 30
0.0
 40
1.8263860085365671
 50
106.9593876325487969
 51
127.1984613596462026
  0
ARC
  5
20F9D
  8
0
 10
111.6971608225160963
 20
69.3116086868181469
 30
0.0
 40
0.713208828854393
 50
125.7173128728456959
 51
174.2978533340252056
  0
ARC
  5
20F9E
  8
0
 10
125.1678614581833955
 20
67.5338722725737313
 30
0.0
 40
14.3003673206969992
 50
172.5726289693911042
 51
176.7745436302446933
  0
ARC
  5
20F9F
  8
0
 10
111.092351788698295
 20
67.2874485171775518
 30
0.0
 40
0.8338996877430874
 50
256.8057307332671826
 51
268.3225033631828751
  0
ARC
  5
20FA0
  8
0
 10
111.7673507377090942
 20
81.2087132550275186
 30
0.0
 40
14.7713745340518692
 50
267.28608575694102
 51
269.8208578161223841
  0
LINE
  5
20FA1
  8
0
 10
111.7211663240577053
 20
66.4374109216118427
 30
0.0
 11
118.062038254439301
 21
66.4342720537277813
 31
0.0
  0
LINE
  5
20FA2
  8
0
 10
110.9834468420030049
 20
69.3512570703387325
 30
0.0
 11
110.9592592323894991
 21
68.5038633894178162
 31
0.0
  0
ARC
  5
20FA3
  8
0
 10
111.5571029167277004
 20
67.8308484640468805
 30
0.0
 40
0.5955372772185996
 50
180.196053777836994
 51
192.0808579837622005
  0
ARC
  5
20FA4
  8
0
 10
111.1093913044508952
 20
67.7350238507148106
 30
0.0
 40
0.1376857245427016
 50
192.0808579837622005
 51
217.8983751229000063
  0
ARC
  5
20FA5
  8
0
 10
124.1213137474298946
 20
68.2113709592411936
 30
0.0
 40
13.1653040556838405
 50
178.7269598429053872
 51
181.6651477127684018
  0
LINE
  5
20FA6
  8
0
 10
118.0620382183467996
 20
67.5096336744470165
 30
0.0
 11
112.8257948825971937
 21
67.5118746381329089
 31
0.0
  0
ARC
  5
20FA7
  8
0
 10
112.8353972992152023
 20
89.9489138187006461
 30
0.0
 40
22.4370412353486586
 50
267.3330312329051139
 51
269.9754790323573275
  0
ARC
  5
20FA8
  8
0
 10
112.1980926070912972
 20
76.2672786963236433
 30
0.0
 40
8.7405710005595925
 50
263.5401421179636827
 51
267.3330312329051139
  0
ARC
  5
20FA9
  8
0
 10
111.3183627772475006
 20
68.4975954304460686
 30
0.0
 40
0.921242216989037
 50
257.6391563748213116
 51
263.5401421179636827
  0
ARC
  5
20FAA
  8
0
 10
111.2457112605260932
 20
68.1660772682942451
 30
0.0
 40
0.5818566917843871
 50
250.8673193465596967
 51
257.6391563748213116
  0
ARC
  5
20FAB
  8
0
 10
111.0997205907931971
 20
67.7477709179240009
 30
0.0
 40
0.1388097028360196
 50
224.516948358621903
 51
251.2073120497852017
  0
ARC
  5
20FAC
  8
0
 10
118.1731107109322068
 20
2072.0711385105742011
 30
0.0
 40
2004.8760217274150364
 50
269.9313423236674225
 51
269.9968257463406758
  0
ARC
  5
20FAD
  8
0
 10
119.5904109552873962
 20
1490.653621439284052
 30
0.0
 40
1423.462190230384067
 50
269.7442946149578233
 51
269.8462511456189077
  0
ARC
  5
20FAE
  8
0
 10
112.106666353913198
 20
-122.9385559336815987
 30
0.0
 40
190.1475266135807942
 50
89.6592034369051731
 51
89.9486142771289536
  0
ARC
  5
20FAF
  8
0
 10
112.0525662553956039
 20
41.5993928747294035
 30
0.0
 40
25.6104865033731208
 50
89.497442614097622
 51
92.0019364783792213
  0
ARC
  5
20FB0
  8
0
 10
111.1181223230748998
 20
67.9807720820193424
 30
0.0
 40
0.7875297689821089
 50
264.4296057493100989
 51
272.8957998756393977
  0
ARC
  5
20FB1
  8
0
 10
111.0519738266292933
 20
67.3689778926279246
 30
0.0
 40
0.1723244728678464
 50
229.2807380342480883
 51
266.5746848017174102
  0
ARC
  5
20FB2
  8
0
 10
111.0546990003617935
 20
67.3522636228799882
 30
0.0
 40
0.1619543582502039
 50
196.0503918205563991
 51
224.6876614576640918
  0
ARC
  5
20FB3
  8
0
 10
111.5350378043477946
 20
67.463954572629703
 30
0.0
 40
0.6549450082697278
 50
182.9633349236850961
 51
193.8218214020612891
  0
ARC
  5
20FB4
  8
0
 10
115.3575364215582937
 20
67.7105736359677763
 30
0.0
 40
4.4853458531596262
 50
178.3266256428842951
 51
183.5851592764157942
  0
LINE
  5
20FB5
  8
0
 10
110.8741033968543945
 20
67.841553540727773
 30
0.0
 11
110.8901478601217008
 21
68.3384839295747639
 31
0.0
  0
ARC
  5
20FB6
  8
0
 10
118.242713182182996
 20
65.9216425757585114
 30
0.0
 40
7.4448407706119299
 50
166.5765833845472059
 51
169.3969246198574012
  0
ARC
  5
20FB7
  8
0
 10
110.9930299777544036
 20
67.2787866729731832
 30
0.0
 40
0.0692223785597198
 50
169.3969246198574012
 51
207.112192852428791
  0
ARC
  5
20FB8
  8
0
 10
114.5256122241510042
 20
67.2121368496922429
 30
0.0
 40
0.1137806220369375
 50
295.7435035394178158
 51
353.89879285139682
  0
ARC
  5
20FB9
  8
0
 10
117.9680393029391041
 20
-19.3110513131106494
 30
0.0
 40
86.4752562407764174
 50
89.9377192687663154
 51
90.7631581776300038
  0
ARC
  5
20FBA
  8
0
 10
117.2678664498671992
 20
33.2528576434891434
 30
0.0
 40
33.9066841960471521
 50
90.7631581776300038
 51
91.8779306516473042
  0
ARC
  5
20FBB
  8
0
 10
117.3457804667554996
 20
30.8765475026836214
 30
0.0
 40
36.2842713089250068
 50
91.8779306516473042
 51
93.065354141819995
  0
ARC
  5
20FBC
  8
0
 10
116.9356552947872956
 20
3207.1100985673369905
 30
0.0
 40
3140.001568553324887
 50
269.9632760803091855
 51
270.0205531709497109
  0
ARC
  5
20FBD
  8
0
 10
115.0776105204287063
 20
308.233561564956176
 30
0.0
 40
241.1244360909464888
 50
269.3891428609583727
 51
269.9632760803091855
  0
ARC
  5
20FBE
  8
0
 10
111.0722680360907049
 20
66.8778927335252007
 30
0.0
 40
0.195804469284235
 50
123.8196380458954025
 51
184.5622687618080988
  0
LINE
  5
20FBF
  8
0
 10
110.8770839779543991
 20
66.862317957727754
 30
0.0
 11
110.8524440713543981
 21
66.5362019277277739
 31
0.0
  0
ARC
  5
20FC0
  8
0
 10
112.8616540622069948
 20
67.2140438216305114
 30
0.0
 40
0.1157565667445713
 50
185.7295507222162882
 51
234.3872849424481046
  0
LINE
  5
20FC1
  8
0
 10
112.7338052912013069
 20
67.2079364715577583
 30
0.0
 11
112.7338052912013069
 21
67.2024914440277712
 31
0.0
  0
LINE
  5
20FC2
  8
0
 10
112.7338052912013069
 20
67.2024914440277712
 30
0.0
 11
114.0868332828142968
 21
67.202070578389737
 31
0.0
  0
ARC
  5
20FC3
  8
0
 10
110.9066339952267981
 20
66.5319704802495977
 30
0.0
 40
0.0543548801585893
 50
175.5350902125385915
 51
235.2582339562534059
  0
ARC
  5
20FC4
  8
0
 10
110.9343171183242021
 20
66.5835012208162738
 30
0.0
 40
0.112669744403998
 50
238.6257411397552062
 51
253.337687171213588
  0
ARC
  5
20FC5
  8
0
 10
111.2546624971905942
 20
66.5994485631319861
 30
0.0
 40
0.5286625491511235
 50
100.561944439071496
 51
123.4463368009712951
  0
ARC
  5
20FC6
  8
0
 10
111.6932710649108031
 20
67.243626137269743
 30
0.0
 40
0.2633506080821789
 50
189.0090075906626907
 51
203.4147101204357
  0
ARC
  5
20FC7
  8
0
 10
111.494191183804702
 20
67.1661603528858819
 30
0.0
 40
0.0505221291270173
 50
212.5536440410843966
 51
273.3470424790485254
  0
ARC
  5
20FC8
  8
0
 10
112.149380356037895
 20
46.1771271377855399
 30
0.0
 40
20.9487534671460516
 50
89.0220691771039441
 51
91.784192613644052
  0
ARC
  5
20FC9
  8
0
 10
111.3609108694013941
 20
66.1035289142100737
 30
0.0
 40
1.035743744893278
 50
89.1346185389571275
 51
101.3113618697204998
  0
ARC
  5
20FCA
  8
0
 10
111.4099194054190036
 20
69.488064205539672
 30
0.0
 40
2.349146644146892
 50
269.1861865232585842
 51
271.0135372656114896
  0
LINE
  5
20FCB
  8
0
 10
107.9873352329639005
 20
66.9801721974449435
 30
0.0
 11
108.0381095881895988
 21
66.9234019846803108
 31
0.0
  0
ARC
  5
20FCC
  8
0
 10
107.9298304837572005
 20
66.8248901305100702
 30
0.0
 40
0.1463863035558255
 50
16.4767882915761383
 51
42.2957878705484021
  0
ARC
  5
20FCD
  8
0
 10
107.6156661991594063
 20
66.7319688550113739
 30
0.0
 40
0.4740043145948669
 50
355.8773369066078089
 51
16.4767882915757511
  0
ARC
  5
20FCE
  8
0
 10
106.8587476422962936
 20
66.7280186717391501
 30
0.0
 40
1.2300653410640809
 50
351.2073819079890882
 51
358.596563917902472
  0
ARC
  5
20FCF
  8
0
 10
107.0174246967153948
 20
66.7025401607957207
 30
0.0
 40
1.0693588379633261
 50
345.4090613039787172
 51
351.2568868063727905
  0
ARC
  5
20FD0
  8
0
 10
107.3089411594258991
 20
66.6255291982623135
 30
0.0
 40
0.7678445212814161
 50
339.8629829057238112
 51
345.4903610668555984
  0
ARC
  5
20FD1
  8
0
 10
107.670885019332303
 20
66.4890125253183442
 30
0.0
 40
0.381044151875495
 50
328.7015855830613873
 51
340.3992827002011268
  0
ARC
  5
20FD2
  8
0
 10
107.8756469450270004
 20
66.3710773559082554
 30
0.0
 40
0.1449220407502331
 50
312.6973001459016928
 51
326.4868635017489282
  0
ARC
  5
20FD3
  8
0
 10
107.9493661213585938
 20
66.290082371285763
 30
0.0
 40
0.0354120759645714
 50
260.5074504873269916
 51
313.9028966773474281
  0
ARC
  5
20FD4
  8
0
 10
107.9505277757089061
 20
66.2872578830264985
 30
0.0
 40
0.0328573875617636
 50
246.2090822193860902
 51
257.6961288409904114
  0
ARC
  5
20FD5
  8
0
 10
107.9613957556149018
 20
66.3190777789486248
 30
0.0
 40
0.0664204665382665
 50
230.794440444501106
 51
248.7043123603025947
  0
ARC
  5
20FD6
  8
0
 10
108.5387379206677991
 20
66.9213002987058871
 30
0.0
 40
0.9004871808085406
 50
219.4584200882792118
 51
226.5462643755128909
  0
ARC
  5
20FD7
  8
0
 10
107.972707789370105
 20
66.4581747508073448
 30
0.0
 40
0.1691522493637676
 50
205.5526320503564079
 51
220.1865714207607994
  0
ARC
  5
20FD8
  8
0
 10
108.0388953253666955
 20
66.4866698880795894
 30
0.0
 40
0.2411737762029556
 50
189.0924816052919937
 51
204.877602061328389
  0
ARC
  5
20FD9
  8
0
 10
108.3518558543162982
 20
66.5420784579566629
 30
0.0
 40
0.558982656707314
 50
181.2347503803605946
 51
189.6311946608786911
  0
ARC
  5
20FDA
  8
0
 10
108.8769321455826997
 20
66.5517528793024411
 30
0.0
 40
1.0841467405458569
 50
173.5180760970393976
 51
181.14794183465321
  0
ARC
  5
20FDB
  8
0
 10
108.9520642449788994
 20
66.5457545530912569
 30
0.0
 40
1.1594784511582981
 50
168.6701699626044046
 51
173.6426844428152947
  0
ARC
  5
20FDC
  8
0
 10
108.6426766229563015
 20
66.6084669530825977
 30
0.0
 40
0.843800046822087
 50
160.2083949207496971
 51
168.7183148965272892
  0
ARC
  5
20FDD
  8
0
 10
108.1504404251300997
 20
66.7927123827433746
 30
0.0
 40
0.3183248620265442
 50
143.6812279727743089
 51
161.4127922129621027
  0
ARC
  5
20FDE
  8
0
 10
107.9664433251001014
 20
66.9246037061695915
 30
0.0
 40
0.0919957317020757
 50
124.7214166033653981
 51
141.9944629870043116
  0
ARC
  5
20FDF
  8
0
 10
107.9460289973424949
 20
66.9546073571162026
 30
0.0
 40
0.0557079290053813
 50
99.6192951802174917
 51
125.0407793469587006
  0
ARC
  5
20FE0
  8
0
 10
107.9436952026175049
 20
66.981418837934001
 30
0.0
 40
0.0289655379600021
 50
59.2606716672789204
 51
103.9340521010254008
  0
ARC
  5
20FE1
  8
0
 10
107.8769136311859
 20
66.8873525444914065
 30
0.0
 40
0.1442512326243449
 50
40.0501822966580434
 51
55.5568439244134566
  0
LINE
  5
20FE2
  8
0
 10
107.9430455032896958
 20
66.2552637661168404
 30
0.0
 11
108.8372371045411029
 21
65.9476285844899337
 31
0.0
  0
ARC
  5
20FE3
  8
0
 10
106.8819533812455944
 20
96.402415743868147
 30
0.0
 40
29.4114156735111791
 50
272.0739191414037919
 51
274.0942772290399034
  0
ARC
  5
20FE4
  8
0
 10
108.9832012789261029
 20
67.0466323784800267
 30
0.0
 40
0.019473950376422
 50
64.6689877421310939
 51
93.9367341711449768
  0
ARC
  5
20FE5
  8
0
 10
108.9805407327220053
 20
67.0410118256028227
 30
0.0
 40
0.0256924004043404
 50
36.3463468258247531
 51
64.6689875378782517
  0
ARC
  5
20FE6
  8
0
 10
108.9129914461438062
 20
66.991307766523235
 30
0.0
 40
0.1095577663560417
 50
14.1170059038169704
 51
36.3463468258247531
  0
ARC
  5
20FE7
  8
0
 10
108.3486557746450956
 20
66.8612846640529455
 30
0.0
 40
0.6886601278253792
 50
0.2334621094006373
 51
13.15628562495416
  0
ARC
  5
20FE8
  8
0
 10
106.5893218131987936
 20
66.8312358588280233
 30
0.0
 40
2.448208837821864
 50
352.6266755860290232
 51
0.7689302476099181
  0
ARC
  5
20FE9
  8
0
 10
106.1353357145938929
 20
66.8677736697959517
 30
0.0
 40
2.90321352839646
 50
347.8719731337391181
 51
353.0613717354988239
  0
ARC
  5
20FEA
  8
0
 10
107.715742874450001
 20
66.5083392094686445
 30
0.0
 40
1.2827104081706939
 50
337.366285223749685
 51
348.7373790717732049
  0
ARC
  5
20FEB
  8
0
 10
108.6905792531972992
 20
66.1061388964603509
 30
0.0
 40
0.228203779549022
 50
321.1285413433369058
 51
336.3794822764431842
  0
ARC
  5
20FEC
  8
0
 10
108.8254420024538973
 20
65.998707978542356
 30
0.0
 40
0.0557934868455157
 50
298.4889259773477193
 51
320.1061209461224166
  0
ARC
  5
20FED
  8
0
 10
108.8400112092996039
 20
65.9746636031752445
 30
0.0
 40
0.0277435032226393
 50
278.2075298265580727
 51
295.7285254279476021
  0
ARC
  5
20FEE
  8
0
 10
108.8417433924692972
 20
65.9654931037770353
 30
0.0
 40
0.018424105955266
 50
255.8426004304614878
 51
276.947109141980377
  0
ARC
  5
20FEF
  8
0
 10
108.8656278670980981
 20
65.9694914338259082
 30
0.0
 40
0.0240268955980305
 50
235.5916642045370963
 51
255.6271693721351994
  0
ARC
  5
20FF0
  8
0
 10
108.864262827387293
 20
65.9641644696723262
 30
0.0
 40
0.0185278156290126
 50
255.627169372130993
 51
293.7713209827832088
  0
ARC
  5
20FF1
  8
0
 10
108.8401555816924002
 20
66.0085170401043655
 30
0.0
 40
0.0689619514955935
 50
297.2497136262484787
 51
328.335028955429209
  0
ARC
  5
20FF2
  8
0
 10
108.6558834512537999
 20
66.1356881648277692
 30
0.0
 40
0.2927867073082511
 50
326.0829184303696024
 51
336.5434230167891769
  0
ARC
  5
20FF3
  8
0
 10
107.8308173168173028
 20
66.4725061059778142
 30
0.0
 40
1.1839023088352809
 50
337.4841247050653124
 51
347.466727684179375
  0
ARC
  5
20FF4
  8
0
 10
106.2340051632408944
 20
66.85393165662488
 30
0.0
 40
2.825552459199125
 50
346.9431984982159065
 51
353.5584763291020067
  0
ARC
  5
20FF5
  8
0
 10
106.9452994603895064
 20
66.8046088300305598
 30
0.0
 40
2.1134394364294389
 50
352.7237769655899911
 51
3.3192924200267222
  0
ARC
  5
20FF6
  8
0
 10
108.6034708779828009
 20
66.8955855377572419
 30
0.0
 40
0.4528119163011474
 50
3.9752987151218142
 51
16.06046333283156
  0
ARC
  5
20FF7
  8
0
 10
108.9413393715724965
 20
66.992083153033505
 30
0.0
 40
0.1014368164926439
 50
16.4787442635613708
 51
35.8079675299794218
  0
ARC
  5
20FF8
  8
0
 10
109.0019913332618984
 20
67.0363609946648324
 30
0.0
 40
0.0263468759600217
 50
34.8882980920007171
 51
78.1922981642901505
  0
ARC
  5
20FF9
  8
0
 10
109.0043211516705952
 20
67.0418430722401695
 30
0.0
 40
0.0205367698955937
 50
81.4267834980527851
 51
111.6024425559536013
  0
ARC
  5
20FFA
  8
0
 10
108.3901371456705931
 20
66.3603365083984755
 30
0.0
 40
0.6171020267256601
 50
325.0980022051012952
 51
339.6586237662227177
  0
LINE
  5
20FFB
  8
0
 10
108.9468570825570026
 20
66.1481950746747316
 30
0.0
 11
108.9685407691807058
 21
66.1452454586093523
 31
0.0
  0
LINE
  5
20FFC
  8
0
 10
108.9514064164546028
 20
66.1641276434370411
 30
0.0
 11
108.9730614038533929
 21
66.1612134422407507
 31
0.0
  0
LINE
  5
20FFD
  8
0
 10
109.0065750553173984
 20
66.4380837353716345
 30
0.0
 11
109.0284239414122993
 21
66.4356370333154445
 31
0.0
  0
LINE
  5
20FFE
  8
0
 10
108.9918218910470955
 20
66.3489909453378601
 30
0.0
 11
109.013509669078104
 21
66.3458948452446435
 31
0.0
  0
ARC
  5
20FFF
  8
0
 10
108.8953212438967029
 20
66.9043295280643804
 30
0.0
 40
0.152363291999967
 50
12.1599113941377208
 51
30.3811090981399907
  0
ARC
  5
21000
  8
0
 10
108.214807227916495
 20
66.7708538247732122
 30
0.0
 40
0.8458222182694944
 50
6.7945068190922857
 51
11.2885356955694096
  0
ARC
  5
21001
  8
0
 10
102.4282414998151012
 20
66.2580098224977689
 30
0.0
 40
6.6547328525246456
 50
4.9031082589565651
 51
5.2845277405092874
  0
LINE
  5
21002
  8
0
 10
109.034570962672106
 20
66.9227104443931324
 30
0.0
 11
109.0471974776238966
 21
66.9209927508063487
 31
0.0
  0
LINE
  5
21003
  8
0
 10
109.0356037753941933
 20
66.9098152309494623
 30
0.0
 11
109.0494476696318031
 21
66.9079324809221561
 31
0.0
  0
LINE
  5
21004
  8
0
 10
109.0349348676859051
 20
66.7185269358845403
 30
0.0
 11
109.0568670576654
 21
66.715678893621714
 31
0.0
  0
LINE
  5
21005
  8
0
 10
109.0316280813020029
 20
66.6613341037675156
 30
0.0
 11
109.053677988639194
 21
66.6584369001990211
 31
0.0
  0
ARC
  5
21006
  8
0
 10
112.0347078489673009
 20
66.6179364652200405
 30
0.0
 40
3.490980511396589
 50
170.3027030198771001
 51
173.0651458415620141
  0
ARC
  5
21007
  8
0
 10
111.359665132520405
 20
66.7332908534193336
 30
0.0
 40
2.8061525739518811
 50
164.9977081532377099
 51
170.3027030198767022
  0
ARC
  5
21008
  8
0
 10
109.7903240617983016
 20
67.1590064416437968
 30
0.0
 40
1.180112463888443
 50
158.192880268616193
 51
165.2389730385411895
  0
ARC
  5
21009
  8
0
 10
108.9248051519291067
 20
67.5204601377503764
 30
0.0
 40
0.2426641816880275
 50
144.8616915625902095
 51
161.5149892837368952
  0
ARC
  5
2100A
  8
0
 10
108.8451117474890992
 20
67.5841747918236564
 30
0.0
 40
0.1409605942209893
 50
134.9145185166869112
 51
147.3972081991682899
  0
ARC
  5
2100B
  8
0
 10
108.7983611892767044
 20
67.6316418166024675
 30
0.0
 40
0.0743391360563885
 50
111.7108873718235031
 51
135.2283806879214865
  0
ARC
  5
2100C
  8
0
 10
108.7970756586064027
 20
67.6184688517039234
 30
0.0
 40
0.0863156005707245
 50
96.5251902882972388
 51
107.6801094484401062
  0
ARC
  5
2100D
  8
0
 10
108.7852989523628935
 20
67.6605788746102945
 30
0.0
 40
0.0436907608745697
 50
55.1305685414721012
 51
87.4185682103509549
  0
ARC
  5
2100E
  8
0
 10
108.3962180066303063
 20
67.2410400609760757
 30
0.0
 40
0.6154841991212425
 50
34.463365386138932
 51
47.721298955659087
  0
ARC
  5
2100F
  8
0
 10
89.4938599695647383
 20
52.8976194656739125
 30
0.0
 40
24.3431174239117212
 50
36.1653325999632571
 51
37.1228661083469405
  0
ARC
  5
21010
  8
0
 10
108.8476777056897049
 20
67.0587801125980434
 30
0.0
 40
0.36187921104587
 50
11.7406148854766101
 51
34.3394365486651978
  0
ARC
  5
21011
  8
0
 10
108.1638508935564005
 20
66.967286840676195
 30
0.0
 40
1.0511860058525071
 50
357.6814012931558864
 51
9.0379271023094034
  0
ARC
  5
21012
  8
0
 10
105.2082869278050055
 20
66.9663704444779171
 30
0.0
 40
4.0061054872508564
 50
352.7366237360602099
 51
359.4048707403915728
  0
ARC
  5
21013
  8
0
 10
105.6158373096717042
 20
66.8834843218687212
 30
0.0
 40
3.5914773354516369
 50
346.5571982019495181
 51
353.2263019503261035
  0
ARC
  5
21014
  8
0
 10
107.7564575100800965
 20
66.3589229790404005
 30
0.0
 40
1.387614412408249
 50
336.353346937290496
 51
347.0754046910589068
  0
ARC
  5
21015
  8
0
 10
108.774857097951994
 20
65.9245425390701882
 30
0.0
 40
0.2806943964748478
 50
325.0648030676978237
 51
334.1959420256196154
  0
ARC
  5
21016
  8
0
 10
108.9471441342610945
 20
65.7964707889134388
 30
0.0
 40
0.0664158478823573
 50
297.1739960412887172
 51
330.5366159255718799
  0
ARC
  5
21017
  8
0
 10
108.9644849302830067
 20
65.7666105321636536
 30
0.0
 40
0.0319821322884756
 50
255.3165221316126861
 51
293.9659458815485209
  0
ARC
  5
21018
  8
0
 10
108.9733418037472035
 20
65.7988271725284193
 30
0.0
 40
0.0653928690729822
 50
222.6664806494918025
 51
254.9648450965310928
  0
ARC
  5
21019
  8
0
 10
109.2399410969845945
 20
66.014137105598266
 30
0.0
 40
0.4079615946299961
 50
205.1832859032118961
 51
219.5242356577840042
  0
ARC
  5
2101A
  8
0
 10
113.1866086375293037
 20
68.068587495195203
 30
0.0
 40
4.8570327884879632
 50
205.7833455815145101
 51
207.3048902975154135
  0
LINE
  5
2101B
  8
0
 10
108.8617911691979998
 20
65.945802256903221
 30
0.0
 11
108.9117968013393067
 21
65.845562896927774
 31
0.0
  0
ARC
  5
2101C
  8
0
 10
108.9902359560847032
 20
65.8846932297494448
 30
0.0
 40
0.0876577660216715
 50
206.5128765928814119
 51
220.1188478580484968
  0
ARC
  5
2101D
  8
0
 10
108.9463360829422953
 20
65.8477014157805911
 30
0.0
 40
0.0302505089662969
 50
220.1188478580504864
 51
259.5292149887621918
  0
ARC
  5
2101E
  8
0
 10
108.9431837174437021
 20
65.8486308682457775
 30
0.0
 40
0.0307657345366012
 50
265.6282642975839963
 51
308.6726713165593878
  0
ARC
  5
2101F
  8
0
 10
108.8638279721852058
 20
65.9406479709332274
 30
0.0
 40
0.1522583990152327
 50
310.3499334768339963
 51
333.3116441601168276
  0
ARC
  5
21020
  8
0
 10
108.2747332223677006
 20
66.2454343941476935
 30
0.0
 40
0.8155202097456674
 50
332.7684957760764064
 51
343.8199472184061278
  0
ARC
  5
21021
  8
0
 10
106.3818678117304017
 20
66.8015227607791644
 30
0.0
 40
2.788376257477009
 50
343.6842810707703961
 51
351.9535779538181828
  0
ARC
  5
21022
  8
0
 10
105.9470400786684934
 20
66.9023533669436148
 30
0.0
 40
3.2332717979885119
 50
351.2629376020017276
 51
359.8080906771571108
  0
ARC
  5
21023
  8
0
 10
107.9680854063094984
 20
66.8927612851048963
 30
0.0
 40
1.21220896536964
 50
359.9415050957733797
 51
7.7495070867204436
  0
ARC
  5
21024
  8
0
 10
108.9091590000022052
 20
67.0304591141244259
 30
0.0
 40
0.2613369532329625
 50
5.6566898496987532
 51
26.5867356677376101
  0
ARC
  5
21025
  8
0
 10
48.2806768212487825
 20
21.6494105983732403
 30
0.0
 40
75.9886471176703111
 50
36.7802445514290071
 51
37.2253326330697973
  0
ARC
  5
21026
  8
0
 10
108.7398234650252959
 20
67.5867266338328534
 30
0.0
 40
0.0575547873897376
 50
33.9104819050315101
 51
47.8527630469744878
  0
ARC
  5
21027
  8
0
 10
108.7636504475246966
 20
67.6130528132340203
 30
0.0
 40
0.022047142904571
 50
47.8527630469776568
 51
107.6901888534280971
  0
ARC
  5
21028
  8
0
 10
108.7664448690339043
 20
67.604291554051315
 30
0.0
 40
0.0312432537149973
 50
107.6901888534254965
 51
130.8624762371775034
  0
ARC
  5
21029
  8
0
 10
108.8189589934890051
 20
67.5435873028116305
 30
0.0
 40
0.111509930398784
 50
130.8624762371775034
 51
144.6391493582978001
  0
ARC
  5
2102A
  8
0
 10
109.0467408063401962
 20
67.3996031806131555
 30
0.0
 40
0.3808707415318266
 50
146.805969889973511
 51
159.6618100894793031
  0
ARC
  5
2102B
  8
0
 10
110.0537390294300053
 20
67.0235656958512749
 30
0.0
 40
1.4557883387662169
 50
159.5594285976646063
 51
167.7675894812562092
  0
ARC
  5
2102C
  8
0
 10
110.0868436240498056
 20
66.955464921663193
 30
0.0
 40
1.503749572097739
 50
165.498387457766313
 51
173.2856479077678955
  0
ARC
  5
2102D
  8
0
 10
111.8333245485248
 20
66.6405599324276068
 30
0.0
 40
3.276868940115071
 50
171.3873570422564114
 51
172.9964535816492912
  0
ARC
  5
2102E
  8
0
 10
108.7309604338078941
 20
67.2242943573904199
 30
0.0
 40
0.4078760508988729
 50
83.3141439107392898
 51
84.2462428147549645
  0
ARC
  5
2102F
  8
0
 10
108.7687864715197037
 20
67.5996981154937657
 30
0.0
 40
0.0305714117449152
 50
84.2462428147549645
 51
128.4640879604299926
  0
ARC
  5
21030
  8
0
 10
108.8117115157504031
 20
67.5396665983277416
 30
0.0
 40
0.1043431073038008
 50
126.4150273012108983
 51
152.4061911582587072
  0
ARC
  5
21031
  8
0
 10
109.2505728891654968
 20
67.2931814996125013
 30
0.0
 40
0.6076468906234896
 50
150.9758701020575984
 51
163.882343923354199
  0
ARC
  5
21032
  8
0
 10
110.479932482309593
 20
66.8961650676389752
 30
0.0
 40
1.8993248067144399
 50
162.6717435769265876
 51
163.9298183831587892
  0
ARC
  5
21033
  8
0
 10
110.0266679293499976
 20
67.0275974004522936
 30
0.0
 40
1.427299554271299
 50
163.9802470363632096
 51
165.8988679665635004
  0
ARC
  5
21034
  8
0
 10
110.8607635556782043
 20
66.8186281633441155
 30
0.0
 40
2.2871736571127599
 50
165.9124402951196089
 51
167.7091493340242039
  0
ARC
  5
21035
  8
0
 10
109.2067332535785056
 20
67.1497652402534868
 30
0.0
 40
0.6012422214718952
 50
164.9871129003288956
 51
169.9329865742772085
  0
ARC
  5
21036
  8
0
 10
111.4433445708803987
 20
66.7040235370698014
 30
0.0
 40
2.8817326777791781
 50
168.980185068418109
 51
170.186341725344505
  0
ARC
  5
21037
  8
0
 10
109.6496313877754005
 20
67.0034545477014518
 30
0.0
 40
1.0632836576955831
 50
169.6108954392420003
 51
173.1005863978006118
  0
ARC
  5
21038
  8
0
 10
108.0385325313864939
 20
67.2047706780652021
 30
0.0
 40
0.5603676466596936
 50
350.7168469175070982
 51
352.4541318382891859
  0
ARC
  5
21039
  8
0
 10
111.2403588810726944
 20
66.7224651285131074
 30
0.0
 40
2.677633907145426
 50
171.5836964805851892
 51
173.1860813469102993
  0
LINE
  5
2103A
  8
0
 10
108.7818905039392945
 20
67.612158445727772
 30
0.0
 11
109.1370636285392948
 21
67.142004183227769
 31
0.0
  0
ARC
  5
2103B
  8
0
 10
108.7946189893802966
 20
67.5458877009165803
 30
0.0
 40
0.0872018261193121
 50
118.6142650929426026
 51
138.5444555548642995
  0
ARC
  5
2103C
  8
0
 10
108.7616326868778032
 20
67.6024199225015536
 30
0.0
 40
0.0218580633875126
 50
82.3267109985387151
 51
113.6706954832644954
  0
ARC
  5
2103D
  8
0
 10
108.758130440093197
 20
67.5961762980031011
 30
0.0
 40
0.0286351127090998
 50
33.9266509963721532
 51
77.0424468842894186
  0
ARC
  5
2103E
  8
0
 10
108.8730018578014977
 20
67.0103150869036881
 30
0.0
 40
0.2950773404648736
 50
5.0385549018508851
 51
26.5056917116094795
  0
ARC
  5
2103F
  8
0
 10
107.202273216445704
 20
66.8548543228133809
 30
0.0
 40
1.9730202374318559
 50
357.4285811706736808
 51
5.2745461863803271
  0
ARC
  5
21040
  8
0
 10
105.8885264026675941
 20
66.9138545364223631
 30
0.0
 40
3.2880912301611871
 50
351.6419054139398099
 51
357.4285811706736808
  0
ARC
  5
21041
  8
0
 10
106.8288840912388054
 20
66.7222448915510284
 30
0.0
 40
2.3304690170198912
 50
339.9718649569218201
 51
352.9422137766089804
  0
ARC
  5
21042
  8
0
 10
108.813801316217905
 20
65.9934716351129254
 30
0.0
 40
0.2160547886095582
 50
312.5530073768940156
 51
341.2721733195912748
  0
ARC
  5
21043
  8
0
 10
108.9442409806107008
 20
65.854539966774567
 30
0.0
 40
0.0255868683776208
 50
211.9581227536733934
 51
307.7710151386717143
  0
ARC
  5
21044
  8
0
 10
108.990987445870303
 20
65.8938987018594133
 30
0.0
 40
0.0865143260009724
 50
205.9166616195244046
 51
217.6966491400669952
  0
ARC
  5
21045
  8
0
 10
125.5594900761948054
 20
74.1309384561138387
 30
0.0
 40
18.5895944284618189
 50
206.1222191649715114
 51
206.4318830052336011
  0
ARC
  5
21046
  8
0
 10
108.7789520360607014
 20
65.7601086022291383
 30
0.0
 40
0.2025317677889526
 50
58.6686879560806389
 51
66.1779790181751508
  0
ARC
  5
21047
  8
0
 10
108.8313758845956016
 20
65.8462246324437785
 30
0.0
 40
0.1017139590687711
 50
38.5856420329819727
 51
58.6686879560806389
  0
ARC
  5
21048
  8
0
 10
108.8434530484406935
 20
65.8802810749724586
 30
0.0
 40
0.0735532425613173
 50
7.9309409423180171
 51
23.5438477615399293
  0
ARC
  5
21049
  8
0
 10
109.1392352643263024
 20
65.8626193123012484
 30
0.0
 40
0.2246604775972481
 50
172.889146670877011
 51
175.7367756438974027
  0
ARC
  5
2104A
  8
0
 10
108.991252391688505
 20
67.1711262875524113
 30
0.0
 40
0.1089337487598183
 50
281.2406327040400242
 51
289.9028579845186755
  0
ARC
  5
2104B
  8
0
 10
109.2620162087317937
 20
66.892691291789447
 30
0.0
 40
0.2925491625260372
 50
134.6863231172787891
 51
143.0129338922778004
  0
ARC
  5
2104C
  8
0
 10
109.1420912539808938
 20
67.0151667706657435
 30
0.0
 40
0.1211419561943027
 50
119.4662059623621957
 51
135.0954837332953957
  0
ARC
  5
2104D
  8
0
 10
109.1012920230667049
 20
67.0943816586983957
 30
0.0
 40
0.0322885751664633
 50
38.5486588728297477
 51
125.5908399274460976
  0
ARC
  5
2104E
  8
0
 10
109.0123105270352966
 20
67.0350609837485649
 30
0.0
 40
0.1391416969232625
 50
12.5803355682976896
 51
34.8161409364740067
  0
ARC
  5
2104F
  8
0
 10
108.5664372312149055
 20
66.899728811236173
 30
0.0
 40
0.6047984833921692
 50
358.1368123105336849
 51
15.8949041518984302
  0
ARC
  5
21050
  8
0
 10
105.669206218913402
 20
66.9332784543656913
 30
0.0
 40
3.5021140497973779
 50
348.3709715145270138
 51
359.1293759305128219
  0
ARC
  5
21051
  8
0
 10
107.7865248214477987
 20
66.4641346426460302
 30
0.0
 40
1.334091068619413
 50
335.868232160267894
 51
349.7762247369553847
  0
ARC
  5
21052
  8
0
 10
108.8979742574677942
 20
65.9590015190489254
 30
0.0
 40
0.1134483568683188
 50
296.5418964699939011
 51
339.1969059621179099
  0
ARC
  5
21053
  8
0
 10
108.9431675736283012
 20
65.8856571535604587
 30
0.0
 40
0.0286799939905927
 50
192.7649134987281911
 51
281.0588609961528164
  0
LINE
  5
21054
  8
0
 10
108.963223428269302
 20
65.7346532888785049
 30
0.0
 11
109.2064909083712934
 21
65.7181531271727977
 31
0.0
  0
LINE
  5
21055
  8
0
 10
109.2064909083712934
 20
65.7181531271727977
 30
0.0
 11
109.3495821432393029
 21
65.7111651005277793
 31
0.0
  0
ARC
  5
21056
  8
0
 10
109.4624544788794935
 20
68.022410135732585
 30
0.0
 40
2.313999519643811
 50
267.2041153516203735
 51
275.6639250943453021
  0
ARC
  5
21057
  8
0
 10
109.5581624264422942
 20
67.0573925285278989
 30
0.0
 40
1.3442474928649351
 50
275.6639250943453021
 51
315.7781856831055052
  0
ARC
  5
21058
  8
0
 10
109.3492883704123955
 20
67.2032042721125435
 30
0.0
 40
1.5961620523211151
 50
317.256596948495087
 51
334.1362845757283822
  0
ARC
  5
21059
  8
0
 10
109.8826045735766002
 20
68.9108911006236724
 30
0.0
 40
1.02437455909076
 50
285.5658078879869208
 51
331.1204234373144004
  0
ARC
  5
2105A
  8
0
 10
108.8821922914222995
 20
69.4776745040092862
 30
0.0
 40
2.1741514812921658
 50
330.7744842451422755
 51
339.2888659011545087
  0
ARC
  5
2105B
  8
0
 10
107.2079773676613996
 20
84.6158638710680293
 30
0.0
 40
16.985219284786929
 50
275.3350802021204231
 51
278.4821332725704224
  0
ARC
  5
2105C
  8
0
 10
109.4563034500893934
 20
69.8469440527254619
 30
0.0
 40
2.0467143939086361
 50
277.213807832853206
 51
290.0348396732945844
  0
ARC
  5
2105D
  8
0
 10
110.7959567849347025
 20
66.2146579701500144
 30
0.0
 40
0.2924338324552003
 50
81.4874802726888845
 51
92.0355608507421579
  0
ARC
  5
2105E
  8
0
 10
110.8296872941016034
 20
66.4400172115459213
 30
0.0
 40
0.0645642756223484
 50
55.7551020884183686
 51
81.4874802726888845
  0
ARC
  5
2105F
  8
0
 10
110.9249766410005975
 20
66.5801243695304663
 30
0.0
 40
0.104876211292348
 50
235.794826631768899
 51
241.0205403541417866
  0
ARC
  5
21060
  8
0
 10
109.1510911351277002
 20
65.9012042447910318
 30
0.0
 40
0.2827863669634867
 50
322.2177013324043742
 51
328.7583441611611761
  0
ARC
  5
21061
  8
0
 10
108.5344858346212931
 20
66.2674837901311946
 30
0.0
 40
0.9999685921453224
 50
329.1386405699215061
 51
336.4106067518869168
  0
ARC
  5
21062
  8
0
 10
108.4024649339365993
 20
66.3176222280430778
 30
0.0
 40
1.1410425388638381
 50
336.7562452814266862
 51
339.7399686582970162
  0
ARC
  5
21063
  8
0
 10
109.0898121459365058
 20
67.6902766525807777
 30
0.0
 40
1.8088111955121879
 50
282.2276515701300923
 51
293.8004102536955884
  0
ARC
  5
21064
  8
0
 10
108.4227425902709001
 20
68.8454713320356007
 30
0.0
 40
3.13827431800157
 50
296.4332591400926731
 51
305.8097108910013162
  0
ARC
  5
21065
  8
0
 10
111.4667915290980034
 20
64.4750911176739407
 30
0.0
 40
2.188796589961294
 50
114.0680966013163982
 51
123.4931608105480052
  0
ARC
  5
21066
  8
0
 10
110.7552953755456997
 20
66.0114770538421851
 30
0.0
 40
0.4963543363760995
 50
86.5031779317821901
 51
111.4043794909563019
  0
ARC
  5
21067
  8
0
 10
109.1396079583357022
 20
67.6183987730515099
 30
0.0
 40
1.7591016828038539
 50
280.6310778435666862
 51
292.7395481438330194
  0
ARC
  5
21068
  8
0
 10
109.314121898949395
 20
67.2020172914653386
 30
0.0
 40
1.30762781459393
 50
292.7395481438330194
 51
306.7459616873263144
  0
ARC
  5
21069
  8
0
 10
112.5803184352700015
 20
62.8274065614166233
 30
0.0
 40
4.1517914634364601
 50
122.1173673165401965
 51
126.7459616873262007
  0
ARC
  5
2106A
  8
0
 10
112.4276418522545953
 20
63.0706300825744393
 30
0.0
 40
3.8646193543351588
 50
119.234024138359004
 51
122.1173673165401965
  0
ARC
  5
2106B
  8
0
 10
110.804695427034801
 20
65.9705057941173436
 30
0.0
 40
0.5414831486508431
 50
104.7741506714155975
 51
119.2340241383598993
  0
ARC
  5
2106C
  8
0
 10
110.7770313095343937
 20
66.075401873181292
 30
0.0
 40
0.4330004735360462
 50
92.9433209725592633
 51
104.7741506714155975
  0
LINE
  5
2106D
  8
0
 10
109.4641332860392993
 20
65.8894881369277812
 30
0.0
 11
109.469009363704501
 21
65.9120842460636851
 31
0.0
  0
ARC
  5
2106E
  8
0
 10
108.6471770371865944
 20
66.2168500506103754
 30
0.0
 40
0.880104161488457
 50
333.2226688181007717
 51
338.1635678896989248
  0
ARC
  5
2106F
  8
0
 10
108.6115245067341988
 20
66.2348417381511894
 30
0.0
 40
0.9200391555191313
 50
327.2937264804584174
 51
333.2226688181007717
  0
ARC
  5
21070
  8
0
 10
109.3048707420144012
 20
65.7896141524773697
 30
0.0
 40
0.0960509244004319
 50
311.7742983482032741
 51
327.2937264804584174
  0
ARC
  5
21071
  8
0
 10
109.3452760672123958
 20
65.739860913005046
 30
0.0
 40
0.0295075186704427
 50
282.5852929479465843
 51
311.7003307736640068
  0
ARC
  5
21072
  8
0
 10
109.3063702126688952
 20
65.7835273793316446
 30
0.0
 40
0.0879919251324761
 50
311.7003307736640068
 51
320.8316051650095915
  0
ARC
  5
21073
  8
0
 10
109.3500058484775934
 20
65.7381484689800857
 30
0.0
 40
0.0276072825306014
 50
279.5731312288921231
 51
313.0729893881182875
  0
LINE
  5
21074
  8
0
 10
118.0620382183467996
 20
66.300441752293807
 30
0.0
 11
112.3422497404600051
 21
59.9474963458146135
 31
0.0
  0
ENDBLK
  5
21078
  8
0
  0
BLOCK
  8
0
  2
A$C3592B3B0
 70
     0
 10
0.0
 20
0.0
 30
0.0
  3
A$C3592B3B0
  1

  0
ARC
  5
21302
  8
0
 10
55.0238714533287379
 20
26.6594869582818994
 30
0.0
 40
0.055276345344428
 50
102.0387784253695003
 51
236.4056569668225904
  0
LINE
  5
21303
  8
0
 10
54.9895068892014933
 20
26.5958310566917184
 30
0.0
 11
54.9932865368277675
 21
26.6134430961799815
 31
0.0
  0
LINE
  5
21304
  8
0
 10
55.0131289364012375
 20
23.8340200329916989
 30
0.0
 11
55.017752920001378
 21
23.8067758073916984
 31
0.0
  0
ARC
  5
21305
  8
0
 10
55.0474480423777024
 20
23.7603409388072784
 30
0.0
 40
0.05511803067622
 50
122.5989358697851941
 51
224.3836582301694023
  0
LINE
  5
21306
  8
0
 10
54.9804699345221692
 20
23.7217881068761507
 30
0.0
 11
55.9867328071867689
 21
23.7217881068761507
 31
0.0
  0
ARC
  5
21307
  8
0
 10
54.5538778434619474
 20
23.3695569991053382
 30
0.0
 40
0.1574803144791513
 50
277.4693604954480861
 51
309.0508698875850087
  0
ARC
  5
21308
  8
0
 10
54.1570211050219825
 20
23.8587456369123707
 30
0.0
 40
0.7874015747999981
 50
309.050866476805993
 51
346.6105708972302182
  0
ARC
  5
21309
  8
0
 10
54.9804699347040682
 20
23.6627329884852102
 30
0.0
 40
0.0590551183909351
 50
90.0000001763930584
 51
166.610566058146901
  0
LINE
  5
2130A
  8
0
 10
54.5743496525796274
 20
23.2134129807123699
 30
0.0
 11
56.392853104965468
 21
23.2134129807123699
 31
0.0
  0
ARC
  5
2130B
  8
0
 10
5530.4788365067797713
 20
-2057.0548642185231074
 30
0.0
 40
5858.5684363709187892
 50
159.1624629777666939
 51
159.1649496837187883
  0
ARC
  5
2130C
  8
0
 10
54.7247434716723475
 20
27.1060433803404983
 30
0.0
 40
0.4085292059267575
 50
337.724710210971125
 51
2.4532452837849639
  0
CIRCLE
  5
2130D
  8
0
 10
55.4836013774015484
 20
27.8588231825916992
 30
0.0
 40
0.814731862484451
  0
CIRCLE
  5
2130E
  8
0
 10
55.4836013774015484
 20
27.8588231825916992
 30
0.0
 40
0.7106299212999998
  0
CIRCLE
  5
2130F
  8
0
 10
55.4836013774015484
 20
27.8588231825916992
 30
0.0
 40
0.6299212597999997
  0
CIRCLE
  5
21310
  8
0
 10
55.4836013774015484
 20
27.8588231825916992
 30
0.0
 40
0.5905511811000004
  0
CIRCLE
  5
21311
  8
0
 10
55.4836013774015484
 20
27.8588231825916992
 30
0.0
 40
0.1749644569999997
  0
CIRCLE
  5
21312
  8
0
 10
55.4836013774015484
 20
27.8588231825916992
 30
0.0
 40
0.2362204724000003
  0
CIRCLE
  5
21313
  8
0
 10
55.9197058216009211
 20
28.0393765214917003
 30
0.0
 40
0.0578153805000001
  0
CIRCLE
  5
21314
  8
0
 10
55.9248418790016188
 20
28.0415904718916984
 30
0.0
 40
0.0197439105728207
  0
CIRCLE
  5
21315
  8
0
 10
55.8174135468011485
 20
28.1925236477916989
 30
0.0
 40
0.0578142807999997
  0
CIRCLE
  5
21316
  8
0
 10
55.8209843814288291
 20
28.1970336818346183
 30
0.0
 40
0.0199410015487916
  0
CIRCLE
  5
21317
  8
0
 10
55.9556118480008919
 20
27.8566095066917008
 30
0.0
 40
0.0578153805000001
  0
CIRCLE
  5
21318
  8
0
 10
55.9607479054015968
 20
27.8588234570916988
 30
0.0
 40
0.0197439105728207
  0
CIRCLE
  5
21319
  8
0
 10
55.9248418790016188
 20
27.6766892165232612
 30
0.0
 40
0.0197439105728207
  0
CIRCLE
  5
2131A
  8
0
 10
55.7986264010009876
 20
27.8566096868917015
 30
0.0
 40
0.0578153805000001
  0
CIRCLE
  5
2131B
  8
0
 10
55.8037624584007901
 20
27.8588236372916995
 30
0.0
 40
0.0197439105728207
  0
CIRCLE
  5
2131C
  8
0
 10
55.7608692341013779
 20
27.6987430358916988
 30
0.0
 40
0.0197439105728207
  0
ARC
  5
2131D
  8
0
 10
55.756055203758919
 20
27.7014621907882805
 30
0.0
 40
0.0581195511582467
 50
330.050970377744477
 51
60.0359104436198194
  0
ARC
  5
2131E
  8
0
 10
55.7559948795192071
 20
27.7014859314284614
 30
0.0
 40
0.0581291484581836
 50
59.9727110189675869
 51
142.2405253287446953
  0
ARC
  5
2131F
  8
0
 10
55.7561154757990991
 20
27.7015429965904794
 30
0.0
 40
0.0581077541108852
 50
253.7739943879604141
 51
329.9522637952957211
  0
ARC
  5
21320
  8
0
 10
55.7560427195689883
 20
27.7015713785653901
 30
0.0
 40
0.0581147275563263
 50
142.3360088634991882
 51
253.8506870339367936
  0
CIRCLE
  5
21321
  8
0
 10
55.9197058398008124
 20
27.6782699370916987
 30
0.0
 40
0.0578154504999997
  0
CIRCLE
  5
21322
  8
0
 10
55.8213117647014698
 20
27.5211121277916995
 30
0.0
 40
0.0197334274665812
  0
CIRCLE
  5
21323
  8
0
 10
55.8174136088014023
 20
27.5251227721917004
 30
0.0
 40
0.0578143457999998
  0
CIRCLE
  5
21324
  8
0
 10
55.6641547162012031
 20
27.4227187383917013
 30
0.0
 40
0.0576668165791591
  0
CIRCLE
  5
21325
  8
0
 10
55.6436770159011687
 20
27.5815636752917008
 30
0.0
 40
0.0195972120847496
  0
CIRCLE
  5
21326
  8
0
 10
55.4836018320015611
 20
27.5386621015917008
 30
0.0
 40
0.0196845937614746
  0
ARC
  5
21327
  8
0
 10
55.4835125116364765
 20
27.5442271690410792
 30
0.0
 40
0.0581567000458841
 50
270.0875510800319717
 51
89.91244972204926
  0
ARC
  5
21328
  8
0
 10
55.4836899000724699
 20
27.5442271683848183
 30
0.0
 40
0.0581566988639159
 50
90.0867875318778744
 51
269.9127885232131234
  0
CIRCLE
  5
21329
  8
0
 10
55.4840405029211468
 20
27.3808695820550483
 30
0.0
 40
0.0196845937614746
  0
ARC
  5
2132A
  8
0
 10
55.4835177145255187
 20
27.38686783664701
 30
0.0
 40
0.0581567000458841
 50
270.0875510800319717
 51
89.91244972204926
  0
ARC
  5
2132B
  8
0
 10
55.4836951029624217
 20
27.3868678359907491
 30
0.0
 40
0.0581566988639159
 50
90.0867875318778744
 51
269.9127885232131234
  0
ARC
  5
2132C
  8
0
 10
55.6415001198197317
 20
27.5869620641054283
 30
0.0
 40
0.0581567000458841
 50
270.0875510800319717
 51
89.91244972204926
  0
ARC
  5
2132D
  8
0
 10
55.6416775082557109
 20
27.586962063449171
 30
0.0
 40
0.0581566988639159
 50
90.0867875318778744
 51
269.9127885232131234
  0
ARC
  5
2132E
  8
0
 10
55.7551948891555114
 20
28.0176933842057387
 30
0.0
 40
0.0581567000458841
 50
270.0875510800319717
 51
89.91244972204926
  0
ARC
  5
2132F
  8
0
 10
55.7553722775924072
 20
28.0176933835494815
 30
0.0
 40
0.0581566988639159
 50
90.0867875318778744
 51
269.9127885232131234
  0
ARC
  5
21330
  8
0
 10
55.6410037059290374
 20
28.1328770809191617
 30
0.0
 40
0.0581567000458841
 50
270.0875510800319717
 51
89.91244972204926
  0
ARC
  5
21331
  8
0
 10
55.6411810943659404
 20
28.1328770802629009
 30
0.0
 40
0.0581566988639159
 50
90.0867875318778744
 51
269.9127885232131234
  0
ARC
  5
21332
  8
0
 10
55.6642937223991723
 20
28.2953860204427095
 30
0.0
 40
0.0581567000458841
 50
270.0875510800319717
 51
89.91244972204926
  0
ARC
  5
21333
  8
0
 10
55.6644711108351515
 20
28.2953860197864486
 30
0.0
 40
0.0581566988639159
 50
90.0867875318778744
 51
269.9127885232131234
  0
ARC
  5
21334
  8
0
 10
55.4838767825799479
 20
28.3300425405776686
 30
0.0
 40
0.0581567000458841
 50
270.0875510800319717
 51
89.91244972204926
  0
ARC
  5
21335
  8
0
 10
55.4840541710159272
 20
28.3300425399214113
 30
0.0
 40
0.0581566988639159
 50
90.0867875318778744
 51
269.9127885232131234
  0
ARC
  5
21336
  8
0
 10
55.4840886427332265
 20
28.1742443731363608
 30
0.0
 40
0.0581567000458841
 50
270.0875510800319717
 51
89.91244972204926
  0
ARC
  5
21337
  8
0
 10
55.48426603116922
 20
28.1742443724800999
 30
0.0
 40
0.0581566988639159
 50
90.0867875318778744
 51
269.9127885232131234
  0
CIRCLE
  5
21338
  8
0
 10
55.6662314639429425
 20
28.2998025068812709
 30
0.0
 40
0.0199410015487916
  0
CIRCLE
  5
21339
  8
0
 10
55.4835029565217397
 20
28.3362837454406602
 30
0.0
 40
0.0197884122425325
  0
CIRCLE
  5
2133A
  8
0
 10
55.4833103071818385
 20
28.1793491579691491
 30
0.0
 40
0.0199410015487916
  0
CIRCLE
  5
2133B
  8
0
 10
55.643743698793962
 20
28.13605378870799
 30
0.0
 40
0.0199410015487916
  0
CIRCLE
  5
2133C
  8
0
 10
55.7610055432937699
 20
28.018502294376681
 30
0.0
 40
0.0199410015487916
  0
CIRCLE
  5
2133D
  8
0
 10
55.0474969332012591
 20
28.0393765214917003
 30
0.0
 40
0.0578153805000001
  0
CIRCLE
  5
2133E
  8
0
 10
55.0423608758014709
 20
28.0415904718916984
 30
0.0
 40
0.0197439105728207
  0
CIRCLE
  5
2133F
  8
0
 10
55.1497892080010317
 20
28.1925236477916989
 30
0.0
 40
0.0578142807999997
  0
CIRCLE
  5
21340
  8
0
 10
55.1462183733742606
 20
28.1970336818346183
 30
0.0
 40
0.0199410015487916
  0
CIRCLE
  5
21341
  8
0
 10
55.0115909068012883
 20
27.8566095066917008
 30
0.0
 40
0.0578153805000001
  0
CIRCLE
  5
21342
  8
0
 10
55.0064548494015
 20
27.8588234570916988
 30
0.0
 40
0.0197439105728207
  0
CIRCLE
  5
21343
  8
0
 10
55.0423608758014709
 20
27.6766892165232612
 30
0.0
 40
0.0197439105728207
  0
CIRCLE
  5
21344
  8
0
 10
55.1685763538011926
 20
27.8566096868917015
 30
0.0
 40
0.0578153805000001
  0
CIRCLE
  5
21345
  8
0
 10
55.1634402964013972
 20
27.8588236372916995
 30
0.0
 40
0.0197439105728207
  0
CIRCLE
  5
21346
  8
0
 10
55.2063335207008024
 20
27.6987430358916988
 30
0.0
 40
0.0197439105728207
  0
ARC
  5
21347
  8
0
 10
55.2111475510441707
 20
27.7014621907882805
 30
0.0
 40
0.0581195511582467
 50
119.9640895563802019
 51
209.9490296222552956
  0
ARC
  5
21348
  8
0
 10
55.2112078752829731
 20
27.7014859314284614
 30
0.0
 40
0.0581291484581836
 50
37.7594746712552833
 51
120.0272889810323989
  0
ARC
  5
21349
  8
0
 10
55.2110872790030811
 20
27.7015429965904794
 30
0.0
 40
0.0581077541108852
 50
210.0477362047041936
 51
286.2260056120396143
  0
ARC
  5
2134A
  8
0
 10
55.211160035233199
 20
27.7015713785653901
 30
0.0
 40
0.0581147275563263
 50
286.149312966063178
 51
37.6639911365008189
  0
CIRCLE
  5
2134B
  8
0
 10
55.0474969150013678
 20
27.6782699370916987
 30
0.0
 40
0.0578154504999997
  0
CIRCLE
  5
2134C
  8
0
 10
55.1458909901016199
 20
27.5211121277916995
 30
0.0
 40
0.0197334274665812
  0
CIRCLE
  5
2134D
  8
0
 10
55.1497891460007779
 20
27.5251227721917004
 30
0.0
 40
0.0578143457999998
  0
CIRCLE
  5
2134E
  8
0
 10
55.3030480386009771
 20
27.4227187383917013
 30
0.0
 40
0.0576668165791591
  0
CIRCLE
  5
2134F
  8
0
 10
55.3235257389010187
 20
27.5815636752917008
 30
0.0
 40
0.0195972120847496
  0
ARC
  5
21350
  8
0
 10
55.3257026349833581
 20
27.5869620641054283
 30
0.0
 40
0.0581567000458841
 50
90.0875502779507258
 51
269.9124489199680283
  0
ARC
  5
21351
  8
0
 10
55.3255252465464693
 20
27.586962063449171
 30
0.0
 40
0.0581566988639159
 50
270.0872114767868766
 51
89.9132124681221399
  0
ARC
  5
21352
  8
0
 10
55.2120078656466688
 20
28.0176933842057387
 30
0.0
 40
0.0581567000458841
 50
90.0875502779507258
 51
269.9124489199680283
  0
ARC
  5
21353
  8
0
 10
55.2118304772097801
 20
28.0176933835494815
 30
0.0
 40
0.0581566988639159
 50
270.0872114767868766
 51
89.9132124681221399
  0
ARC
  5
21354
  8
0
 10
55.3261990488731428
 20
28.1328770809191617
 30
0.0
 40
0.0581567000458841
 50
90.0875502779507258
 51
269.9124489199680283
  0
ARC
  5
21355
  8
0
 10
55.3260216604371635
 20
28.1328770802629009
 30
0.0
 40
0.0581566988639159
 50
270.0872114767868766
 51
89.9132124681221399
  0
ARC
  5
21356
  8
0
 10
55.3029090324039174
 20
28.2953860204427095
 30
0.0
 40
0.0581567000458841
 50
90.0875502779507258
 51
269.9124489199680283
  0
ARC
  5
21357
  8
0
 10
55.3027316439670287
 20
28.2953860197864486
 30
0.0
 40
0.0581566988639159
 50
270.0872114767868766
 51
89.9132124681221399
  0
CIRCLE
  5
21358
  8
0
 10
55.3009712908592377
 20
28.2998025068812709
 30
0.0
 40
0.0199410015487916
  0
CIRCLE
  5
21359
  8
0
 10
55.3234590560082324
 20
28.13605378870799
 30
0.0
 40
0.0199410015487916
  0
CIRCLE
  5
2135A
  8
0
 10
55.2061972115084174
 20
28.018502294376681
 30
0.0
 40
0.0199410015487916
  0
ARC
  5
2135B
  8
0
 10
55.9433313013743216
 20
26.6594869582818994
 30
0.0
 40
0.0552763453444299
 50
303.5943430331798254
 51
77.9612215746292776
  0
LINE
  5
2135C
  8
0
 10
55.9776958655015733
 20
26.5958310566917184
 30
0.0
 11
55.9739162178752778
 21
26.6134430961799815
 31
0.0
  0
LINE
  5
2135D
  8
0
 10
55.9540738183008983
 20
23.8340200329916989
 30
0.0
 11
55.9494498347007578
 21
23.8067758073916984
 31
0.0
  0
ARC
  5
2135E
  8
0
 10
55.91975471232535
 20
23.7603409388072784
 30
0.0
 40
0.0551180306762196
 50
315.6163417698300009
 51
57.4010641302152322
  0
ARC
  5
2135F
  8
0
 10
56.4133249140831197
 20
23.3695569991053382
 30
0.0
 40
0.1574803144791513
 50
230.9491301124149913
 51
262.5306395045519139
  0
ARC
  5
21360
  8
0
 10
56.8101816525221821
 20
23.8587456369123707
 30
0.0
 40
0.7874015747999981
 50
193.3894291027694976
 51
230.9491335231938933
  0
ARC
  5
21361
  8
0
 10
55.9867328228400822
 20
23.6627329884852102
 30
0.0
 40
0.0590551183909414
 50
13.3894339418553496
 51
90.0000151874158547
  0
ARC
  5
21362
  8
0
 10
-5419.5116337520748857
 20
-2057.0548642185231074
 30
0.0
 40
5858.5684363709187892
 50
20.8350503162812117
 51
20.8375370222332492
  0
ARC
  5
21363
  8
0
 10
56.242459283030712
 20
27.1060433803404983
 30
0.0
 40
0.4085292059267575
 50
177.5467547162149913
 51
202.2752897890287045
  0
ARC
  5
21364
  8
0
 10
55.4832704643717278
 20
26.012977063356761
 30
0.0
 40
0.2422048418563705
 50
89.9217194595452582
 51
130.0397683955505101
  0
ARC
  5
21365
  8
0
 10
55.6242889960746183
 20
25.904706752310851
 30
0.0
 40
0.4175774758909944
 50
135.303842292069703
 51
165.6047647810721912
  0
ARC
  5
21366
  8
0
 10
57.6030581456884505
 20
25.3078479652831696
 30
0.0
 40
2.48410086746724
 50
163.6166422717820979
 51
180.4516116183094141
  0
ARC
  5
21367
  8
0
 10
57.3570658974599468
 20
25.2832801335591206
 30
0.0
 40
2.2380370126170641
 50
179.8723005437149141
 51
193.707512556181598
  0
ARC
  5
21368
  8
0
 10
56.1571055186827834
 20
24.9776369422093296
 30
0.0
 40
0.99990618190914
 50
192.9861504799249019
 51
208.0419812266138138
  0
ARC
  5
21369
  8
0
 10
55.7419203869990127
 20
24.7574164306914213
 30
0.0
 40
0.5299333079433048
 50
208.1305086347437907
 51
219.5342749504268056
  0
ARC
  5
2136A
  8
0
 10
55.56431674286749
 20
24.6120468781527286
 30
0.0
 40
0.3004255421537954
 50
219.7128581908743001
 51
232.1550047477539067
  0
ARC
  5
2136B
  8
0
 10
55.4926857393397697
 20
24.5162894470705304
 30
0.0
 40
0.1809351318264615
 50
242.3715961425770899
 51
265.660045705774678
  0
ARC
  5
2136C
  8
0
 10
55.5137663885093318
 20
24.5479366577992693
 30
0.0
 40
0.2187861587674954
 50
232.3081777929926091
 51
241.323761607494788
  0
ARC
  5
2136D
  8
0
 10
55.4836013774015484
 20
26.0019504509941193
 30
0.0
 40
0.2292236666999963
 50
90.0
 51
132.9370631050402096
  0
ARC
  5
2136E
  8
0
 10
55.4839529565538214
 20
26.0016161062355202
 30
0.0
 40
0.2297079370303516
 50
132.9444557020912896
 51
152.9021893018831122
  0
ARC
  5
2136F
  8
0
 10
55.9917437838780572
 20
25.7365290535160298
 30
0.0
 40
0.8025223827803371
 50
152.5677571440047871
 51
164.1268659820599964
  0
ARC
  5
21370
  8
0
 10
57.5799810135230175
 20
25.3117424317242303
 30
0.0
 40
2.4465183397967309
 50
164.7312497098074004
 51
178.2929986130044995
  0
ARC
  5
21371
  8
0
 10
58.2763181544264626
 20
25.3058766380476108
 30
0.0
 40
3.1427564222841928
 50
178.5642699509895976
 51
179.5851834118506076
  0
ARC
  5
21372
  8
0
 10
58.0667007738243086
 20
25.3073723495446288
 30
0.0
 40
2.933133706701327
 50
179.584755099687186
 51
184.7038505433860109
  0
ARC
  5
21373
  8
0
 10
57.1458842282422594
 20
25.2315800389180716
 30
0.0
 40
2.0092031984632519
 50
184.7031369565208081
 51
194.1076243457295902
  0
ARC
  5
21374
  8
0
 10
56.3377362601654426
 20
25.0258229123565101
 30
0.0
 40
1.175280036030306
 50
193.9823284022648977
 51
204.9229588213154045
  0
ARC
  5
21375
  8
0
 10
55.5006839299989991
 20
24.5122885386587583
 30
0.0
 40
0.1813200795067352
 50
226.3044138838642141
 51
239.5449873117715072
  0
ARC
  5
21376
  8
0
 10
55.7181888495131616
 20
24.7292964428867386
 30
0.0
 40
0.4885346506399915
 50
204.0039411784638048
 51
225.4428794538110026
  0
ARC
  5
21377
  8
0
 10
55.4841127946415895
 20
26.0126247564660211
 30
0.0
 40
0.242557461837818
 50
50.0858030969923576
 51
90.1208046576396669
  0
ARC
  5
21378
  8
0
 10
55.32401156135208
 20
25.8934880900181206
 30
0.0
 40
0.4391169842369124
 50
15.3908236215737109
 51
44.0260261562962398
  0
ARC
  5
21379
  8
0
 10
53.3148363850530984
 20
25.3088247269049305
 30
0.0
 40
2.531592843921175
 50
359.5191986804716748
 51
16.0801659237697514
  0
ARC
  5
2137A
  8
0
 10
53.6083032100564125
 20
25.2868225137007805
 30
0.0
 40
2.2380370126170641
 50
346.1842045846177029
 51
0.0194165970795548
  0
ARC
  5
2137B
  8
0
 10
54.9614841953538686
 20
24.9210338336540396
 30
0.0
 40
0.8372690500672353
 50
330.376321245456495
 51
348.3789813296173747
  0
ARC
  5
2137C
  8
0
 10
55.2224520108825274
 20
24.7579073005098707
 30
0.0
 40
0.5299333079433046
 50
320.357442190359393
 51
331.7612085060750928
  0
ARC
  5
2137D
  8
0
 10
55.3997806051897825
 20
24.6122023559984306
 30
0.0
 40
0.3004255421537954
 50
307.7367123929951163
 51
320.1788589499274167
  0
ARC
  5
2137E
  8
0
 10
55.4798295320410801
 20
24.4866618428465692
 30
0.0
 40
0.1507910321189925
 50
269.6823859879028191
 51
299.8283180375127017
  0
ARC
  5
2137F
  8
0
 10
55.4502097079252891
 20
24.5479967154614691
 30
0.0
 40
0.2187861587674953
 50
298.5679555333280746
 51
307.5835393478033097
  0
ARC
  5
21380
  8
0
 10
55.4831312082046608
 20
26.0019506610186788
 30
0.0
 40
0.2292239388661431
 50
46.9546669321735521
 51
89.8824785507975861
  0
ARC
  5
21381
  8
0
 10
55.4827791458733302
 20
26.0016172154237992
 30
0.0
 40
0.2297079370303515
 50
26.9895278388819513
 51
46.9472614387004725
  0
ARC
  5
21382
  8
0
 10
54.9800987793578031
 20
25.7400833481197395
 30
0.0
 40
0.7963476220993682
 50
15.5276260133673905
 51
27.343503391138011
  0
ARC
  5
21383
  8
0
 10
53.3885449592239425
 20
25.3159749591112799
 30
0.0
 40
2.4434093753812651
 50
1.5944450299702799
 51
15.1187960369994396
  0
ARC
  5
21384
  8
0
 10
52.6890952996695816
 20
25.3111562646706112
 30
0.0
 40
3.1427564222841919
 50
0.3065337289439535
 51
1.327447189803415
  0
ARC
  5
21385
  8
0
 10
52.9676307998106068
 20
25.2859646016091304
 30
0.0
 40
2.8644839497205399
 50
355.5998872627815217
 51
0.8402276045129194
  0
ARC
  5
21386
  8
0
 10
53.8430223300292994
 20
25.2276596084713809
 30
0.0
 40
1.9872198368463501
 50
345.9478350882012023
 51
355.3395968306248278
  0
ARC
  5
21387
  8
0
 10
54.6110879141841181
 20
25.0326163609847505
 30
0.0
 40
1.1947841370718051
 50
335.2311565906269948
 51
346.0780938669382749
  0
ARC
  5
21388
  8
0
 10
55.4632247720023699
 20
24.5123239355586087
 30
0.0
 40
0.1813200795067352
 50
300.346729829034075
 51
313.5873032568954955
  0
ARC
  5
21389
  8
0
 10
55.2985194559091227
 20
24.7015226535352497
 30
0.0
 40
0.4320627047024316
 50
312.1092492857881098
 51
336.9062151601070241
  0
CIRCLE
  5
2138A
  8
0
 10
55.1462183733742606
 20
28.1970336818346183
 30
0.0
 40
0.0291647465657095
  0
CIRCLE
  5
2138B
  8
0
 10
55.3234590560082324
 20
28.13605378870799
 30
0.0
 40
0.0291647465657095
  0
CIRCLE
  5
2138C
  8
0
 10
55.3009408309716903
 20
28.2996945600411607
 30
0.0
 40
0.0291647465657095
  0
CIRCLE
  5
2138D
  8
0
 10
55.4836013774015484
 20
28.3361382819082692
 30
0.0
 40
0.0298228788625408
  0
CIRCLE
  5
2138E
  8
0
 10
55.4834167492500114
 20
28.1786591599880509
 30
0.0
 40
0.0291647465657095
  0
CIRCLE
  5
2138F
  8
0
 10
55.6662314639429425
 20
28.2998025068812709
 30
0.0
 40
0.0291647465657095
  0
CIRCLE
  5
21390
  8
0
 10
55.643743698793962
 20
28.13605378870799
 30
0.0
 40
0.0291647465657095
  0
CIRCLE
  5
21391
  8
0
 10
55.8207046907795288
 20
28.1965239349753283
 30
0.0
 40
0.0291647465657095
  0
CIRCLE
  5
21392
  8
0
 10
55.9248418790016188
 20
28.0415904718916984
 30
0.0
 40
0.0291647465657095
  0
CIRCLE
  5
21393
  8
0
 10
55.760389649130353
 20
28.0191737918428991
 30
0.0
 40
0.0291647465657095
  0
CIRCLE
  5
21394
  8
0
 10
55.8037624584007901
 20
27.8588236372916995
 30
0.0
 40
0.0291647465657095
  0
CIRCLE
  5
21395
  8
0
 10
55.9604635004281121
 20
27.85894402420071
 30
0.0
 40
0.0291647465657095
  0
CIRCLE
  5
21396
  8
0
 10
55.7608692341013779
 20
27.6987430358916988
 30
0.0
 40
0.0291647465657095
  0
CIRCLE
  5
21397
  8
0
 10
55.9248418790016188
 20
27.6766892165232612
 30
0.0
 40
0.0291647465657095
  0
CIRCLE
  5
21398
  8
0
 10
55.6436770159011687
 20
27.5815636752917008
 30
0.0
 40
0.0291647465657095
  0
CIRCLE
  5
21399
  8
0
 10
55.8213117647014698
 20
27.5211121277916995
 30
0.0
 40
0.0291647465657095
  0
CIRCLE
  5
2139A
  8
0
 10
55.6664614063806269
 20
27.4173879230529387
 30
0.0
 40
0.0291647465657095
  0
CIRCLE
  5
2139B
  8
0
 10
55.4839511825560834
 20
27.3812363237070784
 30
0.0
 40
0.0291647465657095
  0
CIRCLE
  5
2139C
  8
0
 10
55.4836018320015611
 20
27.5386621015917008
 30
0.0
 40
0.0291647465657095
  0
CIRCLE
  5
2139D
  8
0
 10
55.3230387195083324
 20
27.5814074601140895
 30
0.0
 40
0.0291647465657095
  0
CIRCLE
  5
2139E
  8
0
 10
55.1455662752605491
 20
27.5216301524691183
 30
0.0
 40
0.0291647465657095
  0
CIRCLE
  5
2139F
  8
0
 10
55.2063335207008024
 20
27.6987430358916988
 30
0.0
 40
0.0291647465657095
  0
CIRCLE
  5
213A0
  8
0
 10
55.0431922681902321
 20
27.6761352858393117
 30
0.0
 40
0.0291647465657095
  0
CIRCLE
  5
213A1
  8
0
 10
55.0061063533873025
 20
27.8592759554838096
 30
0.0
 40
0.0291647465657095
  0
CIRCLE
  5
213A2
  8
0
 10
55.1634402964013972
 20
27.8588236372916995
 30
0.0
 40
0.0291647465657095
  0
CIRCLE
  5
213A3
  8
0
 10
55.2063224669451102
 20
28.0192768517936699
 30
0.0
 40
0.0291647465657095
  0
CIRCLE
  5
213A4
  8
0
 10
55.0421031809237178
 20
28.0419787944108414
 30
0.0
 40
0.0291647465657095
  0
CIRCLE
  5
213A5
  8
0
 10
55.30124270173242
 20
27.4175749138399603
 30
0.0
 40
0.0196845937614746
  0
CIRCLE
  5
213A6
  8
0
 10
55.3014256082352986
 20
27.4179106887646107
 30
0.0
 40
0.0291647465657095
  0
CIRCLE
  5
213A7
  8
0
 10
55.6664614063806269
 20
27.4173879230529387
 30
0.0
 40
0.0196845937614746
  0
LINE
  5
213A8
  8
0
 10
55.0123422634255732
 20
26.7135475921554786
 30
0.0
 11
55.9548604912774792
 21
26.7135475921554786
 31
0.0
  0
LINE
  5
213A9
  8
0
 10
54.9932865367313681
 20
26.6134430962437598
 30
0.0
 11
55.9739162179716772
 21
26.6134430962437598
 31
0.0
  0
LINE
  5
213AA
  8
0
 10
55.9494498347116789
 20
23.8067758074554803
 30
0.0
 11
55.0177529199904569
 21
23.8067758074554803
 31
0.0
  0
LINE
  5
213AB
  8
0
 10
54.5662934995590021
 20
23.1036778707752788
 30
0.0
 11
56.4009092431452927
 21
23.1036778725150818
 31
0.0
  0
ARC
  5
213AC
  8
0
 10
56.3851761778194103
 20
23.1548589732251706
 30
0.0
 40
0.0590551183490202
 50
323.1737075364753196
 51
82.5306408035869481
  0
ARC
  5
213AD
  8
0
 10
56.4009092431079324
 20
23.1430778725150788
 30
0.0
 40
0.0394
 50
270.0000000543345777
 51
323.1737075364753196
  0
ARC
  5
213AE
  8
0
 10
54.5820265621919418
 20
23.1548589724543099
 30
0.0
 40
0.0590551168340337
 50
97.4693422321855962
 51
216.8262992991014073
  0
ARC
  5
213AF
  8
0
 10
54.5662934995216204
 20
23.1430778707752793
 30
0.0
 40
0.0394
 50
216.8262992991014073
 51
270.0000000543345777
  0
ARC
  5
213B0
  8
0
 10
49.8057117760399493
 20
25.3580774552463097
 30
0.0
 40
6.3019133844765083
 50
352.6744819247941223
 51
5.6711598660238156
  0
ARC
  5
213B1
  8
0
 10
28.1429485015160488
 20
28.1429486114834511
 30
0.0
 40
28.1429486173793499
 50
351.1928800039573275
 51
352.6744814195291156
  0
ARC
  5
213B2
  8
0
 10
50.320321643449951
 20
25.3688811526782096
 30
0.0
 40
5.788893603728857
 50
6.0680774495918444
 51
12.2365900203568803
  0
ARC
  5
213B3
  8
0
 10
61.16149096556898
 20
25.3580774552463097
 30
0.0
 40
6.3019133844765083
 50
174.3288401339762004
 51
187.3255180752059061
  0
ARC
  5
213B4
  8
0
 10
82.8242542400928841
 20
28.1429486114834511
 30
0.0
 40
28.1429486173793499
 50
187.3255185804707992
 51
188.8071199960427009
  0
ARC
  5
213B5
  8
0
 10
60.6468810981589783
 20
25.3688811526782096
 30
0.0
 40
5.788893603728857
 50
167.763409979643086
 51
173.9319225504081032
  0
ARC
  5
213B6
  8
0
 10
55.4836013987280126
 20
25.9522185304799287
 30
0.0
 40
0.2131306033595861
 50
33.6295351698782383
 51
146.3705465473528022
  0
ARC
  5
213B7
  8
0
 10
56.0740884752439968
 20
25.543707773539861
 30
0.0
 40
0.9311254760382524
 50
145.5633375346442051
 51
161.5403277428621038
  0
ARC
  5
213B8
  8
0
 10
54.8931141178024689
 20
25.5437076890632291
 30
0.0
 40
0.9311256966787151
 50
18.9599711035514602
 51
34.4366783425620113
  0
ARC
  5
213B9
  8
0
 10
55.6553211737044506
 20
25.2991626025761498
 30
0.0
 40
0.1968503937000244
 50
14.1410534331319209
 51
26.8903985557191483
  0
ARC
  5
213BA
  8
0
 10
55.3118815680044733
 20
25.2991626025761498
 30
0.0
 40
0.1968503937000015
 50
154.270369937444201
 51
168.2504883016223118
  0
LINE
  5
213BB
  8
0
 10
55.219821849801157
 20
25.9560255285547399
 30
0.0
 11
55.219821843304473
 21
26.0085203850506517
 31
0.0
  0
LINE
  5
213BC
  8
0
 10
55.7473808984044723
 20
25.9532679747103288
 30
0.0
 11
55.7473808984044723
 21
26.0100304869779606
 31
0.0
  0
LINE
  5
213BD
  8
0
 10
55.4836013774015484
 20
23.1036778716451785
 30
0.0
 11
53.4734952149898177
 21
20.789521962193831
 31
0.0
  0
ENDBLK
  5
213C1
  8
0
  0
BLOCK
  8
0
  2
A$CE08E8668
 70
     0
 10
0.0
 20
0.0
 30
0.0
  3
A$CE08E8668
  1

  0
ARC
  5
2160F
  8
0
 10
55.0238715463462711
 20
26.6594869370747283
 30
0.0
 40
0.055276345344428
 50
102.0387784253695003
 51
236.4056569668225904
  0
LINE
  5
21610
  8
0
 10
54.9895069691249105
 20
26.5958310354845509
 30
0.0
 11
54.9932866298453078
 21
26.6134430749728104
 31
0.0
  0
LINE
  5
21611
  8
0
 10
55.0131290294187707
 20
23.8340200117845313
 30
0.0
 11
55.0177530130079901
 21
23.8067757862483091
 31
0.0
  0
ARC
  5
21612
  8
0
 10
55.0474481355798133
 20
23.7603409176634415
 30
0.0
 40
0.0551180308524271
 50
122.5989361553362045
 51
224.3836581430130082
  0
LINE
  5
21613
  8
0
 10
54.9804700275397025
 20
23.7217880856689796
 30
0.0
 11
55.9867329002043022
 21
23.7217880856689796
 31
0.0
  0
ARC
  5
21614
  8
0
 10
54.5538779364794806
 20
23.36955697789816
 30
0.0
 40
0.1574803144791513
 50
277.4693604954480861
 51
309.0508698875850087
  0
ARC
  5
21615
  8
0
 10
54.1570211980395229
 20
23.8587456157051996
 30
0.0
 40
0.7874015747999981
 50
309.050866476805993
 51
346.6105708972302182
  0
ARC
  5
21616
  8
0
 10
54.9804700277216014
 20
23.6627329672780391
 30
0.0
 40
0.0590551183909351
 50
90.0000001763930584
 51
166.610566058146901
  0
LINE
  5
21617
  8
0
 10
54.5743497455971607
 20
23.2134129595051988
 30
0.0
 11
56.3928531979830012
 21
23.2134129595051917
 31
0.0
  0
ARC
  5
21618
  8
0
 10
5530.4810534966718478
 20
-2057.0557079545769739
 30
0.0
 40
5858.5708083925237588
 50
159.162462978372389
 51
159.164949683330093
  0
ARC
  5
21619
  8
0
 10
54.7247435646898808
 20
27.1060433591333307
 30
0.0
 40
0.4085292059267575
 50
337.724710210971125
 51
2.4532452837849639
  0
CIRCLE
  5
2161A
  8
0
 10
55.4836014704190816
 20
27.8588231613845316
 30
0.0
 40
0.814731862484451
  0
CIRCLE
  5
2161B
  8
0
 10
55.4836014704190816
 20
27.8588231613845316
 30
0.0
 40
0.7106299212999998
  0
CIRCLE
  5
2161C
  8
0
 10
55.4836014704190816
 20
27.8588231613845316
 30
0.0
 40
0.6299212597999997
  0
CIRCLE
  5
2161D
  8
0
 10
55.4836014704190816
 20
27.8588231613845316
 30
0.0
 40
0.5905511811000004
  0
CIRCLE
  5
2161E
  8
0
 10
55.4836014704190816
 20
27.8588231613845316
 30
0.0
 40
0.1749644569999997
  0
CIRCLE
  5
2161F
  8
0
 10
55.4836014704190816
 20
27.8588231613845316
 30
0.0
 40
0.2362204724000003
  0
CIRCLE
  5
21620
  8
0
 10
55.9197059146184472
 20
28.0393765002845292
 30
0.0
 40
0.0578153805000001
  0
CIRCLE
  5
21621
  8
0
 10
55.9248419720191521
 20
28.0415904506845202
 30
0.0
 40
0.0197439105728207
  0
CIRCLE
  5
21622
  8
0
 10
55.8174136398186889
 20
28.1925236265845314
 30
0.0
 40
0.0578142807999997
  0
CIRCLE
  5
21623
  8
0
 10
55.8209844744463695
 20
28.1970336606274508
 30
0.0
 40
0.0199410015487916
  0
CIRCLE
  5
21624
  8
0
 10
55.9556119410184323
 20
27.856609485484519
 30
0.0
 40
0.0578153805000001
  0
CIRCLE
  5
21625
  8
0
 10
55.9607479984191301
 20
27.8588234358845312
 30
0.0
 40
0.0197439105728207
  0
CIRCLE
  5
21626
  8
0
 10
55.9248419720191521
 20
27.6766891953160901
 30
0.0
 40
0.0197439105728207
  0
CIRCLE
  5
21627
  8
0
 10
55.7986264940185279
 20
27.8566096656845303
 30
0.0
 40
0.0578153805000001
  0
CIRCLE
  5
21628
  8
0
 10
55.8037625514183233
 20
27.8588236160845213
 30
0.0
 40
0.0197439105728207
  0
CIRCLE
  5
21629
  8
0
 10
55.7608693271189111
 20
27.6987430146845313
 30
0.0
 40
0.0197439105728207
  0
CIRCLE
  5
2162A
  8
0
 10
55.9197059328183528
 20
27.6782699158845311
 30
0.0
 40
0.0578154504999997
  0
CIRCLE
  5
2162B
  8
0
 10
55.8213118577190031
 20
27.5211121065845283
 30
0.0
 40
0.0197334274665812
  0
CIRCLE
  5
2162C
  8
0
 10
55.8174137018189427
 20
27.5251227509845293
 30
0.0
 40
0.0578143457999998
  0
CIRCLE
  5
2162D
  8
0
 10
55.6641548092187293
 20
27.4227187171845301
 30
0.0
 40
0.0576668165791591
  0
CIRCLE
  5
2162E
  8
0
 10
55.6436771089187019
 20
27.5815636540845297
 30
0.0
 40
0.0195972120847496
  0
CIRCLE
  5
2162F
  8
0
 10
55.4836019250191015
 20
27.5386620803845297
 30
0.0
 40
0.0196845937614746
  0
CIRCLE
  5
21630
  8
0
 10
55.4840405959386871
 20
27.38086956084787
 30
0.0
 40
0.0196845937614746
  0
CIRCLE
  5
21631
  8
0
 10
55.6662315569604687
 20
28.2998024856740997
 30
0.0
 40
0.0199410015487916
  0
CIRCLE
  5
21632
  8
0
 10
55.48350304953928
 20
28.3362837242334784
 30
0.0
 40
0.0197884122425325
  0
CIRCLE
  5
21633
  8
0
 10
55.4833104001993718
 20
28.1793491367619815
 30
0.0
 40
0.0199410015487916
  0
CIRCLE
  5
21634
  8
0
 10
55.6437437918114881
 20
28.1360537675008118
 30
0.0
 40
0.0199410015487916
  0
CIRCLE
  5
21635
  8
0
 10
55.7610056363113031
 20
28.0185022731694993
 30
0.0
 40
0.0199410015487916
  0
CIRCLE
  5
21636
  8
0
 10
55.0474970262187995
 20
28.0393765002845292
 30
0.0
 40
0.0578153805000001
  0
CIRCLE
  5
21637
  8
0
 10
55.042360968818997
 20
28.0415904506845202
 30
0.0
 40
0.0197439105728207
  0
CIRCLE
  5
21638
  8
0
 10
55.149789301018572
 20
28.1925236265845314
 30
0.0
 40
0.0578142807999997
  0
CIRCLE
  5
21639
  8
0
 10
55.1462184663918009
 20
28.1970336606274508
 30
0.0
 40
0.0199410015487916
  0
CIRCLE
  5
2163A
  8
0
 10
55.0115909998188286
 20
27.856609485484519
 30
0.0
 40
0.0578153805000001
  0
CIRCLE
  5
2163B
  8
0
 10
55.0064549424190332
 20
27.8588234358845312
 30
0.0
 40
0.0197439105728207
  0
CIRCLE
  5
2163C
  8
0
 10
55.042360968818997
 20
27.6766891953160901
 30
0.0
 40
0.0197439105728207
  0
CIRCLE
  5
2163D
  8
0
 10
55.168576446818733
 20
27.8566096656845303
 30
0.0
 40
0.0578153805000001
  0
CIRCLE
  5
2163E
  8
0
 10
55.1634403894189305
 20
27.8588236160845213
 30
0.0
 40
0.0197439105728207
  0
CIRCLE
  5
2163F
  8
0
 10
55.2063336137183285
 20
27.6987430146845313
 30
0.0
 40
0.0197439105728207
  0
CIRCLE
  5
21640
  8
0
 10
55.047497008018901
 20
27.6782699158845311
 30
0.0
 40
0.0578154504999997
  0
CIRCLE
  5
21641
  8
0
 10
55.1458910831191602
 20
27.5211121065845283
 30
0.0
 40
0.0197334274665812
  0
CIRCLE
  5
21642
  8
0
 10
55.1497892390183111
 20
27.5251227509845293
 30
0.0
 40
0.0578143457999998
  0
CIRCLE
  5
21643
  8
0
 10
55.3030481316185103
 20
27.4227187171845301
 30
0.0
 40
0.0576668165791591
  0
CIRCLE
  5
21644
  8
0
 10
55.3235258319185519
 20
27.5815636540845297
 30
0.0
 40
0.0195972120847496
  0
CIRCLE
  5
21645
  8
0
 10
55.3009713838767709
 20
28.2998024856740997
 30
0.0
 40
0.0199410015487916
  0
CIRCLE
  5
21646
  8
0
 10
55.3234591490257586
 20
28.1360537675008118
 30
0.0
 40
0.0199410015487916
  0
CIRCLE
  5
21647
  8
0
 10
55.2061973045259506
 20
28.0185022731694993
 30
0.0
 40
0.0199410015487916
  0
ARC
  5
21648
  8
0
 10
55.9433313943918478
 20
26.6594869370747212
 30
0.0
 40
0.0552763453444299
 50
303.5943430331798254
 51
77.9612215746292776
  0
LINE
  5
21649
  8
0
 10
55.9776959585190994
 20
26.5958310354845509
 30
0.0
 11
55.9739163108928111
 21
26.6134430749728104
 31
0.0
  0
LINE
  5
2164A
  8
0
 10
55.9540739113184387
 20
23.8340200117845313
 30
0.0
 11
55.9494499277182129
 21
23.8067757861845308
 31
0.0
  0
ARC
  5
2164B
  8
0
 10
55.9197548052435565
 20
23.7603409176341813
 30
0.0
 40
0.055118030771034
 50
315.6163418167271857
 51
57.4010639103456626
  0
ARC
  5
2164C
  8
0
 10
56.4133250071006529
 20
23.36955697789816
 30
0.0
 40
0.1574803144791513
 50
230.9491301124149913
 51
262.5306395045519139
  0
ARC
  5
2164D
  8
0
 10
56.8101817455397082
 20
23.8587456157051996
 30
0.0
 40
0.7874015747999981
 50
193.3894291027694976
 51
230.9491335231938933
  0
ARC
  5
2164E
  8
0
 10
55.9867329158576084
 20
23.6627329672780391
 30
0.0
 40
0.0590551183909414
 50
13.3894339418553496
 51
90.0000151874158547
  0
ARC
  5
2164F
  8
0
 10
-5419.5069240972479747
 20
-2057.0530718301288289
 30
0.0
 40
5858.5633972534760687
 50
20.83505031520858
 51
20.8375370233120805
  0
ARC
  5
21650
  8
0
 10
56.2424593760482381
 20
27.1060433591333307
 30
0.0
 40
0.4085292059267575
 50
177.5467547162149913
 51
202.2752897890287045
  0
ARC
  5
21651
  8
0
 10
55.4832705573892611
 20
26.0129770421495898
 30
0.0
 40
0.2422048418563705
 50
89.9217194595452582
 51
130.0397683955505101
  0
ARC
  5
21652
  8
0
 10
55.6242890890921515
 20
25.9047067311036692
 30
0.0
 40
0.4175774758909944
 50
135.303842292069703
 51
165.6047647810721912
  0
ARC
  5
21653
  8
0
 10
57.6030582387059908
 20
25.3078479440759914
 30
0.0
 40
2.48410086746724
 50
163.6166422717820979
 51
180.4516116183094141
  0
ARC
  5
21654
  8
0
 10
57.35706599047748
 20
25.2832801123519495
 30
0.0
 40
2.2380370126170641
 50
179.8723005437149141
 51
193.707512556181598
  0
ARC
  5
21655
  8
0
 10
56.1571056117003096
 20
24.9776369210021585
 30
0.0
 40
0.99990618190914
 50
192.9861504799249019
 51
208.0419812266138138
  0
ARC
  5
21656
  8
0
 10
55.7419204800165602
 20
24.7574164094842395
 30
0.0
 40
0.5299333079433048
 50
208.1305086347437907
 51
219.5342749504268056
  0
ARC
  5
21657
  8
0
 10
55.5643168358850303
 20
24.6120468569455504
 30
0.0
 40
0.3004255421537954
 50
219.7128581908743001
 51
232.1550047477539067
  0
ARC
  5
21658
  8
0
 10
55.4926858323573029
 20
24.5162894258633592
 30
0.0
 40
0.1809351318264615
 50
242.3715961425770899
 51
265.660045705774678
  0
ARC
  5
21659
  8
0
 10
55.5137664815268579
 20
24.547936636592091
 30
0.0
 40
0.2187861587674954
 50
232.3081777929926091
 51
241.323761607494788
  0
ARC
  5
2165A
  8
0
 10
55.4836014704190816
 20
26.001950429786941
 30
0.0
 40
0.2292236666999963
 50
90.0
 51
132.9370631050402096
  0
ARC
  5
2165B
  8
0
 10
55.4839530495713475
 20
26.0016160850283491
 30
0.0
 40
0.2297079370303516
 50
132.9444557020912896
 51
152.9021893018831122
  0
ARC
  5
2165C
  8
0
 10
55.9917438768955904
 20
25.7365290323088516
 30
0.0
 40
0.8025223827803371
 50
152.5677571440047871
 51
164.1268659820599964
  0
ARC
  5
2165D
  8
0
 10
57.5799811065405507
 20
25.3117424105170592
 30
0.0
 40
2.4465183397967309
 50
164.7312497098074004
 51
178.2929986130044995
  0
ARC
  5
2165E
  8
0
 10
58.2763182474439887
 20
25.305876616840429
 30
0.0
 40
3.1427564222841928
 50
178.5642699509895976
 51
179.5851834118506076
  0
ARC
  5
2165F
  8
0
 10
58.0667008668418489
 20
25.3073723283374612
 30
0.0
 40
2.933133706701327
 50
179.584755099687186
 51
184.7038505433860109
  0
ARC
  5
21660
  8
0
 10
57.1458843212597927
 20
25.2315800177109004
 30
0.0
 40
2.0092031984632519
 50
184.7031369565208081
 51
194.1076243457295902
  0
ARC
  5
21661
  8
0
 10
56.33773635318299
 20
25.025822891149339
 30
0.0
 40
1.175280036030306
 50
193.9823284022648977
 51
204.9229588213154045
  0
ARC
  5
21662
  8
0
 10
55.5006840230165395
 20
24.5122885174515801
 30
0.0
 40
0.1813200795067352
 50
226.3044138838642141
 51
239.5449873117715072
  0
ARC
  5
21663
  8
0
 10
55.7181889425306878
 20
24.729296421679571
 30
0.0
 40
0.4885346506399915
 50
204.0039411784638048
 51
225.4428794538110026
  0
ARC
  5
21664
  8
0
 10
55.4841128876591227
 20
26.01262473525885
 30
0.0
 40
0.242557461837818
 50
50.0858030969923576
 51
90.1208046576396669
  0
ARC
  5
21665
  8
0
 10
55.3240116543696203
 20
25.8934880688109494
 30
0.0
 40
0.4391169842369124
 50
15.3908236215737109
 51
44.0260261562962398
  0
ARC
  5
21666
  8
0
 10
53.3148364780706316
 20
25.3088247056977487
 30
0.0
 40
2.531592843921175
 50
359.5191986804716748
 51
16.0801659237697514
  0
ARC
  5
21667
  8
0
 10
53.6083033030739387
 20
25.2868224924936094
 30
0.0
 40
2.2380370126170641
 50
346.1842045846177029
 51
0.0194165970795548
  0
ARC
  5
21668
  8
0
 10
54.9614842883714019
 20
24.9210338124468684
 30
0.0
 40
0.8372690500672353
 50
330.376321245456495
 51
348.3789813296173747
  0
ARC
  5
21669
  8
0
 10
55.2224521039000606
 20
24.7579072793026889
 30
0.0
 40
0.5299333079433046
 50
320.357442190359393
 51
331.7612085060750928
  0
ARC
  5
2166A
  8
0
 10
55.3997806982073087
 20
24.6122023347912489
 30
0.0
 40
0.3004255421537954
 50
307.7367123929951163
 51
320.1788589499274167
  0
ARC
  5
2166B
  8
0
 10
55.4798296250586205
 20
24.486661821639391
 30
0.0
 40
0.1507910321189925
 50
269.6823859879028191
 51
299.8283180375127017
  0
ARC
  5
2166C
  8
0
 10
55.4502098009428224
 20
24.5479966942543015
 30
0.0
 40
0.2187861587674953
 50
298.5679555333280746
 51
307.5835393478033097
  0
ARC
  5
2166D
  8
0
 10
55.4831313012221869
 20
26.0019506398115006
 30
0.0
 40
0.2292239388661431
 50
46.9546669321735521
 51
89.8824785507975861
  0
ARC
  5
2166E
  8
0
 10
55.4827792388908634
 20
26.0016171942166316
 30
0.0
 40
0.2297079370303515
 50
26.9895278388819513
 51
46.9472614387004725
  0
ARC
  5
2166F
  8
0
 10
54.9800988723753292
 20
25.7400833269125613
 30
0.0
 40
0.7963476220993682
 50
15.5276260133673905
 51
27.343503391138011
  0
ARC
  5
21670
  8
0
 10
53.3885450522414686
 20
25.3159749379041017
 30
0.0
 40
2.4434093753812651
 50
1.5944450299702799
 51
15.1187960369994396
  0
ARC
  5
21671
  8
0
 10
52.6890953926871219
 20
25.3111562434634294
 30
0.0
 40
3.1427564222841919
 50
0.3065337289437499
 51
1.327447189803415
  0
ARC
  5
21672
  8
0
 10
52.9676308928281401
 20
25.2859645804019486
 30
0.0
 40
2.8644839497205399
 50
355.5998872627815217
 51
0.8402276045129194
  0
ARC
  5
21673
  8
0
 10
53.8430224230468397
 20
25.2276595872642098
 30
0.0
 40
1.9872198368463501
 50
345.9478350882012023
 51
355.3395968306248278
  0
ARC
  5
21674
  8
0
 10
54.6110880072016585
 20
25.0326163397775794
 30
0.0
 40
1.1947841370718051
 50
335.2311565906269948
 51
346.0780938669382749
  0
ARC
  5
21675
  8
0
 10
55.4632248650199031
 20
24.5123239143514304
 30
0.0
 40
0.1813200795067352
 50
300.346729829034075
 51
313.5873032568954955
  0
ARC
  5
21676
  8
0
 10
55.2985195489266701
 20
24.7015226323280785
 30
0.0
 40
0.4320627047024316
 50
312.1092492857881098
 51
336.9062151601070241
  0
CIRCLE
  5
21677
  8
0
 10
55.1462184663918009
 20
28.1970336606274508
 30
0.0
 40
0.0291647465657095
  0
CIRCLE
  5
21678
  8
0
 10
55.3234591490257586
 20
28.1360537675008118
 30
0.0
 40
0.0291647465657095
  0
CIRCLE
  5
21679
  8
0
 10
55.3009409239892165
 20
28.2996945388339789
 30
0.0
 40
0.0291647465657095
  0
CIRCLE
  5
2167A
  8
0
 10
55.4836014704190816
 20
28.3361382607011016
 30
0.0
 40
0.0298228788625408
  0
CIRCLE
  5
2167B
  8
0
 10
55.4834168422675376
 20
28.1786591387808798
 30
0.0
 40
0.0291647465657095
  0
CIRCLE
  5
2167C
  8
0
 10
55.6662315569604687
 20
28.2998024856740997
 30
0.0
 40
0.0291647465657095
  0
CIRCLE
  5
2167D
  8
0
 10
55.6437437918114881
 20
28.1360537675008118
 30
0.0
 40
0.0291647465657095
  0
CIRCLE
  5
2167E
  8
0
 10
55.820704783797062
 20
28.19652391376815
 30
0.0
 40
0.0291647465657095
  0
CIRCLE
  5
2167F
  8
0
 10
55.9248419720191521
 20
28.0415904506845202
 30
0.0
 40
0.0291647465657095
  0
CIRCLE
  5
21680
  8
0
 10
55.7603897421478933
 20
28.0191737706357316
 30
0.0
 40
0.0291647465657095
  0
CIRCLE
  5
21681
  8
0
 10
55.8037625514183233
 20
27.8588236160845213
 30
0.0
 40
0.0291647465657095
  0
CIRCLE
  5
21682
  8
0
 10
55.9604635934456525
 20
27.8589440029935282
 30
0.0
 40
0.0291647465657095
  0
CIRCLE
  5
21683
  8
0
 10
55.7608693271189111
 20
27.6987430146845313
 30
0.0
 40
0.0291647465657095
  0
CIRCLE
  5
21684
  8
0
 10
55.9248419720191521
 20
27.6766891953160901
 30
0.0
 40
0.0291647465657095
  0
CIRCLE
  5
21685
  8
0
 10
55.6436771089187019
 20
27.5815636540845297
 30
0.0
 40
0.0291647465657095
  0
CIRCLE
  5
21686
  8
0
 10
55.8213118577190031
 20
27.5211121065845283
 30
0.0
 40
0.0291647465657095
  0
CIRCLE
  5
21687
  8
0
 10
55.6664614993981601
 20
27.4173879018457711
 30
0.0
 40
0.0291647465657095
  0
CIRCLE
  5
21688
  8
0
 10
55.4839512755736095
 20
27.3812363024999108
 30
0.0
 40
0.0291647465657095
  0
CIRCLE
  5
21689
  8
0
 10
55.4836019250191015
 20
27.5386620803845297
 30
0.0
 40
0.0291647465657095
  0
CIRCLE
  5
2168A
  8
0
 10
55.3230388125258585
 20
27.5814074389069184
 30
0.0
 40
0.0291647465657095
  0
CIRCLE
  5
2168B
  8
0
 10
55.1455663682780823
 20
27.5216301312619507
 30
0.0
 40
0.0291647465657095
  0
CIRCLE
  5
2168C
  8
0
 10
55.2063336137183285
 20
27.6987430146845313
 30
0.0
 40
0.0291647465657095
  0
CIRCLE
  5
2168D
  8
0
 10
55.0431923612077583
 20
27.6761352646321299
 30
0.0
 40
0.0291647465657095
  0
CIRCLE
  5
2168E
  8
0
 10
55.0061064464048286
 20
27.8592759342766314
 30
0.0
 40
0.0291647465657095
  0
CIRCLE
  5
2168F
  8
0
 10
55.1634403894189305
 20
27.8588236160845213
 30
0.0
 40
0.0291647465657095
  0
CIRCLE
  5
21690
  8
0
 10
55.2063225599626435
 20
28.0192768305864988
 30
0.0
 40
0.0291647465657095
  0
CIRCLE
  5
21691
  8
0
 10
55.0421032739412581
 20
28.0419787732036596
 30
0.0
 40
0.0291647465657095
  0
CIRCLE
  5
21692
  8
0
 10
55.3012427947499532
 20
27.4175748926327891
 30
0.0
 40
0.0196845937614746
  0
CIRCLE
  5
21693
  8
0
 10
55.3014257012528319
 20
27.4179106675574289
 30
0.0
 40
0.0291647465657095
  0
CIRCLE
  5
21694
  8
0
 10
55.6664614993981601
 20
27.4173879018457711
 30
0.0
 40
0.0196845937614746
  0
LINE
  5
21695
  8
0
 10
55.0123423564431135
 20
26.7135475709483003
 30
0.0
 11
55.9548605842950124
 21
26.7135475709483003
 31
0.0
  0
LINE
  5
21696
  8
0
 10
54.9932866297489014
 20
26.6134430750365887
 30
0.0
 11
55.9739163109892175
 21
26.6134430750365887
 31
0.0
  0
LINE
  5
21697
  8
0
 10
55.9494499277182911
 20
23.8067757861845308
 30
0.0
 11
55.0177530130079901
 21
23.8067757862483091
 31
0.0
  0
LINE
  5
21698
  8
0
 10
54.5662935925765282
 20
23.1036778495681112
 30
0.0
 11
56.4009093361628189
 21
23.1036778513079106
 31
0.0
  0
ARC
  5
21699
  8
0
 10
56.3851762708369435
 20
23.1548589520179995
 30
0.0
 40
0.0590551183490202
 50
323.1737075364753196
 51
82.5306408035869481
  0
ARC
  5
2169A
  8
0
 10
56.4009093361254727
 20
23.1430778513079112
 30
0.0
 40
0.0394
 50
270.0000000543345777
 51
323.1737075364753196
  0
ARC
  5
2169B
  8
0
 10
54.5820266552094679
 20
23.1548589512471317
 30
0.0
 40
0.0590551168340337
 50
97.4693422321855962
 51
216.8262992991014073
  0
ARC
  5
2169C
  8
0
 10
54.5662935925391608
 20
23.1430778495681118
 30
0.0
 40
0.0394
 50
216.8262992991014073
 51
270.0000000543345777
  0
ARC
  5
2169D
  8
0
 10
49.8057118690574825
 20
25.3580774340391315
 30
0.0
 40
6.3019133844765083
 50
352.6744819247941223
 51
5.6711598660238156
  0
ARC
  5
2169E
  8
0
 10
28.1429485945335784
 20
28.1429485902762693
 30
0.0
 40
28.1429486173793499
 50
351.1928800039573275
 51
352.6744814195291156
  0
ARC
  5
2169F
  8
0
 10
50.3203217364674771
 20
25.3688811314710385
 30
0.0
 40
5.788893603728857
 50
6.0680774495918444
 51
12.2365900203568803
  0
ARC
  5
216A0
  8
0
 10
61.1614910585865132
 20
25.3580774340391315
 30
0.0
 40
6.3019133844765083
 50
174.3288401339762004
 51
187.3255180752059061
  0
ARC
  5
216A1
  8
0
 10
82.8241777934303514
 20
28.1429382483438708
 30
0.0
 40
28.1428713837729205
 50
187.3255175661452085
 51
188.8071230517024901
  0
ARC
  5
216A2
  8
0
 10
60.6468811911765187
 20
25.3688811314710385
 30
0.0
 40
5.788893603728857
 50
167.763409979643086
 51
173.9319225504081032
  0
ARC
  5
216A3
  8
0
 10
55.4836014917455529
 20
25.9522185092727611
 30
0.0
 40
0.2131306033595861
 50
33.6295351698782383
 51
146.3705465473528022
  0
ARC
  5
216A4
  8
0
 10
56.07408856826153
 20
25.5437077523326899
 30
0.0
 40
0.9311254760382524
 50
145.5633375346442051
 51
161.5403277428621038
  0
ARC
  5
216A5
  8
0
 10
54.8931142108200092
 20
25.5437076678560615
 30
0.0
 40
0.9311256966787151
 50
18.9599711035514602
 51
34.4366783425620113
  0
ARC
  5
216A6
  8
0
 10
55.6553212667219768
 20
25.2991625813689716
 30
0.0
 40
0.1968503937000244
 50
14.1410534331319209
 51
26.8903985557191483
  0
ARC
  5
216A7
  8
0
 10
55.3118816610219994
 20
25.2991625813689787
 30
0.0
 40
0.1968503937000015
 50
154.270369937444201
 51
168.2504883016223118
  0
LINE
  5
216A8
  8
0
 10
55.2198219428186974
 20
25.9560255073475616
 30
0.0
 11
55.2198219363220133
 21
26.0085203638434699
 31
0.0
  0
LINE
  5
216A9
  8
0
 10
55.7473809914220126
 20
25.9532679535031612
 30
0.0
 11
55.7473809914220126
 21
26.0100304657707895
 31
0.0
  0
LINE
  5
216AA
  8
0
 10
55.4836014704190816
 20
23.1036778504380109
 30
0.0
 11
53.473495308007351
 21
20.7895219409866492
 31
0.0
  0
CIRCLE
  5
216AB
  8
0
 10
55.3027317369845619
 20
28.2953859985792811
 30
0.0
 40
0.0581566988639158
  0
CIRCLE
  5
216AC
  8
0
 10
55.4837091680600309
 20
28.3305625327807888
 30
0.0
 40
0.0581566988639158
  0
CIRCLE
  5
216AD
  8
0
 10
55.4839210282133166
 20
28.174764365339481
 30
0.0
 40
0.0581566988639158
  0
CIRCLE
  5
216AE
  8
0
 10
55.6410134798460305
 20
28.1333970724660283
 30
0.0
 40
0.0581566988639158
  0
CIRCLE
  5
216AF
  8
0
 10
55.6641261078792624
 20
28.2953859985792704
 30
0.0
 40
0.0581566988639158
  0
CIRCLE
  5
216B0
  8
0
 10
55.7552046630724902
 20
28.0182133757526017
 30
0.0
 40
0.0581566988639158
  0
CIRCLE
  5
216B1
  8
0
 10
55.7558272649993114
 20
27.7020059236315817
 30
0.0
 40
0.0581566988639158
  0
CIRCLE
  5
216B2
  8
0
 10
55.6413325052998218
 20
27.5874820563085486
 30
0.0
 40
0.0581566988639158
  0
CIRCLE
  5
216B3
  8
0
 10
55.4836019015329995
 20
27.5442270804602494
 30
0.0
 40
0.0581566988639158
  0
CIRCLE
  5
216B4
  8
0
 10
55.3254372480069989
 20
27.5869619755245985
 30
0.0
 40
0.0581566988639158
  0
CIRCLE
  5
216B5
  8
0
 10
55.2110720366937286
 20
27.7015712906408211
 30
0.0
 40
0.0581566988639158
  0
CIRCLE
  5
216B6
  8
0
 10
55.2117424786703168
 20
28.017693295624909
 30
0.0
 40
0.0581566988639158
  0
CIRCLE
  5
216B7
  8
0
 10
55.3261110503336724
 20
28.1328769929945892
 30
0.0
 40
0.0581566988639158
  0
ENDBLK
  5
216BB
  8
0
  0
BLOCK
  8
0
  2
A$CD8777FC1
 70
     0
 10
0.0
 20
0.0
 30
0.0
  3
A$CD8777FC1
  1

  0
LINE
  5
217EC
  8
0
 10
130.0357907110019937
 20
77.6080279504938915
 30
0.0
 11
152.7591922197254064
 21
77.6080279468074963
 31
0.0
  0
LINE
  5
217ED
  8
0
 10
139.2321376231519992
 20
102.3710005791728008
 30
0.0
 11
139.2321376231519992
 21
103.672504121984602
 31
0.0
  0
LINE
  5
217EE
  8
0
 10
129.9964266285026895
 20
77.6467109296191609
 30
0.0
 11
129.9964266285026895
 21
77.6480851318289922
 31
0.0
  0
LINE
  5
217EF
  8
0
 10
130.5502152732020136
 20
77.5568468480938975
 30
0.0
 11
131.5344672418019911
 21
77.5568468480938975
 31
0.0
  0
ARC
  5
217F0
  8
0
 10
130.0357907110019937
 20
77.6473980291939085
 30
0.0
 40
0.0393700786999992
 50
180.9999955748681941
 51
270.0
  0
ARC
  5
217F1
  8
0
 10
131.1801928684346024
 20
77.6383688162777332
 30
0.0
 40
1.1838061148644541
 50
178.4702713147964914
 51
179.5297286293686909
  0
ARC
  5
217F2
  8
0
 10
206.3906545307324905
 20
76.4043294359978233
 30
0.0
 40
76.404329310080243
 50
178.9491510295912065
 51
179.0508489145676947
  0
ARC
  5
217F3
  8
0
 10
130.0385395401019935
 20
77.804878344193952
 30
0.0
 40
0.0393700786999978
 50
89.9999999999934914
 51
179.0000000217478089
  0
LINE
  5
217F4
  8
0
 10
130.0385395401019935
 20
77.8442484228939549
 30
0.0
 11
132.8041047418844869
 21
77.8442484228939406
 31
0.0
  0
LINE
  5
217F5
  8
0
 10
138.6522955118194034
 20
77.8442484228939122
 30
0.0
 11
144.1426872836019868
 21
77.8442484228939122
 31
0.0
  0
LINE
  5
217F6
  8
0
 10
130.4813176355021085
 20
77.5765318874939283
 30
0.0
 11
130.4813176355021085
 21
77.6080279504216151
 31
0.0
  0
LINE
  5
217F7
  8
0
 10
131.6033648795020952
 20
77.5765318874939283
 30
0.0
 11
131.6033648795020952
 21
77.6080279502395882
 31
0.0
  0
ARC
  5
217F8
  8
0
 10
130.4891916512019918
 20
77.5765318874939283
 30
0.0
 40
0.0078740157000023
 50
180.0000000000260059
 51
269.9999999999869829
  0
LINE
  5
217F9
  8
0
 10
130.4891916512019918
 20
77.5686578716939437
 30
0.0
 11
131.5954841724100106
 21
77.5686578716939437
 31
0.0
  0
ARC
  5
217FA
  8
0
 10
131.595490858784899
 20
77.5765318895720668
 30
0.0
 40
0.0078740207170792
 50
269.9513461316223015
 51
359.9999848782364893
  0
LINE
  5
217FB
  8
0
 10
131.5344672418019911
 20
77.5568468480938975
 30
0.0
 11
131.5344672418019911
 21
77.5686578716939437
 31
0.0
  0
LINE
  5
217FC
  8
0
 10
130.5502152732020136
 20
77.5568468480938975
 30
0.0
 11
130.5502152732020136
 21
77.5686578716939437
 31
0.0
  0
LINE
  5
217FD
  8
0
 10
140.9053654810520868
 20
77.5568468480938975
 30
0.0
 11
141.8896174496520075
 21
77.5568468480938975
 31
0.0
  0
LINE
  5
217FE
  8
0
 10
140.8364678433520965
 20
77.5765318874939283
 30
0.0
 11
140.8364678433520965
 21
77.6080279487416931
 31
0.0
  0
LINE
  5
217FF
  8
0
 10
141.9585150873521115
 20
77.5765318874939283
 30
0.0
 11
141.9585150873521115
 21
77.6080279485596805
 31
0.0
  0
ARC
  5
21800
  8
0
 10
140.8443418590520935
 20
77.5765318874939283
 30
0.0
 40
0.0078740157000023
 50
180.0000000000260059
 51
269.9999999999869829
  0
LINE
  5
21801
  8
0
 10
140.8443418590520935
 20
77.5686578716939437
 30
0.0
 11
141.9506343802599986
 21
77.5686578716939437
 31
0.0
  0
ARC
  5
21802
  8
0
 10
141.9506410666350007
 20
77.5765318895720668
 30
0.0
 40
0.0078740207170792
 50
269.9513461316223015
 51
359.9999848782364893
  0
LINE
  5
21803
  8
0
 10
141.8896174496520075
 20
77.5568468480938975
 30
0.0
 11
141.8896174496520075
 21
77.5686578716939437
 31
0.0
  0
LINE
  5
21804
  8
0
 10
140.9053654810520868
 20
77.5568468480938975
 30
0.0
 11
140.9053654810520868
 21
77.5686578716939437
 31
0.0
  0
ARC
  5
21805
  8
0
 10
129.9604789170151093
 20
100.4740360758780042
 30
0.0
 40
0.0393654044130021
 50
153.4333430935901106
 51
180.0000001442606106
  0
ARC
  5
21806
  8
0
 10
99.1910578131951013
 20
115.8949151661213932
 30
0.0
 40
34.3780834857658135
 50
333.3810347458248771
 51
333.4888616211230215
  0
ARC
  5
21807
  8
0
 10
129.9718102582021118
 20
100.5407053905938994
 30
0.0
 40
0.0196850394000016
 50
92.0000000942763307
 51
153.4349488537361879
  0
LINE
  5
21808
  8
0
 10
129.9711232602020914
 20
100.5603784378939025
 30
0.0
 11
130.0195387095020862
 21
100.5620691425938986
 31
0.0
  0
ARC
  5
21809
  8
0
 10
129.9604835892897086
 20
99.3501574806479937
 30
0.0
 40
0.0393700765875922
 50
179.9999996420582136
 51
206.5650515809219883
  0
ARC
  5
2180A
  8
0
 10
115.0572749231852043
 20
91.8623861057987767
 30
0.0
 40
16.6391295916402804
 50
26.4536611511249617
 51
26.6764422025379488
  0
ARC
  5
2180B
  8
0
 10
129.9718102565402091
 20
99.2834870613015994
 30
0.0
 40
0.0196850372462082
 50
206.5650494244185893
 51
268.0000045267797759
  0
ARC
  5
2180C
  8
0
 10
130.0296931437852095
 20
100.7306782615487037
 30
0.0
 40
1.4680330885567101
 50
267.7134724880137924
 51
269.6036800043075914
  0
ARC
  5
2180D
  8
0
 10
130.1396898547442902
 20
103.9072383632662024
 30
0.0
 40
0.0787451532397235
 50
89.5159515612267285
 51
178.2985168188110094
  0
LINE
  5
2180E
  8
0
 10
130.140355104701996
 20
103.985980706393903
 30
0.0
 11
152.6546278261020859
 21
103.985980706393903
 31
0.0
  0
ARC
  5
2180F
  8
0
 10
130.0496912599888901
 20
101.9288940921621958
 30
0.0
 40
0.0295275590683672
 50
178.7999998971388891
 51
270.0000000211306883
  0
LINE
  5
21810
  8
0
 10
130.0496912599998041
 20
101.8993665330938967
 30
0.0
 11
152.7452916786091919
 21
101.8993665294120063
 31
0.0
  0
LINE
  5
21811
  8
0
 10
139.4483897874457057
 20
102.1556842972939023
 30
0.0
 11
143.3464527895312983
 21
102.1556842972939023
 31
0.0
  0
LINE
  5
21812
  8
0
 10
139.44867256770209
 20
103.8879677618939041
 30
0.0
 11
143.3463103630020044
 21
103.8879677618939041
 31
0.0
  0
ARC
  5
21813
  8
0
 10
139.4486838272754028
 20
103.6714188384753044
 30
0.0
 40
0.2165489237112737
 50
90.0029791236968322
 51
179.7128481458090903
  0
ARC
  5
21814
  8
0
 10
139.4486831873632866
 20
102.3722331707104019
 30
0.0
 40
0.2165490721787642
 50
180.3261278083870991
 51
269.9223705649545764
  0
LINE
  5
21815
  8
0
 10
139.4519039283021016
 20
103.7993131627938936
 30
0.0
 11
143.3430790025020087
 21
103.7993131627938936
 31
0.0
  0
LINE
  5
21816
  8
0
 10
139.2738809336993882
 20
103.6312681544128935
 30
0.0
 11
139.2715058590314072
 21
102.3709251626327017
 31
0.0
  0
LINE
  5
21817
  8
0
 10
140.6691400548704962
 20
102.1887366118939013
 30
0.0
 11
142.1258428722983069
 21
102.1887366118939013
 31
0.0
  0
ARC
  5
21818
  8
0
 10
139.4475753355268921
 20
103.6255795484628948
 30
0.0
 40
0.1737875296559181
 50
88.5727644082177363
 51
178.1241959947585087
  0
ARC
  5
21819
  8
0
 10
139.448625885893307
 20
102.371347116385607
 30
0.0
 40
0.1771205294722658
 50
180.1364957079173905
 51
270.015101045729125
  0
ARC
  5
2181A
  8
0
 10
140.6683502733270927
 20
102.3321803871738069
 30
0.0
 40
0.1434459494772796
 50
254.0894269935859882
 51
270.315459432352327
  0
LINE
  5
2181B
  8
0
 10
140.6290264758619912
 20
102.194229746093896
 30
0.0
 11
139.4486725683051986
 21
102.1942265930650962
 31
0.0
  0
ARC
  5
2181C
  8
0
 10
142.1266326574769892
 20
102.3321803871738069
 30
0.0
 40
0.1434459494772796
 50
269.6845405676411929
 51
285.9105730064139834
  0
LINE
  5
2181D
  8
0
 10
142.1659564549422043
 20
102.194229746093896
 30
0.0
 11
143.3463103624989117
 21
102.1942265930650962
 31
0.0
  0
LINE
  5
2181E
  8
0
 10
139.4572880332019906
 20
103.6777068404938973
 30
0.0
 11
143.337694925302003
 21
103.6777024675939032
 31
0.0
  0
LINE
  5
2181F
  8
0
 10
139.3167278661020134
 20
102.4019829438938984
 30
0.0
 11
139.3206270192129068
 21
103.4978840853662945
 31
0.0
  0
LINE
  5
21820
  8
0
 10
139.474476154159106
 20
102.2446229307885943
 30
0.0
 11
143.3203390205123924
 21
102.2446147103064931
 31
0.0
  0
ARC
  5
21821
  8
0
 10
139.4742204996090891
 20
102.4021154125065038
 30
0.0
 40
0.1574926892173708
 50
180.0481920358060961
 51
270.0930070678372203
  0
LINE
  5
21822
  8
0
 10
139.3322085784440958
 20
103.5868483497970942
 30
0.0
 11
143.4662966827401931
 21
103.5738802388210047
 31
0.0
  0
ARC
  5
21823
  8
0
 10
130.0379467353074006
 20
102.0687455404087984
 30
0.0
 40
0.0315882642948783
 50
178.0620298333400058
 51
267.1070146719745253
  0
ARC
  5
21824
  8
0
 10
130.0509288333653046
 20
101.9879489745272991
 30
0.0
 40
0.0295281088403905
 50
90.2642207998550532
 51
178.7995647277836895
  0
LINE
  5
21825
  8
0
 10
130.0214072052258132
 20
101.9885675888549059
 30
0.0
 11
130.0201701768033047
 21
101.9295124707553981
 31
0.0
  0
LINE
  5
21826
  8
0
 10
130.0503326162885003
 20
102.0371618086233951
 30
0.0
 11
130.0507926642974894
 21
102.0174767693937952
 31
0.0
  0
LINE
  5
21827
  8
0
 10
130.0507926642974894
 20
102.0174767693937952
 30
0.0
 11
141.3974914653520898
 21
102.0174767693937952
 31
0.0
  0
LINE
  5
21828
  8
0
 10
130.0363524545265079
 20
102.0371975339748047
 30
0.0
 11
152.7591552397423982
 21
102.0372269396821991
 31
0.0
  0
ARC
  5
21829
  8
0
 10
130.1304380111928936
 20
102.0371859880563932
 30
0.0
 40
0.0197093896406964
 50
270.8221657598011802
 51
359.9297098594860245
  0
LINE
  5
2182A
  8
0
 10
140.6494599699020114
 20
102.0174767693938946
 30
0.0
 11
140.6494599693020859
 21
102.0371618086938952
 31
0.0
  0
LINE
  5
2182B
  8
0
 10
139.1947918294021065
 20
102.0371618086938952
 30
0.0
 11
139.1947918294021065
 21
102.0174767693938946
 31
0.0
  0
ARC
  5
2182C
  8
0
 10
138.9342817821678011
 20
102.0348052790248943
 30
0.0
 40
0.0178649663925218
 50
172.4201452219652992
 51
255.6504792554898131
  0
LINE
  5
2182D
  8
0
 10
138.5052691771020932
 20
102.0174767693937952
 30
0.0
 11
138.5052691771020932
 21
102.0371618086938952
 31
0.0
  0
LINE
  5
2182E
  8
0
 10
143.5628453156101045
 20
102.3710005784703014
 30
0.0
 11
143.562845316032309
 21
103.6725041212820031
 31
0.0
  0
LINE
  5
2182F
  8
0
 10
152.7985563022373867
 20
77.6467109259199617
 30
0.0
 11
152.798556302237813
 21
77.648085128129793
 31
0.0
  0
ARC
  5
21830
  8
0
 10
152.7591922197381962
 20
77.6473980255074849
 30
0.0
 40
0.0393700786999992
 50
269.9999999814032208
 51
359.0000044065384941
  0
ARC
  5
21831
  8
0
 10
151.6147900623026885
 20
77.638368812962554
 30
0.0
 40
1.1838061148644541
 50
0.4702713520403199
 51
1.529728666613033
  0
ARC
  5
21832
  8
0
 10
76.4043283996045091
 20
76.4043294570855949
 30
0.0
 40
76.404329310080243
 50
0.9491510668426396
 51
1.0508489518186299
  0
ARC
  5
21833
  8
0
 10
152.7564433906892987
 20
77.8048783405083952
 30
0.0
 40
0.0393700786999978
 50
0.9999999596623261
 51
89.9999999814096867
  0
LINE
  5
21834
  8
0
 10
152.7564433907020884
 20
77.8442484192083981
 30
0.0
 11
149.9908781889195097
 21
77.8442484228939406
 31
0.0
  0
LINE
  5
21835
  8
0
 10
152.3136652952150882
 20
77.5765318839520148
 30
0.0
 11
152.3136652952254053
 21
77.6080279468797727
 31
0.0
  0
LINE
  5
21836
  8
0
 10
151.1916180512151016
 20
77.5765318843160969
 30
0.0
 11
151.1916180512203027
 21
77.6080279470617853
 31
0.0
  0
ARC
  5
21837
  8
0
 10
152.3057912795152049
 20
77.5765318839546296
 30
0.0
 40
0.0078740157000023
 50
269.9999999814227181
 51
359.9999999813836098
  0
LINE
  5
21838
  8
0
 10
152.3057912795125901
 20
77.5686578681545882
 30
0.0
 11
151.1994987583045997
 21
77.5686578685135544
 31
0.0
  0
ARC
  5
21839
  8
0
 10
151.1994920719322977
 20
77.5765318863916633
 30
0.0
 40
0.0078740207170792
 50
180.0000151031732116
 51
270.048653849787172
  0
LINE
  5
2183A
  8
0
 10
151.2605156889088107
 20
77.5568468480938975
 30
0.0
 11
151.2605156889127045
 21
77.5686578684937729
 31
0.0
  0
LINE
  5
2183B
  8
0
 10
152.2447676575087883
 20
77.5568468480938975
 30
0.0
 11
152.2447676575125968
 21
77.5686578681744265
 31
0.0
  0
ARC
  5
2183C
  8
0
 10
152.8345040133067982
 20
100.5165474142660003
 30
0.0
 40
0.0393654047018854
 50
0.0354600035754775
 51
26.5666568388592097
  0
ARC
  5
2183D
  8
0
 10
183.6039244067013954
 20
115.937426136786101
 30
0.0
 40
34.3780826855921831
 50
206.5111383590501077
 51
206.6189652368584859
  0
ARC
  5
2183E
  8
0
 10
152.8231726724148132
 20
100.5832167290846968
 30
0.0
 40
0.0196850394000016
 50
26.5650511276755914
 51
87.9999998871285243
  0
LINE
  5
2183F
  8
0
 10
152.8238596704212
 20
100.6028897763845009
 30
0.0
 11
152.7754442211216883
 21
100.604580487460197
 31
0.0
  0
ARC
  5
21840
  8
0
 10
152.8344993484921019
 20
99.3501574769371132
 30
0.0
 40
0.0393700765878028
 50
333.4349399915153072
 51
359.965671043305008
  0
ARC
  5
21841
  8
0
 10
167.7377080121673032
 20
91.8623860972523545
 30
0.0
 40
16.6391295916402804
 50
153.3235577788746014
 51
153.5463388302810017
  0
ARC
  5
21842
  8
0
 10
152.8231726812200861
 20
99.2834870575943853
 30
0.0
 40
0.0196850372462082
 50
271.9999954546249796
 51
333.434950556993897
  0
ARC
  5
21843
  8
0
 10
152.7652897944452093
 20
100.7306782578427971
 30
0.0
 40
1.4680330885392561
 50
270.3963196984453816
 51
272.2865274934071067
  0
ARC
  5
21844
  8
0
 10
152.6546278345583971
 20
103.9072405452412937
 30
0.0
 40
0.078740157500047
 50
1.199999952297981
 51
89.9999999835917919
  0
ARC
  5
21845
  8
0
 10
152.7452916786297124
 20
101.9288940884803054
 30
0.0
 40
0.0295275590683672
 50
269.9999999602790126
 51
1.2000000842699641
  0
ARC
  5
21846
  8
0
 10
143.3462991119085927
 20
103.6714188378430066
 30
0.0
 40
0.2165489237112737
 50
0.2871518356003458
 51
89.9970208577128687
  0
ARC
  5
21847
  8
0
 10
143.3462997513991866
 20
102.3722331700781041
 30
0.0
 40
0.2165490721787642
 50
270.0776294164484739
 51
359.6738721730222892
  0
LINE
  5
21848
  8
0
 10
143.5211325625207905
 20
103.6285716534523971
 30
0.0
 11
143.5234770797308101
 21
102.3709251619429068
 31
0.0
  0
ARC
  5
21849
  8
0
 10
143.3474321257241968
 20
103.6256425794000933
 30
0.0
 40
0.1737251312220737
 50
0.9660751568421909
 51
91.4358411731449934
  0
ARC
  5
2184A
  8
0
 10
143.3463570528689957
 20
102.3713471157531956
 30
0.0
 40
0.1771205294722658
 50
269.984898935680576
 51
359.8635042734921967
  0
LINE
  5
2184B
  8
0
 10
143.4782554372019945
 20
102.4019828707939013
 30
0.0
 11
143.4745099993020006
 21
103.4882962519939014
 31
0.0
  0
ARC
  5
2184C
  8
0
 10
143.3207479272078047
 20
102.4021217507444987
 30
0.0
 40
0.1575075712218836
 50
269.8512537905338036
 51
359.9494802948270831
  0
ARC
  5
2184D
  8
0
 10
152.7571301201842005
 20
102.068659209780094
 30
0.0
 40
0.0314974397805495
 50
273.6863597545715834
 51
2.1006920331223671
  0
ARC
  5
2184E
  8
0
 10
152.7440541052725109
 20
101.9879489708458067
 30
0.0
 40
0.0295281088403905
 50
1.2004352536250991
 51
89.7357791815544203
  0
LINE
  5
2184F
  8
0
 10
152.772474246884002
 20
102.0411520018419935
 30
0.0
 11
152.7748127618154967
 21
101.9295124670639012
 31
0.0
  0
LINE
  5
21850
  8
0
 10
152.7446518441541912
 20
102.037226920913298
 30
0.0
 11
152.7441902743499043
 21
102.0174767657123027
 31
0.0
  0
LINE
  5
21851
  8
0
 10
152.7441902743499043
 20
102.0174767657123027
 30
0.0
 11
141.3974914732953891
 21
102.0174767693937952
 31
0.0
  0
LINE
  5
21852
  8
0
 10
151.2318573480453949
 20
102.0174767662030035
 30
0.0
 11
151.2318573480517045
 21
102.0371618055030041
 31
0.0
  0
ARC
  5
21853
  8
0
 10
152.664544927460895
 20
102.0371859844006934
 30
0.0
 40
0.0197093896406979
 50
179.881371769549304
 51
269.7613440081680096
  0
LINE
  5
21854
  8
0
 10
142.1455229687454107
 20
102.0174767691512017
 30
0.0
 11
142.1455229693517026
 21
102.0371618084512022
 31
0.0
  0
LINE
  5
21855
  8
0
 10
143.6001911092517105
 20
102.0371618079792029
 30
0.0
 11
143.6001911092454009
 21
102.0174767686792023
 31
0.0
  0
ARC
  5
21856
  8
0
 10
143.8607011564851916
 20
102.0348052782256048
 30
0.0
 40
0.0178649663925218
 50
284.3495207259127824
 51
7.5798547594447694
  0
LINE
  5
21857
  8
0
 10
144.2897137615453005
 20
102.0174767684553956
 30
0.0
 11
144.2897137615516954
 21
102.0371618077554956
 31
0.0
  0
ARC
  5
21858
  8
0
 10
150.2437401849095124
 20
79.249633959331419
 30
0.0
 40
0.0118372294877857
 50
3.4933945329211662
 51
89.9709136847632465
  0
ARC
  5
21859
  8
0
 10
150.2151778724972928
 20
79.1811761639600462
 30
0.0
 40
0.03917984555135
 50
318.6985409380192209
 51
359.1018672443670994
  0
ARC
  5
2185A
  8
0
 10
148.2936958250498094
 20
80.8868729782833213
 30
0.0
 40
2.6085167777325911
 50
309.6471133590932254
 51
318.4089973510547793
  0
LINE
  5
2185B
  8
0
 10
150.2437461941019876
 20
79.2614711872939495
 30
0.0
 11
143.8898194137020994
 21
79.2614711872939495
 31
0.0
  0
LINE
  5
2185C
  8
0
 10
151.2605156889088107
 20
77.5568468480938975
 30
0.0
 11
152.2447676575087883
 21
77.5568468480938975
 31
0.0
  0
LINE
  5
2185D
  8
0
 10
129.9211135126020906
 20
100.4740360757787982
 30
0.0
 11
129.9211135126020906
 21
99.3501574806479937
 31
0.0
  0
LINE
  5
2185E
  8
0
 10
129.9542034237020118
 20
100.5495088078320975
 30
0.0
 11
129.9542034237020118
 21
99.2746836455557684
 31
0.0
  0
LINE
  5
2185F
  8
0
 10
130.0195387095020862
 20
101.8599665330875013
 30
0.0
 11
130.0195387095020862
 21
77.8836484228939128
 31
0.0
  0
ARC
  5
21860
  8
0
 10
130.0589387095020868
 20
101.8599665330875013
 30
0.0
 40
0.0394000000000104
 50
89.9999999907064705
 51
179.9999999999893987
  0
ARC
  5
21861
  8
0
 10
130.0589387095020868
 20
77.8836484228939128
 30
0.0
 40
0.0394000000000006
 50
180.0
 51
270.0
  0
LINE
  5
21862
  8
0
 10
150.2555554188114115
 20
79.2503552427639448
 30
0.0
 11
150.2543529045634898
 21
79.1805620303905471
 31
0.0
  0
LINE
  5
21863
  8
0
 10
152.8738694104696094
 20
100.5165717772699026
 30
0.0
 11
152.8738694180132995
 21
99.3501338882262814
 31
0.0
  0
LINE
  5
21864
  8
0
 10
152.8407795069213932
 20
100.5920201463095935
 30
0.0
 11
152.840779506912412
 21
99.2746836275568683
 31
0.0
  0
LINE
  5
21865
  8
0
 10
152.7754442211303001
 20
101.8599665330935977
 30
0.0
 11
152.7754442209659942
 21
77.8836484192402025
 31
0.0
  0
ARC
  5
21866
  8
0
 10
152.7360442211302995
 20
101.8599665330938961
 30
0.0
 40
0.0394
 50
359.9999999996076099
 51
90.0
  0
ARC
  5
21867
  8
0
 10
152.7360442209659936
 20
77.8836484192404725
 30
0.0
 40
0.0394
 50
269.9999999819422101
 51
359.9999999996076099
  0
ARC
  5
21868
  8
0
 10
143.8898254228946882
 20
79.2496339593314332
 30
0.0
 40
0.0118372294877857
 50
90.0290863152367677
 51
176.5066054670787992
  0
ARC
  5
21869
  8
0
 10
143.9183877338687125
 20
79.181176163096282
 30
0.0
 40
0.0391798439007213
 50
180.8981280151051863
 51
221.3014595012240022
  0
ARC
  5
2186A
  8
0
 10
145.8398697827543913
 20
80.8868729782833356
 30
0.0
 40
2.6085167777325911
 50
221.5910026489451923
 51
230.352886640906803
  0
LINE
  5
2186B
  8
0
 10
143.8780101889927892
 20
79.2503552427639875
 30
0.0
 11
143.8792127034020041
 21
79.1805620327939153
 31
0.0
  0
LINE
  5
2186C
  8
0
 10
143.9347442823238907
 20
79.2614711872939495
 30
0.0
 11
143.9347566132267957
 21
79.5581618978404776
 31
0.0
  0
ARC
  5
2186D
  8
0
 10
144.052881859333695
 20
79.5581569883812705
 30
0.0
 40
0.1181252462089619
 50
117.3939526623047982
 51
179.9976187030183894
  0
ARC
  5
2186E
  8
0
 10
144.3298950573380068
 20
79.0236062723612633
 30
0.0
 40
0.7201890134845546
 50
92.3229312391545136
 51
117.3939526623047982
  0
ARC
  5
2186F
  8
0
 10
144.3793160147918115
 20
74.828775469639325
 30
0.0
 40
4.9150566993071241
 50
89.6757069846100308
 51
90.9164280080263154
  0
LINE
  5
21870
  8
0
 10
144.4071349931020052
 20
79.7437534412939044
 30
0.0
 11
149.7264306148020125
 21
79.7437534412939044
 31
0.0
  0
ARC
  5
21871
  8
0
 10
144.7724732576020017
 20
79.2418862182939137
 30
0.0
 40
0.5905511811000012
 50
90.0
 51
121.8046126190753995
  0
LINE
  5
21872
  8
0
 10
144.7724732576020017
 20
79.8324373993939105
 30
0.0
 11
149.3610923503019876
 21
79.8324373993939105
 31
0.0
  0
ARC
  5
21873
  8
0
 10
149.3610923503019876
 20
79.2418862182939137
 30
0.0
 40
0.5905511810999964
 50
58.1930207380887978
 51
90.0
  0
LINE
  5
21874
  8
0
 10
150.1945823972644121
 20
79.2614711872939495
 30
0.0
 11
150.1945800390020054
 21
79.5581617693546121
 31
0.0
  0
ARC
  5
21875
  8
0
 10
150.0763091332914883
 20
79.5580648214397286
 30
0.0
 40
0.1182709454451396
 50
0.0469659471891959
 51
62.5674590084605526
  0
ARC
  5
21876
  8
0
 10
149.7974901624286019
 20
79.0180338189348817
 30
0.0
 40
0.7260317660670595
 50
62.6722248539316169
 51
87.2075547286481196
  0
ARC
  5
21877
  8
0
 10
149.7542495931122914
 20
74.828775469639325
 30
0.0
 40
4.9150566993071241
 50
89.0835719919736988
 51
90.324293015389955
  0
LINE
  5
21878
  8
0
 10
146.6841503822020059
 20
77.8734887750939038
 30
0.0
 11
146.6841503822020059
 21
77.8453579074939057
 31
0.0
  0
LINE
  5
21879
  8
0
 10
146.6841503822020059
 20
77.8453579074939057
 30
0.0
 11
146.7046711975019946
 21
77.8257237898939138
 31
0.0
  0
LINE
  5
2187A
  8
0
 10
146.7791935776020011
 20
77.8255386811939047
 30
0.0
 11
146.7993167020019882
 21
77.8453579074939057
 31
0.0
  0
LINE
  5
2187B
  8
0
 10
146.7993167020019882
 20
77.8453579074939057
 30
0.0
 11
146.7998089266019974
 21
77.8734887750939038
 31
0.0
  0
ARC
  5
2187C
  8
0
 10
146.7412890138375872
 20
77.5666172589449729
 30
0.0
 40
0.2616812160885458
 50
81.6713981139266849
 51
98.0439645614362547
  0
ARC
  5
2187D
  8
0
 10
146.7426204842859931
 20
78.1026501242138806
 30
0.0
 40
0.279514477276777
 50
262.19693387230501
 51
277.5184288030596917
  0
ARC
  5
2187E
  8
0
 10
146.741733542101997
 20
77.4354693779524723
 30
0.0
 40
0.4139135500967759
 50
82.0031412892367655
 51
97.9968587107632203
  0
LINE
  5
2187F
  8
0
 10
147.7474088589625865
 20
77.873462516588674
 30
0.0
 11
147.7474088589625865
 21
77.845331648988676
 31
0.0
  0
LINE
  5
21880
  8
0
 10
147.7474088589625865
 20
77.845331648988676
 30
0.0
 11
147.7679296742626036
 21
77.8256975313886699
 31
0.0
  0
LINE
  5
21881
  8
0
 10
147.8424520543626102
 20
77.825512422688675
 30
0.0
 11
147.8625751787625973
 21
77.845331648988676
 31
0.0
  0
LINE
  5
21882
  8
0
 10
147.8625751787625973
 20
77.845331648988676
 30
0.0
 11
147.8630674033626065
 21
77.873462516588674
 31
0.0
  0
ARC
  5
21883
  8
0
 10
147.8045474905981962
 20
77.5665910004397432
 30
0.0
 40
0.2616812160885458
 50
81.6713981139266849
 51
98.0439645614362547
  0
ARC
  5
21884
  8
0
 10
147.8058789610466022
 20
78.1026238657086367
 30
0.0
 40
0.279514477276777
 50
262.19693387230501
 51
277.5184288030596917
  0
ARC
  5
21885
  8
0
 10
147.8049920188626061
 20
77.4354431194472284
 30
0.0
 40
0.4139135500967759
 50
82.0031412892367655
 51
97.9968587107632203
  0
LINE
  5
21886
  8
0
 10
149.9759954859194124
 20
77.8442484228939406
 30
0.0
 11
149.9761293473015087
 21
77.8442484228939406
 31
0.0
  0
ARC
  5
21887
  8
0
 10
201.863749898096188
 20
78.6509144070575559
 30
0.0
 40
51.8938870790716322
 50
180.8931833150537898
 51
181.1073011541911058
  0
ARC
  5
21888
  8
0
 10
-305031.6732074634055607
 20
5405.3882030704462522
 30
0.0
 40
305222.3293491791118868
 50
358.9999334812628149
 51
359.0000665161720121
  0
ARC
  5
21889
  8
0
 10
165.5066458644805891
 20
77.6497128376549313
 30
0.0
 40
21.3498624412625695
 50
178.6042393997126112
 51
179.3957606030787986
  0
ARC
  5
2188A
  8
0
 10
144.1090476978775996
 20
77.880163984412917
 30
0.0
 40
0.0492092398532647
 50
313.1258425829336147
 51
353.8166182641433011
  0
ARC
  5
2188B
  8
0
 10
25780.7642306412308244
 20
-369.7472211606532255
 30
0.0
 40
25640.5137635845312616
 50
178.9997018229286141
 51
179.000208651232299
  0
ARC
  5
2188C
  8
0
 10
149.930990628819103
 20
78.9077368883160233
 30
0.0
 40
0.0399714789653141
 50
270.2127055535298155
 51
312.6638590767682899
  0
ARC
  5
2188D
  8
0
 10
62662.4680290399919613
 20
1169.4704625789790953
 30
0.0
 40
62522.0224513348075561
 50
180.9994797404366125
 51
181.0004296247255979
  0
LINE
  5
2188E
  8
0
 10
149.9311390190862028
 20
78.8677656847939517
 30
0.0
 11
144.2024235500016971
 21
78.8677656847939517
 31
0.0
  0
ARC
  5
2188F
  8
0
 10
144.2026255227079048
 20
78.9078655500463384
 30
0.0
 40
0.0401003738914486
 50
227.4076193925392033
 51
269.7114183379570136
  0
ARC
  5
21890
  8
0
 10
150.0238430926825117
 20
77.8796299009646589
 30
0.0
 40
0.0483583898674089
 50
183.1279189336028139
 51
227.0250062828718001
  0
ARC
  5
21891
  8
0
 10
144.8821924090210871
 20
78.8132633134454039
 30
0.0
 40
0.080568989748752
 50
181.4609574848169871
 51
260.9195926727388724
  0
LINE
  5
21892
  8
0
 10
144.8694769784044922
 20
78.7337040277939479
 30
0.0
 11
149.2640886293137044
 21
78.7337040277939479
 31
0.0
  0
ARC
  5
21893
  8
0
 10
149.2515045555302038
 20
78.8131483589039306
 30
0.0
 40
0.0804348224247488
 50
279.0009342260145218
 51
358.6185153770827014
  0
LINE
  5
21894
  8
0
 10
144.718535529702109
 20
78.8677656847939517
 30
0.0
 11
144.720253548002006
 21
77.6273694385939166
 31
0.0
  0
ARC
  5
21895
  8
0
 10
147.080534866264486
 20
79.625783566362685
 30
0.0
 40
0.8001723220632904
 50
268.5276344774554218
 51
277.1734603725150805
  0
ARC
  5
21896
  8
0
 10
147.0802308733356085
 20
77.9678514801671554
 30
0.0
 40
0.8747480084555299
 50
83.8083567748370513
 51
91.3313438846498968
  0
ARC
  5
21897
  8
0
 10
147.0468016893935896
 20
78.1418149972698046
 30
0.0
 40
0.7006709186799717
 50
88.9282995734109249
 51
97.7884874722793427
  0
ARC
  5
21898
  8
0
 10
146.9527595314106065
 20
78.830940625286587
 30
0.0
 40
0.0051625555268015
 50
100.156033758153697
 51
141.9926427841498082
  0
ARC
  5
21899
  8
0
 10
147.171239917125888
 20
78.804908948342387
 30
0.0
 40
0.0327582189741194
 50
66.5910867102022905
 51
84.1544406734609254
  0
ARC
  5
2189A
  8
0
 10
147.1796776122990025
 20
78.8396897527461959
 30
0.0
 40
0.0078538793563547
 50
275.6828602092004985
 51
309.3813468613964233
  0
ARC
  5
2189B
  8
0
 10
147.184053357065892
 20
78.834173556284199
 30
0.0
 40
0.0008223414879009
 50
317.6117370931880828
 51
75.8454191452913165
  0
ARC
  5
2189C
  8
0
 10
146.9555882419892043
 20
78.8418461987559738
 30
0.0
 40
0.0103567558206544
 50
228.2494225930007872
 51
264.3814835296097954
  0
ARC
  5
2189D
  8
0
 10
147.0176215426996862
 20
79.2649400338566039
 30
0.0
 40
0.4379626041527712
 50
261.7231812016854064
 51
267.0954952430922162
  0
ARC
  5
2189E
  8
0
 10
147.0614004009131008
 20
80.1333623216151949
 30
0.0
 40
1.30748766517089
 50
267.107835672491376
 51
269.9375195762498265
  0
LINE
  5
2189F
  8
0
 10
149.4133123942995951
 20
78.8648045840136831
 30
0.0
 11
149.4133120599020117
 21
77.6273694385939166
 31
0.0
  0
LINE
  5
218A0
  8
0
 10
144.8016496098020127
 20
78.8112091461939031
 30
0.0
 11
144.8016496098020127
 21
78.8677656847939517
 31
0.0
  0
LINE
  5
218A1
  8
0
 10
149.3329031962003057
 20
78.8677656847939517
 30
0.0
 11
149.3319159982019926
 21
78.8112091461939031
 31
0.0
  0
ARC
  5
218A2
  8
0
 10
144.1933766154128875
 20
77.6473984171637426
 30
0.0
 40
0.0393705645784686
 50
178.9982681526790884
 51
269.8737277682171793
  0
ARC
  5
218A3
  8
0
 10
149.9401803204025043
 20
77.6474007923661844
 30
0.0
 40
0.0393790195710142
 50
271.0146369687029733
 51
0.9779962763271809
  0
ARC
  5
218A4
  8
0
 10
149.4330014206545911
 20
77.6277193407994446
 30
0.0
 40
0.0196924695860809
 50
181.0181036248783073
 51
269.4010058533502274
  0
ARC
  5
218A5
  8
0
 10
144.7005620612758889
 20
77.6277202976514076
 30
0.0
 40
0.0196946122471184
 50
270.8685254845826194
 51
358.9792230258717041
  0
LINE
  5
218A6
  8
0
 10
144.9014284733019906
 20
78.7337040277939479
 30
0.0
 11
144.9014284733019906
 21
77.9682579374939166
 31
0.0
  0
ARC
  5
218A7
  8
0
 10
144.9664640406278977
 20
77.9682579374939166
 30
0.0
 40
0.0650355673259071
 50
180.0
 51
247.3581759698018061
  0
ARC
  5
218A8
  8
0
 10
145.0431407777311961
 20
78.1520836330075923
 30
0.0
 40
0.2642118920833564
 50
247.3581759698018061
 51
262.6922423327500837
  0
ARC
  5
218A9
  8
0
 10
145.5530296662344085
 20
82.6142377691687955
 30
0.0
 40
4.7553803115413551
 50
263.4372772158060911
 51
270.354526266314906
  0
LINE
  5
218AA
  8
0
 10
146.6841503822020059
 20
77.8584019558488336
 30
0.0
 11
145.5824541104612138
 21
77.8589484920083521
 31
0.0
  0
LINE
  5
218AB
  8
0
 10
146.7995449047151908
 20
77.8583997999765671
 30
0.0
 11
147.7474088589625865
 21
77.8585597279503219
 31
0.0
  0
LINE
  5
218AC
  8
0
 10
147.8628053361053958
 20
77.8584852494734179
 30
0.0
 11
148.6063127891679869
 21
77.8598164152310233
 31
0.0
  0
ARC
  5
218AD
  8
0
 10
148.5983729939351008
 20
82.294498495759882
 30
0.0
 40
4.4346891881745432
 50
270.1025814844680895
 51
273.479567487888005
  0
ARC
  5
218AE
  8
0
 10
148.8070464845374943
 20
79.9849434525056324
 30
0.0
 40
2.1178225589025481
 50
271.6364344574798793
 51
279.4256990518521206
  0
ARC
  5
218AF
  8
0
 10
149.1645330328132957
 20
77.9695628460948313
 30
0.0
 40
0.067616704476762
 50
330.1867803975280253
 51
358.8937636969382083
  0
ARC
  5
218B0
  8
0
 10
149.1465797091767911
 20
77.9881300289623738
 30
0.0
 40
0.092703813482713
 50
274.5160253671514852
 51
325.7422994660425957
  0
LINE
  5
218B1
  8
0
 10
149.2321371346637022
 20
77.9682574199953251
 30
0.0
 11
149.2321371347019863
 21
78.7337040277939479
 31
0.0
  0
LINE
  5
218B2
  8
0
 10
147.8630674033626065
 20
77.873462516588674
 30
0.0
 11
147.7474088589625865
 21
77.873462516588674
 31
0.0
  0
LINE
  5
218B3
  8
0
 10
146.6841503822020059
 20
77.8734887750939038
 30
0.0
 11
146.7998089266019974
 21
77.8734887750939038
 31
0.0
  0
LINE
  5
218B4
  8
0
 10
144.719898628692107
 20
77.8836185016939169
 30
0.0
 11
144.862058394501986
 21
77.8836185016939169
 31
0.0
  0
LINE
  5
218B5
  8
0
 10
144.862058394501986
 20
77.8836185016939169
 30
0.0
 11
144.8694769784945038
 21
78.7337040277795666
 31
0.0
  0
LINE
  5
218B6
  8
0
 10
149.4133121291903876
 20
77.8837702989311396
 30
0.0
 11
149.2715166875761952
 21
77.882532868860892
 31
0.0
  0
LINE
  5
218B7
  8
0
 10
149.2715166875761952
 20
77.882532868860892
 30
0.0
 11
149.2640886294169889
 21
78.7337040278103188
 31
0.0
  0
LINE
  5
218B8
  8
0
 10
144.7200622179869072
 20
77.7655082654939065
 30
0.0
 11
149.4133120972319091
 21
77.7655082654939065
 31
0.0
  0
LINE
  5
218B9
  8
0
 10
143.8790823075648007
 20
79.1881301284238361
 30
0.0
 11
150.2544833004139946
 21
79.1881301280639889
 31
0.0
  0
ARC
  5
218BA
  8
0
 10
132.5512427458945126
 20
79.249633959331419
 30
0.0
 40
0.0118372294877857
 50
90.0290863152367677
 51
176.5066054670787992
  0
ARC
  5
218BB
  8
0
 10
132.5798050583067038
 20
79.1811761639600462
 30
0.0
 40
0.03917984555135
 50
180.8981327556329006
 51
221.3014590619806938
  0
ARC
  5
218BC
  8
0
 10
134.5012871057541872
 20
80.8868729782833213
 30
0.0
 40
2.6085167777325911
 50
221.5910026489451923
 51
230.352886640906803
  0
LINE
  5
218BD
  8
0
 10
132.551236736702009
 20
79.2614711872939495
 30
0.0
 11
138.9051635171018972
 21
79.2614711872939495
 31
0.0
  0
LINE
  5
218BE
  8
0
 10
132.5394275119926988
 20
79.2503552427639448
 30
0.0
 11
132.5406300262405068
 21
79.1805620303905471
 31
0.0
  0
ARC
  5
218BF
  8
0
 10
138.9051575079093084
 20
79.2496339593314332
 30
0.0
 40
0.0118372294877857
 50
3.4933945329211662
 51
89.9709136847632465
  0
ARC
  5
218C0
  8
0
 10
138.8765951969353978
 20
79.181176163096282
 30
0.0
 40
0.0391798439007213
 50
318.6985404987760262
 51
359.1018719848947853
  0
ARC
  5
218C1
  8
0
 10
136.9551131480496053
 20
80.8868729782833356
 30
0.0
 40
2.6085167777325911
 50
309.6471133590932254
 51
318.4089973510547793
  0
LINE
  5
218C2
  8
0
 10
138.9169727418112075
 20
79.2503552427639875
 30
0.0
 11
138.9157702274019925
 21
79.1805620327939153
 31
0.0
  0
LINE
  5
218C3
  8
0
 10
138.8602386484801912
 20
79.2614711872939495
 30
0.0
 11
138.8602263175772862
 21
79.5581618978404776
 31
0.0
  0
ARC
  5
218C4
  8
0
 10
138.7421010714703016
 20
79.5581569883812705
 30
0.0
 40
0.1181252462089619
 50
0.0023812969815694
 51
62.6060473376952231
  0
ARC
  5
218C5
  8
0
 10
138.4650878734659898
 20
79.0236062723612633
 30
0.0
 40
0.7201890134845546
 50
62.6060473376952231
 51
87.6770687608454864
  0
ARC
  5
218C6
  8
0
 10
138.4156669160122988
 20
74.828775469639325
 30
0.0
 40
4.9150566993071241
 50
89.0835719919736988
 51
90.324293015389955
  0
LINE
  5
218C7
  8
0
 10
138.3878479377019914
 20
79.7437534412939044
 30
0.0
 11
133.0685523160020125
 21
79.7437534412939044
 31
0.0
  0
ARC
  5
218C8
  8
0
 10
138.0225096732019949
 20
79.2418862182939137
 30
0.0
 40
0.5905511811000012
 50
58.1953873809246218
 51
90.0
  0
LINE
  5
218C9
  8
0
 10
138.0225096732019949
 20
79.8324373993939105
 30
0.0
 11
133.433890580502009
 21
79.8324373993939105
 31
0.0
  0
ARC
  5
218CA
  8
0
 10
133.433890580502009
 20
79.2418862182939137
 30
0.0
 40
0.5905511810999964
 50
90.0
 51
121.8069792619111951
  0
LINE
  5
218CB
  8
0
 10
132.600400533539613
 20
79.2614711872939495
 30
0.0
 11
132.6004028918019912
 21
79.5581617693546121
 31
0.0
  0
ARC
  5
218CC
  8
0
 10
132.7186737975125084
 20
79.5580648214397286
 30
0.0
 40
0.1182709454451396
 50
117.4325409915393976
 51
179.953034052810807
  0
ARC
  5
218CD
  8
0
 10
132.9974927683753947
 20
79.0180338189348817
 30
0.0
 40
0.7260317660670595
 50
92.7924452713518946
 51
117.3277751460684044
  0
ARC
  5
218CE
  8
0
 10
133.0407333376917904
 20
74.828775469639325
 30
0.0
 40
4.9150566993071241
 50
89.6757069846100308
 51
90.9164280080263154
  0
LINE
  5
218CF
  8
0
 10
136.1108325486019908
 20
77.8734887750939038
 30
0.0
 11
136.1108325486019908
 21
77.8453579074939057
 31
0.0
  0
LINE
  5
218D0
  8
0
 10
136.1108325486019908
 20
77.8453579074939057
 30
0.0
 11
136.090311733302002
 21
77.8257237898939138
 31
0.0
  0
LINE
  5
218D1
  8
0
 10
136.0157893532019955
 20
77.8255386811939047
 30
0.0
 11
135.9956662288020084
 21
77.8453579074939057
 31
0.0
  0
LINE
  5
218D2
  8
0
 10
135.9956662288020084
 20
77.8453579074939057
 30
0.0
 11
135.9951740042019992
 21
77.8734887750939038
 31
0.0
  0
ARC
  5
218D3
  8
0
 10
136.0536939169664095
 20
77.5666172589449729
 30
0.0
 40
0.2616812160885458
 50
81.9560354385637737
 51
98.3286018860733151
  0
ARC
  5
218D4
  8
0
 10
136.0523624465180035
 20
78.1026501242138806
 30
0.0
 40
0.279514477276777
 50
262.4815711969404219
 51
277.80306612769499
  0
ARC
  5
218D5
  8
0
 10
136.0532493887019996
 20
77.4354693779524723
 30
0.0
 40
0.4139135500967759
 50
82.0031412892367655
 51
97.9968587107632203
  0
LINE
  5
218D6
  8
0
 10
135.0475740718414954
 20
77.873462516588674
 30
0.0
 11
135.0475740718414954
 21
77.845331648988676
 31
0.0
  0
LINE
  5
218D7
  8
0
 10
135.0475740718414954
 20
77.845331648988676
 30
0.0
 11
135.0270532565415067
 21
77.8256975313886699
 31
0.0
  0
LINE
  5
218D8
  8
0
 10
134.9525308764415001
 20
77.825512422688675
 30
0.0
 11
134.932407752041513
 21
77.845331648988676
 31
0.0
  0
LINE
  5
218D9
  8
0
 10
134.932407752041513
 20
77.845331648988676
 30
0.0
 11
134.9319155274415039
 21
77.873462516588674
 31
0.0
  0
ARC
  5
218DA
  8
0
 10
134.9904354402059141
 20
77.5665910004397432
 30
0.0
 40
0.2616812160885458
 50
81.9560354385637737
 51
98.3286018860733151
  0
ARC
  5
218DB
  8
0
 10
134.9891039697573945
 20
78.1026238657086367
 30
0.0
 40
0.279514477276777
 50
262.4815711969404219
 51
277.80306612769499
  0
ARC
  5
218DC
  8
0
 10
134.9899909119415042
 20
77.4354431194472284
 30
0.0
 40
0.4139135500967759
 50
82.0031412892367655
 51
97.9968587107632203
  0
LINE
  5
218DD
  8
0
 10
132.8189874448846126
 20
77.8442484228939406
 30
0.0
 11
132.8188535835026016
 21
77.8442484228939406
 31
0.0
  0
ARC
  5
218DE
  8
0
 10
80.9312330327079081
 20
78.6509144070575559
 30
0.0
 40
51.8938870790716322
 50
358.892698845808809
 51
359.1068166849461818
  0
ARC
  5
218DF
  8
0
 10
305314.468190394109115
 20
5405.3882030704462522
 30
0.0
 40
305222.3293491791118868
 50
180.9999334838279879
 51
181.0000665187370998
  0
ARC
  5
218E0
  8
0
 10
117.2883370663233933
 20
77.6497128376549313
 30
0.0
 40
21.3498624412625695
 50
0.6042393969211936
 51
1.3957606002874221
  0
ARC
  5
218E1
  8
0
 10
138.6859359560268103
 20
77.8801641966306875
 30
0.0
 40
0.0492099816051244
 50
186.1835367026255028
 51
226.8735968072454909
  0
ARC
  5
218E2
  8
0
 10
-25497.9692477104290447
 20
-369.7472211606532255
 30
0.0
 40
25640.5137635845312616
 50
0.9997913487676775
 51
1.0002981770714401
  0
ARC
  5
218E3
  8
0
 10
132.8639923019850073
 20
78.9077368883160233
 30
0.0
 40
0.0399714789653141
 50
227.3361409232317101
 51
269.7872944464701845
  0
ARC
  5
218E4
  8
0
 10
-62379.6730461092010955
 20
1169.4704625789790953
 30
0.0
 40
62522.0224513348075561
 50
358.9995703752744021
 51
359.0005202595634159
  0
LINE
  5
218E5
  8
0
 10
132.8638439117177938
 20
78.8677656847939517
 30
0.0
 11
138.5925593808022995
 21
78.8677656847939517
 31
0.0
  0
ARC
  5
218E6
  8
0
 10
138.5923574080962055
 20
78.9078655500463384
 30
0.0
 40
0.0401003738914486
 50
270.2885816620431001
 51
312.5923806074608251
  0
ARC
  5
218E7
  8
0
 10
132.7711398381215986
 20
77.8796299009646447
 30
0.0
 40
0.0483583898673937
 50
312.9749937171235956
 51
356.8720811612723764
  0
ARC
  5
218E8
  8
0
 10
137.9127905217829948
 20
78.8132633134454039
 30
0.0
 40
0.080568989748752
 50
279.0804073272611276
 51
358.5390425151829277
  0
LINE
  5
218E9
  8
0
 10
137.9255059523995897
 20
78.7337040277939479
 30
0.0
 11
133.5308943014902923
 21
78.7337040277939479
 31
0.0
  0
ARC
  5
218EA
  8
0
 10
133.5434783752737928
 20
78.8131483589039306
 30
0.0
 40
0.0804348224247488
 50
181.3814846229172986
 51
260.9990657739854782
  0
LINE
  5
218EB
  8
0
 10
138.0764474011020013
 20
78.8677656847939517
 30
0.0
 11
138.0747293828019906
 21
77.6273694385939166
 31
0.0
  0
ARC
  5
218EC
  8
0
 10
135.7144480645395959
 20
79.625783566362685
 30
0.0
 40
0.8001723220632904
 50
262.8265396274849195
 51
271.4723655225446919
  0
ARC
  5
218ED
  8
0
 10
135.7147520574683881
 20
77.9678514801671554
 30
0.0
 40
0.8747480084555299
 50
88.6686561153501032
 51
96.1916432251629629
  0
ARC
  5
218EE
  8
0
 10
135.748181241410407
 20
78.1418149972698046
 30
0.0
 40
0.7006709186799717
 50
82.2115125277206715
 51
91.0717004265890893
  0
ARC
  5
218EF
  8
0
 10
135.8422233993935038
 20
78.830940625286587
 30
0.0
 40
0.0051625555268015
 50
38.0073572158502202
 51
79.843966241846303
  0
ARC
  5
218F0
  8
0
 10
135.6237430136781086
 20
78.804908948342387
 30
0.0
 40
0.0327582189741194
 50
95.8455593265390888
 51
113.4089132897976953
  0
ARC
  5
218F1
  8
0
 10
135.6153053185049941
 20
78.8396897527461959
 30
0.0
 40
0.0078538793563547
 50
230.6186531386034915
 51
264.3171397907995015
  0
ARC
  5
218F2
  8
0
 10
135.6109295737381899
 20
78.834173556284199
 30
0.0
 40
0.0008223414879009
 50
104.1545808547086978
 51
222.3882629068118888
  0
ARC
  5
218F3
  8
0
 10
135.8393946888147923
 20
78.8418461987559738
 30
0.0
 40
0.0103567558206544
 50
275.6185164703902046
 51
311.7505774069991844
  0
ARC
  5
218F4
  8
0
 10
135.7773613881043104
 20
79.2649400338566039
 30
0.0
 40
0.4379626041527712
 50
272.9045047569077838
 51
278.2768187983147072
  0
ARC
  5
218F5
  8
0
 10
135.7335825298908958
 20
80.1333623216151949
 30
0.0
 40
1.30748766517089
 50
270.0624804237501735
 51
272.892164327508624
  0
LINE
  5
218F6
  8
0
 10
133.3816705365044015
 20
78.8648045840136831
 30
0.0
 11
133.3816708709020133
 21
77.6273694385939166
 31
0.0
  0
LINE
  5
218F7
  8
0
 10
137.9933333210020123
 20
78.8112091461939031
 30
0.0
 11
137.9933333210020123
 21
78.8677656847939517
 31
0.0
  0
LINE
  5
218F8
  8
0
 10
133.4620797346038046
 20
78.8677656847939517
 30
0.0
 11
133.463066932602004
 21
78.8112091461939031
 31
0.0
  0
ARC
  5
218F9
  8
0
 10
138.6016063153911944
 20
77.6473984171637426
 30
0.0
 40
0.0393705645784686
 50
270.1262722317828207
 51
1.0017318473208869
  0
ARC
  5
218FA
  8
0
 10
132.854802610401606
 20
77.6474007923661844
 30
0.0
 40
0.0393790195710142
 50
179.0220037236728103
 51
268.9853630312970267
  0
ARC
  5
218FB
  8
0
 10
133.3619815101494055
 20
77.6277193407994446
 30
0.0
 40
0.0196924695860809
 50
270.5989941466497726
 51
358.9818963751216074
  0
ARC
  5
218FC
  8
0
 10
138.094420869528193
 20
77.6277202976514076
 30
0.0
 40
0.0196946122471184
 50
181.0207769741282107
 51
269.1314745154173806
  0
LINE
  5
218FD
  8
0
 10
137.893554457502006
 20
78.7337040277939479
 30
0.0
 11
137.893554457502006
 21
77.9682579374939166
 31
0.0
  0
ARC
  5
218FE
  8
0
 10
137.8285188901760989
 20
77.9682579374939166
 30
0.0
 40
0.0650355673259071
 50
292.6418240301982223
 51
0.0
  0
ARC
  5
218FF
  8
0
 10
137.7518421530728858
 20
78.1520836330075923
 30
0.0
 40
0.2642118920833564
 50
277.3077576672498026
 51
292.6418240301982223
  0
ARC
  5
21900
  8
0
 10
137.2419532645697018
 20
82.6142377691687955
 30
0.0
 40
4.7553803115413551
 50
269.6454737336849803
 51
276.5627227841939089
  0
LINE
  5
21901
  8
0
 10
136.1108325486019908
 20
77.8584019558488336
 30
0.0
 11
137.2125288203428113
 21
77.8589484920083521
 31
0.0
  0
LINE
  5
21902
  8
0
 10
135.9954380260888058
 20
77.8583997999765671
 30
0.0
 11
135.0475740718414954
 21
77.8585597279503219
 31
0.0
  0
LINE
  5
21903
  8
0
 10
134.9321775946986861
 20
77.8584852494734179
 30
0.0
 11
134.188670141636095
 21
77.8598164152310233
 31
0.0
  0
ARC
  5
21904
  8
0
 10
134.1966099368690095
 20
82.294498495759882
 30
0.0
 40
4.4346891881745432
 50
266.5204325121118814
 51
269.8974185155319105
  0
ARC
  5
21905
  8
0
 10
133.9879364462665023
 20
79.9849434525056324
 30
0.0
 40
2.1178225589025481
 50
260.5743009481478794
 51
268.3635655425201207
  0
ARC
  5
21906
  8
0
 10
133.6304498979907009
 20
77.9695628460948313
 30
0.0
 40
0.067616704476762
 50
181.1062363030617917
 51
209.8132196024720884
  0
ARC
  5
21907
  8
0
 10
133.6484032216272055
 20
77.9881300289623738
 30
0.0
 40
0.092703813482713
 50
214.2577005339572906
 51
265.4839746328485717
  0
LINE
  5
21908
  8
0
 10
133.5628457961402944
 20
77.9682574199953251
 30
0.0
 11
133.5628457961020104
 21
78.7337040277939479
 31
0.0
  0
LINE
  5
21909
  8
0
 10
134.9319155274415039
 20
77.873462516588674
 30
0.0
 11
135.0475740718414954
 21
77.873462516588674
 31
0.0
  0
LINE
  5
2190A
  8
0
 10
136.1108325486019908
 20
77.8734887750939038
 30
0.0
 11
135.9951740042019992
 21
77.8734887750939038
 31
0.0
  0
LINE
  5
2190B
  8
0
 10
138.0750843021118897
 20
77.8836185016939169
 30
0.0
 11
137.9329245363020107
 21
77.8836185016939169
 31
0.0
  0
LINE
  5
2190C
  8
0
 10
137.9329245363020107
 20
77.8836185016939169
 30
0.0
 11
137.9255059523096065
 21
78.7337040277795666
 31
0.0
  0
LINE
  5
2190D
  8
0
 10
133.3816708016136943
 20
77.8837702989311396
 30
0.0
 11
133.5234662432278014
 21
77.882532868860892
 31
0.0
  0
LINE
  5
2190E
  8
0
 10
133.5234662432278014
 20
77.882532868860892
 30
0.0
 11
133.5308943013870078
 21
78.7337040278103188
 31
0.0
  0
LINE
  5
2190F
  8
0
 10
138.0749207128170895
 20
77.7655082654939065
 30
0.0
 11
133.3816708335720875
 21
77.7655082654939065
 31
0.0
  0
LINE
  5
21910
  8
0
 10
138.915900623239196
 20
79.1881301284238361
 30
0.0
 11
132.5404996303900873
 21
79.1881301280639889
 31
0.0
  0
LINE
  5
21911
  8
0
 10
130.0214072052258132
 20
101.9885675888549059
 30
0.0
 11
130.0225094117502067
 21
102.0411863770950021
 31
0.0
  0
LINE
  5
21912
  8
0
 10
130.0063765387291994
 20
102.0698137768884948
 30
0.0
 11
130.0609794208857863
 21
103.9095764737329972
 31
0.0
  0
LINE
  5
21913
  8
0
 10
152.7886063921453967
 20
102.0698137729668957
 30
0.0
 11
152.7333507230420935
 21
103.9088895546158966
 31
0.0
  0
ARC
  5
21914
  8
0
 10
139.6701628868057128
 20
103.4992433839786941
 30
0.0
 40
0.3495385106487905
 50
167.6556128200377884
 51
180.2228145612598951
  0
ARC
  5
21915
  8
0
 10
139.4575349499365871
 20
103.545842974103806
 30
0.0
 40
0.1318640975672284
 50
90.1072869364014224
 51
167.6838900141974875
  0
ARC
  5
21916
  8
0
 10
143.3335662057301931
 20
103.5410255673933051
 30
0.0
 40
0.136739245916235
 50
13.9414955596775592
 51
88.2697420640268433
  0
ARC
  5
21917
  8
0
 10
143.0997014579808138
 20
103.4955127595210058
 30
0.0
 40
0.3748780076614604
 50
358.8969719292733203
 51
12.0806404093382707
  0
LINE
  5
21918
  8
0
 10
139.3197515430555029
 20
103.2518215961939063
 30
0.0
 11
143.4753253267697062
 21
103.2518215961939063
 31
0.0
  0
LINE
  5
21919
  8
0
 10
140.6102572868419998
 20
103.7993131627938936
 30
0.0
 11
140.6102572868419998
 21
103.8879677618939041
 31
0.0
  0
LINE
  5
2191A
  8
0
 10
143.5222972326712068
 20
103.0038190083567002
 30
0.0
 11
143.5628453158157924
 21
103.0050454794935035
 31
0.0
  0
LINE
  5
2191B
  8
0
 10
143.5216263691484926
 20
103.3636837822154035
 30
0.0
 11
143.5628453159320088
 21
103.363192652792705
 31
0.0
  0
LINE
  5
2191C
  8
0
 10
139.2726987265741059
 20
103.003925155360605
 30
0.0
 11
139.2321376231519992
 21
103.005152020325994
 31
0.0
  0
LINE
  5
2191D
  8
0
 10
139.2733766011639887
 20
103.3636420519377026
 30
0.0
 11
139.2321376231519992
 21
103.3631506838402032
 31
0.0
  0
LINE
  5
2191E
  8
0
 10
141.3974914653734913
 20
77.5568468480938975
 30
0.0
 11
131.9685508609045996
 21
66.7543170563170634
 31
0.0
  0
ENDBLK
  5
21922
  8
0
  0
BLOCK
  8
0
  2
A$CB366185F
 70
     0
 10
0.0
 20
0.0
 30
0.0
  3
A$CB366185F
  1

  0
LINE
  5
235DE
  8
0
 10
81.2322613638755655
 20
53.4182726486562629
 30
0.0
 11
103.4746889102327003
 21
53.4182726486562629
 31
0.0
  0
ARC
  5
235DF
  8
0
 10
103.4745945480679978
 20
53.3393206859926323
 30
0.0
 40
0.0789520190537069
 50
3.2209072231025768
 51
89.931521003046015
  0
ARC
  5
235E0
  8
0
 10
100.1551190593908984
 20
53.5400368310248709
 30
0.0
 40
3.4044895719254971
 50
350.506620943769974
 51
356.5453039869589134
  0
ARC
  5
235E1
  8
0
 10
52.268904688504449
 20
63.2781757550627333
 30
0.0
 40
52.2689050099409087
 50
344.7777656890087883
 51
348.6354223470049192
  0
ARC
  5
235E2
  8
0
 10
58.7423579321049729
 20
61.6992048540671405
 30
0.0
 40
45.6083346709769373
 50
342.4692505189784129
 51
344.5565115823847009
  0
ARC
  5
235E3
  8
0
 10
102.1037513563648957
 20
48.0022858502565981
 30
0.0
 40
0.1350901906330349
 50
270.0409266400915271
 51
342.2812689687808074
  0
LINE
  5
235E4
  8
0
 10
82.6031024222041594
 20
47.8671956940871794
 30
0.0
 11
102.1038478519041064
 21
47.8671956940871794
 31
0.0
  0
ARC
  5
235E5
  8
0
 10
81.2323557261028242
 20
53.3393206858478166
 30
0.0
 40
0.0789520191986016
 50
90.0684790421930188
 51
176.779092888090986
  0
ARC
  5
235E6
  8
0
 10
84.551831247043026
 20
53.5400368355586025
 30
0.0
 40
3.4044896045561601
 50
183.4546960563280038
 51
189.4933790417576915
  0
ARC
  5
235E7
  8
0
 10
132.4380455856037884
 20
63.2781757550627333
 30
0.0
 40
52.2689050099409087
 50
191.3645776529949956
 51
195.222234310991098
  0
ARC
  5
235E8
  8
0
 10
125.9645923420033
 20
61.6992048540671405
 30
0.0
 40
45.6083346709769373
 50
195.4434884176152991
 51
197.5307494810215871
  0
ARC
  5
235E9
  8
0
 10
82.6031989177434269
 20
48.0022858502565981
 30
0.0
 40
0.1350901906330349
 50
197.7187310312191926
 51
269.9590733599084729
  0
LINE
  5
235EA
  8
0
 10
91.0089869480541438
 20
46.6544931219871799
 30
0.0
 11
93.6979633259541487
 21
46.6544931219871799
 31
0.0
  0
LINE
  5
235EB
  8
0
 10
93.6979633259541487
 20
46.6544931219871799
 30
0.0
 11
93.735810234946797
 21
47.8671956940871794
 31
0.0
  0
LINE
  5
235EC
  8
0
 10
90.9711400391615257
 20
47.8671956940871794
 30
0.0
 11
91.0089869480541438
 21
46.6544931219871799
 31
0.0
  0
ARC
  5
235ED
  8
0
 10
91.1996875910541576
 20
47.0757530133871711
 30
0.0
 40
0.2362204639999992
 50
183.0000073804997953
 51
208.753404043146503
  0
ARC
  5
235EE
  8
0
 10
93.5072626821306159
 20
47.0757530137016218
 30
0.0
 40
0.2362204649697545
 50
334.9204591760610015
 51
356.9999925443764823
  0
LINE
  5
235EF
  8
0
 10
93.743159413554153
 20
47.0633901590871702
 30
0.0
 11
93.7852854695804439
 21
47.8671956940871794
 31
0.0
  0
LINE
  5
235F0
  8
0
 10
90.9251568223154152
 20
47.8005646038042684
 30
0.0
 11
90.9251568223154152
 21
47.8005646038042684
 31
0.0
  0
LINE
  5
235F1
  8
0
 10
90.921664802061045
 20
47.8671956940871794
 30
0.0
 11
90.9637908605828187
 21
47.0633901591327799
 31
0.0
  0
LINE
  5
235F2
  8
0
 10
103.553421848863394
 20
53.3348847010994831
 30
0.0
 11
103.553421848863394
 21
53.34375667088581
 31
0.0
  0
LINE
  5
235F3
  8
0
 10
81.1535284251541498
 20
53.3348847010994689
 30
0.0
 11
81.1535284251541498
 21
53.343756670596143
 31
0.0
  0
LINE
  5
235F4
  8
0
 10
92.3534751370541471
 20
22.5582726486562599
 30
0.0
 11
71.1217205803492618
 21
-0.0000000057413843
 31
0.0
  0
ENDBLK
  5
235F8
  8
0
  0
ENDSEC
  0
SECTION
  2
ENTITIES
  0
ATTDEF
  5
1C5FC
  8
0
 10
5285.2499170204418988
 20
354.0363119187686038
 30
0.0
 40
0.001
  1
K-31461IN
  3

  2
MODELNUMBER
 70
     0
1001
ACDBATTR
1070
     0
1070
     1
  0
ATTDEF
  5
1C5FD
  8
0
 10
5285.2497912107846787
 20
354.034645078389417
 30
0.0
 40
0.001
  1
KOHLER
  3

  2
BRANDNAME
 70
     0
1001
ACDBATTR
1070
     0
1070
     1
  0
ATTDEF
  5
1C5FE
  8
0
 10
5285.2499170204418988
 20
354.0329785854352167
 30
0.0
 40
0.001
  1
BATHROOM SINK
  3

  2
PRODUCT
 70
     0
1001
ACDBATTR
1070
     0
1070
     1
  0
LINE
  5
235FA
  8
0
 10
5274.1321756743827791
 20
384.892579583107306
 30
0.0
 11
5296.3746032207409371
 21
384.892579583107306
 31
0.0
  0
ARC
  5
235FB
  8
0
 10
5296.3745088585756093
 20
384.8136276204435831
 30
0.0
 40
0.0789520190537069
 50
3.2209072231034979
 51
89.9315210030631107
  0
ARC
  5
235FC
  8
0
 10
5293.05503336989932
 20
385.0143437654758145
 30
0.0
 40
3.4044895719254971
 50
350.5066209437729867
 51
356.5453039869595955
  0
ARC
  5
235FD
  8
0
 10
5245.168818999011819
 20
394.7524826895137267
 30
0.0
 40
52.2689050099409087
 50
344.7777656890057756
 51
348.6354223470088982
  0
ARC
  5
235FE
  8
0
 10
5251.6422722426123073
 20
393.1735117885181126
 30
0.0
 40
45.6083346709769373
 50
342.4692505189717053
 51
344.55651158239192
  0
ARC
  5
235FF
  8
0
 10
5295.0036656668726209
 20
379.4765927847075773
 30
0.0
 40
0.1350901906330349
 50
270.0409266400816932
 51
342.2812689687855823
  0
LINE
  5
23600
  8
0
 10
5275.5030167327113304
 20
379.3415026285380804
 30
0.0
 11
5295.0037621624123858
 21
379.3415026285380804
 31
0.0
  0
ARC
  5
23601
  8
0
 10
5274.132270036609043
 20
384.8136276202988029
 30
0.0
 40
0.0789520191986016
 50
90.0684790421686046
 51
176.7790928880899912
  0
ARC
  5
23602
  8
0
 10
5277.451745557549657
 20
385.0143437700095888
 30
0.0
 40
3.4044896045561601
 50
183.4546960563280038
 51
189.4933790417553894
  0
ARC
  5
23603
  8
0
 10
5325.3379598961109878
 20
394.7524826895137267
 30
0.0
 40
52.2689050099409087
 50
191.3645776529909881
 51
195.2222343109941107
  0
ARC
  5
23604
  8
0
 10
5318.8645066525095899
 20
393.1735117885181126
 30
0.0
 40
45.6083346709769373
 50
195.4434884176079947
 51
197.5307494810282094
  0
ARC
  5
23605
  8
0
 10
5275.5031132282510953
 20
379.4765927847075773
 30
0.0
 40
0.1350901906330349
 50
197.7187310312143893
 51
269.9590733599183068
  0
LINE
  5
23606
  8
0
 10
5283.9089012585618548
 20
378.1288000564380809
 30
0.0
 11
5286.597877636461817
 21
378.1288000564380809
 31
0.0
  0
LINE
  5
23607
  8
0
 10
5286.597877636461817
 20
378.1288000564380809
 30
0.0
 11
5286.6357245454546501
 21
379.3415026285380804
 31
0.0
  0
LINE
  5
23608
  8
0
 10
5283.8710543496690661
 20
379.3415026285380804
 30
0.0
 11
5283.9089012585618548
 21
378.1288000564380809
 31
0.0
  0
ARC
  5
23609
  8
0
 10
5284.0996019015619822
 20
378.5500599478381218
 30
0.0
 40
0.2362204639999992
 50
183.0000073804993974
 51
208.7534040431401934
  0
ARC
  5
2360A
  8
0
 10
5286.4071769926367779
 20
378.5500599481525796
 30
0.0
 40
0.2362204649697545
 50
334.9204591760641279
 51
356.9999925443769939
  0
LINE
  5
2360B
  8
0
 10
5286.6430737240616509
 20
378.5376970935382133
 30
0.0
 11
5286.6851997800868048
 21
379.3415026285380804
 31
0.0
  0
LINE
  5
2360C
  8
0
 10
5283.8250711328228135
 20
379.2748715382551836
 30
0.0
 11
5283.8250711328228135
 21
379.2748715382551836
 31
0.0
  0
LINE
  5
2360D
  8
0
 10
5283.8215791125694523
 20
379.3415026285380804
 30
0.0
 11
5283.8637051710902597
 21
378.537697093583688
 31
0.0
  0
LINE
  5
2360E
  8
0
 10
5296.453336159371247
 20
384.8091916355505191
 30
0.0
 11
5296.453336159371247
 21
384.8180636053368175
 31
0.0
  0
LINE
  5
2360F
  8
0
 10
5274.0534427356606102
 20
384.8091916355504054
 30
0.0
 11
5274.0534427356606102
 21
384.8180636050470866
 31
0.0
  0
ENDSEC
  0
EOF
