  0
SECTION
  2
HEADER
  9
$ACADVER
  1
AC1009
  9
$INSBASE
 10
5550.233328821050236
 20
503.6707324410447768
 30
0.0
  9
$EXTMIN
 10
5495.4922102903556151
 20
481.9665534021240774
 30
0.0
  9
$EXTMAX
 10
5569.9429614166183455
 20
590.2214054404538501
 30
0.0
  9
$LIMMIN
 10
0.0
 20
0.0
  9
$LIMMAX
 10
11.6929133858000007
 20
8.2677165353999982
  9
$ORTHOMODE
 70
     0
  9
$REGENMODE
 70
     1
  9
$FILLMODE
 70
     1
  9
$QTEXTMODE
 70
     0
  9
$MIRRTEXT
 70
     0
  9
$DRAGMODE
 70
     2
  9
$LTSCALE
 40
0.6431102362
  9
$OSMODE
 70
  4095
  9
$ATTMODE
 70
     1
  9
$TEXTSIZE
 40
0.2
  9
$TRACEWID
 40
0.05
  9
$TEXTSTYLE
  7
STANDARD
  9
$CLAYER
  8
0
  9
$CELTYPE
  6
BYLAYER
  9
$CECOLOR
 62
   256
  9
$DIMSCALE
 40
1.0
  9
$DIMASZ
 40
0.1875
  9
$DIMEXO
 40
0.0625
  9
$DIMDLI
 40
0.4443307087
  9
$DIMRND
 40
0.0
  9
$DIMDLE
 40
0.0
  9
$DIMEXE
 40
0.125
  9
$DIMTP
 40
0.01
  9
$DIMTM
 40
0.01
  9
$DIMTXT
 40
2.0
  9
$DIMCEN
 40
0.1052362205
  9
$DIMTSZ
 40
0.0
  9
$DIMTOL
 70
     1
  9
$DIMLIM
 70
     0
  9
$DIMTIH
 70
     1
  9
$DIMTOH
 70
     1
  9
$DIMSE1
 70
     0
  9
$DIMSE2
 70
     0
  9
$DIMTAD
 70
     0
  9
$DIMZIN
 70
     0
  9
$DIMBLK
  1

  9
$DIMASO
 70
     1
  9
$DIMSHO
 70
     1
  9
$DIMPOST
  1
\X
  9
$DIMAPOST
  1

  9
$DIMALT
 70
     1
  9
$DIMALTD
 70
     2
  9
$DIMALTF
 40
25.3999999999999986
  9
$DIMLFAC
 40
1.0
  9
$DIMTOFL
 70
     0
  9
$DIMTVP
 40
0.0
  9
$DIMTIX
 70
     0
  9
$DIMSOXD
 70
     0
  9
$DIMSAH
 70
     0
  9
$DIMBLK1
  1

  9
$DIMBLK2
  1

  9
$DIMSTYLE
  2
STANDARD
  9
$DIMCLRD
 70
     0
  9
$DIMCLRE
 70
     0
  9
$DIMCLRT
 70
     0
  9
$DIMTFAC
 40
1.0
  9
$DIMGAP
 40
0.09
  9
$LUNITS
 70
     2
  9
$LUPREC
 70
     4
  9
$SKETCHINC
 40
0.1
  9
$FILLETRAD
 40
0.0
  9
$AUNITS
 70
     0
  9
$AUPREC
 70
     0
  9
$MENU
  1
.
  9
$ELEVATION
 40
0.0
  9
$PELEVATION
 40
0.0
  9
$THICKNESS
 40
0.0
  9
$LIMCHECK
 70
     0
  9
$BLIPMODE
 70
     0
  9
$CHAMFERA
 40
0.0
  9
$CHAMFERB
 40
0.0
  9
$SKPOLY
 70
     0
  9
$TDCREATE
 40
2458060.468368056230247
  9
$TDUPDATE
 40
2459954.5002546301111579
  9
$TDINDWG
 40
0.4098565972
  9
$TDUSRTIMER
 40
0.4098565972
  9
$USRTIMER
 70
     1
  9
$ANGBASE
 50
0.0
  9
$ANGDIR
 70
     0
  9
$PDMODE
 70
     0
  9
$PDSIZE
 40
0.3125
  9
$PLINEWID
 40
0.0
  9
$COORDS
 70
     1
  9
$SPLFRAME
 70
     0
  9
$SPLINETYPE
 70
     6
  9
$SPLINESEGS
 70
     8
  9
$ATTDIA
 70
     1
  9
$ATTREQ
 70
     1
  9
$HANDLING
 70
     1
  9
$HANDSEED
  5
A8DE
  9
$SURFTAB1
 70
     6
  9
$SURFTAB2
 70
     6
  9
$SURFTYPE
 70
     6
  9
$SURFU
 70
     6
  9
$SURFV
 70
     6
  9
$UCSNAME
  2

  9
$UCSORG
 10
0.0
 20
0.0
 30
0.0
  9
$UCSXDIR
 10
1.0
 20
0.0
 30
0.0
  9
$UCSYDIR
 10
0.0
 20
1.0
 30
0.0
  9
$PUCSNAME
  2

  9
$PUCSORG
 10
0.0
 20
0.0
 30
0.0
  9
$PUCSXDIR
 10
1.0
 20
0.0
 30
0.0
  9
$PUCSYDIR
 10
0.0
 20
1.0
 30
0.0
  9
$USERI1
 70
     0
  9
$USERI2
 70
     0
  9
$USERI3
 70
     0
  9
$USERI4
 70
     0
  9
$USERI5
 70
     0
  9
$USERR1
 40
0.0
  9
$USERR2
 40
0.0
  9
$USERR3
 40
0.0
  9
$USERR4
 40
0.0
  9
$USERR5
 40
0.0
  9
$WORLDVIEW
 70
     1
  9
$SHADEDGE
 70
     3
  9
$SHADEDIF
 70
    70
  9
$TILEMODE
 70
     1
  9
$MAXACTVP
 70
    64
  9
$PLIMCHECK
 70
     0
  9
$PEXTMIN
 10
1.0000000000000000E+20
 20
1.0000000000000000E+20
 30
1.0000000000000000E+20
  9
$PEXTMAX
 10
-1.0000000000000000E+20
 20
-1.0000000000000000E+20
 30
-1.0000000000000000E+20
  9
$PLIMMIN
 10
0.0
 20
0.0
  9
$PLIMMAX
 10
12.0
 20
9.0
  9
$UNITMODE
 70
     0
  9
$VISRETAIN
 70
     1
  9
$PLINEGEN
 70
     0
  9
$PSLTSCALE
 70
     1
  0
ENDSEC
  0
SECTION
  2
TABLES
  0
TABLE
  2
VPORT
 70
     1
  0
VPORT
  2
*ACTIVE
 70
     0
 10
0.0
 20
0.0
 11
1.0
 21
1.0
 12
1761.4774317104479451
 22
389.6947327018731926
 13
0.0
 23
0.0
 14
1.0
 24
1.0
 15
0.0
 25
0.0
 16
0.0
 26
0.0
 36
17.1152628219792007
 17
3803.5440673828129547
 27
125.9952621967499056
 37
0.0
 40
69.794553777348483
 41
2.498684210526315
 42
50.0
 43
0.0
 44
0.0
 50
0.0
 51
0.0
 71
     0
 72
   100
 73
     1
 74
     1
 75
     0
 76
     0
 77
     0
 78
     0
  0
ENDTAB
  0
TABLE
  2
LTYPE
 70
     2
  0
LTYPE
  2
CONTINUOUS
 70
     0
  3
Solid line
 72
    65
 73
     0
 40
0.0
  0
LTYPE
  2
PHANTOM2
 70
     0
  3
___ _ _ ___ _ _ ___ _ _ ___ _ _
 72
    65
 73
     6
 40
1.25
 49
0.625
 49
-0.125
 49
0.125
 49
-0.125
 49
0.125
 49
-0.125
  0
ENDTAB
  0
TABLE
  2
LAYER
 70
     2
  0
LAYER
  2
0
 70
     0
 62
   255
  6
CONTINUOUS
  0
LAYER
  2
DEFPOINTS
 70
     0
 62
     7
  6
CONTINUOUS
  0
ENDTAB
  0
TABLE
  2
STYLE
 70
     1
  0
STYLE
  2
STANDARD
 70
     0
 40
0.0
 41
0.8
 50
0.0
 71
     0
 42
0.2
  3
txt
  4

  0
ENDTAB
  0
TABLE
  2
VIEW
 70
     0
  0
ENDTAB
  0
TABLE
  2
UCS
 70
     0
  0
ENDTAB
  0
TABLE
  2
APPID
 70
     9
  0
APPID
  2
ACAD
 70
     0
  0
APPID
  2
ACAD_MLEADERVER
 70
     0
  0
APPID
  2
ACAD_EXEMPT_FROM_CAD_STANDARDS
 70
     0
  0
APPID
  2
ACAD_NAV_VCDISPLAY
 70
     0
  0
APPID
  2
ACAECLAYERSTANDARD
 70
     0
  0
APPID
  2
ACCMTRANSPARENCY
 70
     0
  0
APPID
  2
ACAD_DSTYLE_DIMJAG
 70
     0
  0
APPID
  2
ACAD_DSTYLE_DIMTALN
 70
     0
  0
APPID
  2
ACDBATTR
 70
     0
  0
ENDTAB
  0
TABLE
  2
DIMSTYLE
 70
     1
  0
DIMSTYLE
  2
STANDARD
 70
     0
  3

  4

  5

  6

  7

 40
1.0
 41
0.1875
 42
0.0625
 43
0.38
 44
0.125
 45
0.0
 46
0.0
 47
0.01
 48
0.01
140
0.15625
141
0.09
142
0.0
143
25.3999999999999986
144
1.0
145
0.0
146
1.0
147
0.09
 71
     1
 72
     0
 73
     1
 74
     1
 75
     0
 76
     0
 77
     0
 78
     4
170
     0
171
     2
172
     0
173
     0
174
     0
175
     0
176
     0
177
     0
178
     0
  0
ENDTAB
  0
ENDSEC
  0
SECTION
  2
BLOCKS
  0
BLOCK
  8
0
  2
$MODEL_SPACE
 70
     0
 10
0.0
 20
0.0
 30
0.0
  3
$MODEL_SPACE
  1

  0
ENDBLK
  5
21
  8
0
  0
BLOCK
 67
     1
  8
0
  2
$PAPER_SPACE
 70
     0
 10
0.0
 20
0.0
 30
0.0
  3
$PAPER_SPACE
  1

  0
ENDBLK
  5
1D
 67
     1
  8
0
  0
BLOCK
  8
0
  2
_FILLED
 70
     0
 10
0.0
 20
0.0
 30
0.0
  3
_FILLED
  1

  0
SOLID
  5
9C54
  8
0
  6
BYBLOCK
 62
     0
 10
0.0
 20
0.0
 30
0.0
 11
-1.0
 21
0.1666666667
 31
0.0
 12
-1.0
 22
-0.1666666667
 32
0.0
 13
-1.0
 23
-0.1666666667
 33
0.0
  0
ENDBLK
  5
9C55
  8
0
  6
BYBLOCK
 62
     0
  0
BLOCK
  8
0
  2
*D6
 70
     1
 10
0.0
 20
0.0
 30
0.0
  3
*D6
  1

  0
LINE
  5
A76C
  8
0
 62
     0
 10
5550.295828821052055
 20
503.6707324410450042
 30
0.0
 11
5556.3486896011927456
 21
503.6707324410450042
 31
0.0
  0
LINE
  5
A76D
  8
0
 62
     0
 10
5550.295828821052055
 20
519.4207324410449473
 30
0.0
 11
5556.3486896011927456
 21
519.4207324410449473
 31
0.0
  0
LINE
  5
A76E
  8
0
 62
     0
 10
5556.2236896011927456
 20
503.8582324410450042
 30
0.0
 11
5556.2236896011927456
 21
511.3776074410449723
 31
0.0
  0
LINE
  5
A76F
  8
0
 62
     0
 10
5556.2236896011927456
 20
519.2332324410449473
 30
0.0
 11
5556.2236896011927456
 21
511.7138574410449792
 31
0.0
  0
SOLID
  5
A770
  8
0
 62
     0
 10
5556.1924396011927456
 20
503.8582324410450042
 30
0.0
 11
5556.2549396011927456
 21
503.8582324410450042
 31
0.0
 12
5556.2236896011927456
 22
503.6707324410450042
 32
0.0
 13
5556.2236896011927456
 23
503.6707324410450042
 33
0.0
  0
SOLID
  5
A771
  8
0
 62
     0
 10
5556.1924396011927456
 20
519.2332324410449473
 30
0.0
 11
5556.2549396011927456
 21
519.2332324410449473
 31
0.0
 12
5556.2236896011927456
 22
519.4207324410449473
 32
0.0
 13
5556.2236896011927456
 23
519.4207324410449473
 33
0.0
  0
INSERT
  5
A772
  8
0
  2
*U16
 10
0.0
 20
0.0
 30
0.0
  0
POINT
  5
A773
  8
DEFPOINTS
 62
     0
 10
5550.233328821052055
 20
503.6707324410450042
 30
0.0
  0
POINT
  5
A774
  8
DEFPOINTS
 62
     0
 10
5550.233328821052055
 20
519.4207324410449473
 30
0.0
  0
POINT
  5
A775
  8
DEFPOINTS
 62
     0
 10
5556.2236896011927456
 20
519.4207324410449473
 30
0.0
  0
ENDBLK
  5
A76B
  8
0
  0
BLOCK
  8
0
  2
*U9
 70
     1
 10
0.0
 20
0.0
 30
0.0
  3
*U9
  1

  0
TEXT
  5
A8AF
  8
0
 62
     0
 10
40.2521741317407376
 20
1.0992175541873781
 30
0.0
 40
0.5
  1
15.7500±0.0100 [400.05±0.25]
 41
0.8
  0
ENDBLK
  5
A8B1
  8
0
  0
BLOCK
  8
0
  2
*U10
 70
     1
 10
0.0
 20
0.0
 30
0.0
  3
*U10
  1

  0
TEXT
  5
A8B3
  8
0
 62
     0
 10
5477.9015696837022915
 20
489.2656434722267136
 30
0.0
 40
0.15625
  1
15.7500±0.0100
 41
0.8
  0
ENDBLK
  5
A8B5
  8
0
  0
BLOCK
  8
0
  2
*U11
 70
     1
 10
0.0
 20
0.0
 30
0.0
  3
*U11
  1

  0
TEXT
  5
A8B7
  8
0
 62
     0
 10
5452.5347055560996523
 20
521.4165983738392924
 30
0.0
 40
2.0
  1
21.7940±0.0100
 41
0.8
  0
ENDBLK
  5
A8B9
  8
0
  0
BLOCK
  8
0
  2
*U12
 70
     1
 10
0.0
 20
0.0
 30
0.0
  3
*U12
  1

  0
TEXT
  5
A8BB
  8
0
 62
     0
 10
5452.8013722227669859
 20
519.2365983738392288
 30
0.0
 40
2.0
  1
[553.57±0.25]
 41
0.8
  0
ENDBLK
  5
A8BD
  8
0
  0
BLOCK
  8
0
  2
*U13
 70
     1
 10
0.0
 20
0.0
 30
0.0
  3
*U13
  1

  0
TEXT
  5
A8BF
  8
0
 62
     0
 10
5451.0783437001136917
 20
504.6281408427199722
 30
0.0
 40
2.0
  1
21.7941±0.0100
 41
0.8
  0
ENDBLK
  5
A8C1
  8
0
  0
BLOCK
  8
0
  2
*U14
 70
     1
 10
0.0
 20
0.0
 30
0.0
  3
*U14
  1

  0
TEXT
  5
A8C3
  8
0
 62
     0
 10
5451.2116770334478133
 20
502.448140842720079
 30
0.0
 40
2.0
  1
[553.57±0.25]
 41
0.8
  0
ENDBLK
  5
A8C5
  8
0
  0
BLOCK
  8
0
  2
*U15
 70
     1
 10
0.0
 20
0.0
 30
0.0
  3
*U15
  1

  0
TEXT
  5
A8C7
  8
0
 62
     0
 10
40.2521741317407518
 20
1.0992175541873781
 30
0.0
 40
0.5
  1
15.7500±0.0100 [400.05±0.25]
 41
0.8
  0
ENDBLK
  5
A8C9
  8
0
  0
BLOCK
  8
0
  2
*U16
 70
     1
 10
0.0
 20
0.0
 30
0.0
  3
*U16
  1

  0
TEXT
  5
A8CB
  8
0
 62
     0
 10
5555.5570229345248663
 20
511.4676074410432989
 30
0.0
 40
0.15625
  1
15.7500±0.0100
 41
0.8
  0
ENDBLK
  5
A8CD
  8
0
  0
BLOCK
  8
0
  2
*U17
 70
     1
 10
0.0
 20
0.0
 30
0.0
  3
*U17
  1

  0
TEXT
  5
A8CF
  8
0
 62
     0
 10
5529.5741665292998732
 20
543.6185623426561051
 30
0.0
 40
2.0
  1
21.7940±0.0100
 41
0.8
  0
ENDBLK
  5
A8D1
  8
0
  0
BLOCK
  8
0
  2
*U18
 70
     1
 10
0.0
 20
0.0
 30
0.0
  3
*U18
  1

  0
TEXT
  5
A8D3
  8
0
 62
     0
 10
5529.8408331959690258
 20
541.4385623426560414
 30
0.0
 40
2.0
  1
[553.57±0.25]
 41
0.8
  0
ENDBLK
  5
A8D5
  8
0
  0
BLOCK
  8
0
  2
*U19
 70
     1
 10
0.0
 20
0.0
 30
0.0
  3
*U19
  1

  0
TEXT
  5
A8D7
  8
0
 62
     0
 10
5530.6696621543833317
 20
526.0557915197825878
 30
0.0
 40
2.0
  1
21.7940±0.0100
 41
0.8
  0
ENDBLK
  5
A8D9
  8
0
  0
BLOCK
  8
0
  2
*U20
 70
     1
 10
0.0
 20
0.0
 30
0.0
  3
*U20
  1

  0
TEXT
  5
A8DB
  8
0
 62
     0
 10
5530.9363288210497558
 20
523.8757915197825241
 30
0.0
 40
2.0
  1
[553.57±0.25]
 41
0.8
  0
ENDBLK
  5
A8DD
  8
0
  0
ENDSEC
  0
SECTION
  2
ENTITIES
  0
ARC
  5
A6F1
  8
0
 10
5510.2601966660877224
 20
508.2977030251352062
 30
0.0
 40
21.3126603615520089
 50
0.7691569147539717
 51
11.7091342719942304
  0
ARC
  5
A6F2
  8
0
 10
5531.6883260755030278
 20
508.585378385857382
 30
0.0
 40
0.1174
 50
180.7691569147507096
 51
248.8987657241430043
  0
ARC
  5
A6F3
  8
0
 10
5515.2339320475293789
 20
509.814824880428489
 30
0.0
 40
16.1415609907292605
 50
10.0187046297509106
 51
34.848445524661841
  0
ARC
  5
A6F4
  8
0
 10
5528.6849263721760508
 20
519.1750011861946632
 30
0.0
 40
0.2457338421920528
 50
89.7370746626579745
 51
178.0916461158230106
  0
ARC
  5
A6F5
  8
0
 10
5528.6849263721760508
 20
519.1750011861946632
 30
0.0
 40
0.2457338421920528
 50
181.9083538841769041
 51
213.8179146900158116
  0
LINE
  5
A6F6
  8
0
 10
5550.233328821050236
 20
506.4994743430574999
 30
0.0
 11
5550.233328821050236
 21
519.4207324410448336
 31
0.0
  0
LINE
  5
A6F7
  8
0
 10
5548.1570165780203752
 20
506.4994743430574999
 30
0.0
 11
5550.233328821050236
 21
506.4994743430574999
 31
0.0
  0
LINE
  5
A6F8
  8
0
 10
5547.785965205206594
 20
508.3001820589171871
 30
0.0
 11
5548.0400160013850837
 21
506.6002884897158083
 31
0.0
  0
LINE
  5
A6F9
  8
0
 10
5547.7206831034282004
 20
507.4048739406757136
 30
0.0
 11
5547.6703610162530822
 21
507.3973532543482179
 31
0.0
  0
ARC
  5
A6FA
  8
0
 10
5547.7497867765141564
 20
507.2101367171850939
 30
0.0
 40
0.1969
 50
8.5000000024702267
 51
98.5000000104468256
  0
LINE
  5
A6FB
  8
0
 10
5547.4465201196699127
 20
507.5629868047839182
 30
0.0
 11
5547.3100917186338847
 21
508.4758505513448199
 31
0.0
  0
ARC
  5
A6FC
  8
0
 10
5547.6412573431662167
 20
507.5920904778388945
 30
0.0
 40
0.1969
 50
188.5000000010446115
 51
278.5000000104469109
  0
ARC
  5
A6FD
  8
0
 10
5547.5757397631286949
 20
508.26253724515459
 30
0.0
 40
0.21356935290334
 50
10.1522849026850093
 51
87.194106611127367
  0
ARC
  5
A6FE
  8
0
 10
5548.1570165780203752
 20
506.6177743430574196
 30
0.0
 40
0.1183
 50
188.5000000024733993
 51
270.0
  0
ARC
  5
A701
  8
0
 10
5543.019086082234935
 20
509.6972112584339811
 30
0.0
 40
3.3836999320236898
 50
201.1588083678464045
 51
254.344767367256793
  0
ARC
  5
A702
  8
0
 10
5543.0803887299107373
 20
510.5873827864286909
 30
0.0
 40
4.2612446402687549
 50
256.7816451865310228
 51
268.8719508345482154
  0
ARC
  5
A703
  8
0
 10
5543.0604110808872065
 20
510.5640365537233265
 30
0.0
 40
4.2383597023671351
 50
271.4120955406971234
 51
291.5019083474276727
  0
ARC
  5
A704
  8
0
 10
5543.0781745743761348
 20
509.1718670247176988
 30
0.0
 40
2.9777863416041161
 50
301.0462196963744077
 51
346.4828620115313811
  0
LINE
  5
A705
  8
0
 10
5531.6460600907512344
 20
508.4758505513448199
 30
0.0
 11
5550.233328821050236
 21
508.4758505513448199
 31
0.0
  0
LINE
  5
A706
  8
0
 10
5542.996498032159252
 20
506.3269640000827962
 30
0.0
 11
5543.164857918249254
 21
506.3269640000827962
 31
0.0
  0
LINE
  5
A708
  8
0
 10
5528.6837987249546131
 20
519.4207324410448336
 30
0.0
 11
5550.233328821050236
 21
519.4207324410448336
 31
0.0
  0
LINE
  5
A768
  8
0
 10
5528.439328821050367
 20
519.1831843444623473
 30
0.0
 11
5528.439328821050367
 21
519.1668180279272065
 31
0.0
  0
ATTDEF
  5
A776
  8
DEFPOINTS
 10
5550.2352361385710537
 20
503.6757301916620122
 30
0.0
 40
0.001
  1
K-31539IN
  3

  2
MODELNUMBER
 70
     0
1001
ACDBATTR
1070
     0
1070
     1
  0
ATTDEF
  5
A777
  8
DEFPOINTS
 10
5550.2352361385710537
 20
503.6740635249952902
 30
0.0
 40
0.001
  1
VEIL
  3

  2
TRADENAME
 70
     0
1001
ACDBATTR
1070
     0
1070
     1
  0
ATTDEF
  5
A778
  8
DEFPOINTS
 10
5550.2352361385710537
 20
503.6723968583286251
 30
0.0
 40
0.001
  1
BOWL
  3

  2
PRODUCT
 70
     0
1001
ACDBATTR
1070
     0
1070
     1
  0
ENDSEC
  0
EOF
