  0
SECTION
  2
HEADER
  9
$ACADVER
  1
AC1009
  9
$INSBASE
 10
8485.735525159017925
 20
2331.967762597680121
 30
0.0
  9
$EXTMIN
 10
8468.1590981537392508
 20
2331.9188102613898081
 30
-0.0000000349181948
  9
$EXTMAX
 10
8503.4577921318796143
 20
2364.1184816436980327
 30
0.0000000814935746
  9
$LIMMIN
 10
0.0
 20
0.0
  9
$LIMMAX
 10
11.6929133858000007
 20
8.2677165353999982
  9
$ORTHOMODE
 70
     0
  9
$REGENMODE
 70
     1
  9
$FILLMODE
 70
     1
  9
$QTEXTMODE
 70
     0
  9
$MIRRTEXT
 70
     0
  9
$DRAGMODE
 70
     2
  9
$LTSCALE
 40
0.6431102362
  9
$OSMODE
 70
  4095
  9
$ATTMODE
 70
     1
  9
$TEXTSIZE
 40
0.2
  9
$TRACEWID
 40
0.05
  9
$TEXTSTYLE
  7
STANDARD
  9
$CLAYER
  8
0
  9
$CELTYPE
  6
BYLAYER
  9
$CECOLOR
 62
   256
  9
$DIMSCALE
 40
1.0
  9
$DIMASZ
 40
0.1875
  9
$DIMEXO
 40
0.0625
  9
$DIMDLI
 40
0.4443307087
  9
$DIMRND
 40
0.0
  9
$DIMDLE
 40
0.0
  9
$DIMEXE
 40
0.125
  9
$DIMTP
 40
0.01
  9
$DIMTM
 40
0.01
  9
$DIMTXT
 40
2.0
  9
$DIMCEN
 40
0.1052362205
  9
$DIMTSZ
 40
0.0
  9
$DIMTOL
 70
     1
  9
$DIMLIM
 70
     0
  9
$DIMTIH
 70
     1
  9
$DIMTOH
 70
     1
  9
$DIMSE1
 70
     0
  9
$DIMSE2
 70
     0
  9
$DIMTAD
 70
     0
  9
$DIMZIN
 70
     0
  9
$DIMBLK
  1

  9
$DIMASO
 70
     1
  9
$DIMSHO
 70
     1
  9
$DIMPOST
  1
\X
  9
$DIMAPOST
  1

  9
$DIMALT
 70
     1
  9
$DIMALTD
 70
     2
  9
$DIMALTF
 40
25.3999999999999986
  9
$DIMLFAC
 40
1.0
  9
$DIMTOFL
 70
     0
  9
$DIMTVP
 40
0.0
  9
$DIMTIX
 70
     0
  9
$DIMSOXD
 70
     0
  9
$DIMSAH
 70
     0
  9
$DIMBLK1
  1

  9
$DIMBLK2
  1

  9
$DIMSTYLE
  2
STANDARD
  9
$DIMCLRD
 70
     0
  9
$DIMCLRE
 70
     0
  9
$DIMCLRT
 70
     0
  9
$DIMTFAC
 40
1.0
  9
$DIMGAP
 40
0.09
  9
$LUNITS
 70
     2
  9
$LUPREC
 70
     4
  9
$SKETCHINC
 40
0.1
  9
$FILLETRAD
 40
0.0
  9
$AUNITS
 70
     0
  9
$AUPREC
 70
     0
  9
$MENU
  1
.
  9
$ELEVATION
 40
0.0
  9
$PELEVATION
 40
0.0
  9
$THICKNESS
 40
0.0
  9
$LIMCHECK
 70
     0
  9
$BLIPMODE
 70
     0
  9
$CHAMFERA
 40
0.0
  9
$CHAMFERB
 40
0.0
  9
$SKPOLY
 70
     0
  9
$TDCREATE
 40
2458060.468368056230247
  9
$TDUPDATE
 40
2460028.491759258788079
  9
$TDINDWG
 40
0.3270672454
  9
$TDUSRTIMER
 40
0.3270672454
  9
$USRTIMER
 70
     1
  9
$ANGBASE
 50
0.0
  9
$ANGDIR
 70
     0
  9
$PDMODE
 70
     0
  9
$PDSIZE
 40
0.3125
  9
$PLINEWID
 40
0.0
  9
$COORDS
 70
     1
  9
$SPLFRAME
 70
     0
  9
$SPLINETYPE
 70
     6
  9
$SPLINESEGS
 70
     8
  9
$ATTDIA
 70
     1
  9
$ATTREQ
 70
     1
  9
$HANDLING
 70
     1
  9
$HANDSEED
  5
C9E2
  9
$SURFTAB1
 70
     6
  9
$SURFTAB2
 70
     6
  9
$SURFTYPE
 70
     6
  9
$SURFU
 70
     6
  9
$SURFV
 70
     6
  9
$UCSNAME
  2

  9
$UCSORG
 10
0.0
 20
0.0
 30
0.0
  9
$UCSXDIR
 10
1.0
 20
0.0
 30
0.0
  9
$UCSYDIR
 10
0.0
 20
1.0
 30
0.0
  9
$PUCSNAME
  2

  9
$PUCSORG
 10
0.0
 20
0.0
 30
0.0
  9
$PUCSXDIR
 10
1.0
 20
0.0
 30
0.0
  9
$PUCSYDIR
 10
0.0
 20
1.0
 30
0.0
  9
$USERI1
 70
     0
  9
$USERI2
 70
     0
  9
$USERI3
 70
     0
  9
$USERI4
 70
     0
  9
$USERI5
 70
     0
  9
$USERR1
 40
0.0
  9
$USERR2
 40
0.0
  9
$USERR3
 40
0.0
  9
$USERR4
 40
0.0
  9
$USERR5
 40
0.0
  9
$WORLDVIEW
 70
     1
  9
$SHADEDGE
 70
     3
  9
$SHADEDIF
 70
    70
  9
$TILEMODE
 70
     1
  9
$MAXACTVP
 70
    64
  9
$PLIMCHECK
 70
     0
  9
$PEXTMIN
 10
1.0000000000000000E+20
 20
1.0000000000000000E+20
 30
1.0000000000000000E+20
  9
$PEXTMAX
 10
-1.0000000000000000E+20
 20
-1.0000000000000000E+20
 30
-1.0000000000000000E+20
  9
$PLIMMIN
 10
0.0
 20
0.0
  9
$PLIMMAX
 10
12.0
 20
9.0
  9
$UNITMODE
 70
     0
  9
$VISRETAIN
 70
     1
  9
$PLINEGEN
 70
     0
  9
$PSLTSCALE
 70
     1
  0
ENDSEC
  0
SECTION
  2
TABLES
  0
TABLE
  2
VPORT
 70
     1
  0
VPORT
  2
*ACTIVE
 70
     0
 10
0.0
 20
0.0
 11
1.0
 21
1.0
 12
4993.8918191662451136
 22
2171.0666806205131252
 13
0.0
 23
0.0
 14
1.0
 24
1.0
 15
0.0
 25
0.0
 16
0.0
 26
0.0
 36
199.3126279314143119
 17
3491.9166259765629547
 27
176.9519653320311932
 37
0.0
 40
32.4548867433304622
 41
2.5251322751322749
 42
50.0
 43
0.0
 44
0.0
 50
0.0
 51
0.0
 71
     0
 72
   100
 73
     1
 74
     1
 75
     0
 76
     0
 77
     0
 78
     0
  0
ENDTAB
  0
TABLE
  2
LTYPE
 70
     2
  0
LTYPE
  2
CONTINUOUS
 70
     0
  3
Solid line
 72
    65
 73
     0
 40
0.0
  0
LTYPE
  2
PHANTOM2
 70
     0
  3
___ _ _ ___ _ _ ___ _ _ ___ _ _
 72
    65
 73
     6
 40
1.25
 49
0.625
 49
-0.125
 49
0.125
 49
-0.125
 49
0.125
 49
-0.125
  0
ENDTAB
  0
TABLE
  2
LAYER
 70
     2
  0
LAYER
  2
0
 70
     0
 62
   255
  6
CONTINUOUS
  0
LAYER
  2
DEFPOINTS
 70
     0
 62
     7
  6
CONTINUOUS
  0
ENDTAB
  0
TABLE
  2
STYLE
 70
     1
  0
STYLE
  2
STANDARD
 70
     0
 40
0.0
 41
0.8
 50
0.0
 71
     0
 42
0.2
  3
txt
  4

  0
ENDTAB
  0
TABLE
  2
VIEW
 70
     0
  0
ENDTAB
  0
TABLE
  2
UCS
 70
     0
  0
ENDTAB
  0
TABLE
  2
APPID
 70
     9
  0
APPID
  2
ACAD
 70
     0
  0
APPID
  2
ACAD_MLEADERVER
 70
     0
  0
APPID
  2
ACAD_EXEMPT_FROM_CAD_STANDARDS
 70
     0
  0
APPID
  2
ACAD_NAV_VCDISPLAY
 70
     0
  0
APPID
  2
ACAECLAYERSTANDARD
 70
     0
  0
APPID
  2
ACCMTRANSPARENCY
 70
     0
  0
APPID
  2
ACAD_DSTYLE_DIMJAG
 70
     0
  0
APPID
  2
ACAD_DSTYLE_DIMTALN
 70
     0
  0
APPID
  2
ACDBATTR
 70
     0
  0
ENDTAB
  0
TABLE
  2
DIMSTYLE
 70
     1
  0
DIMSTYLE
  2
STANDARD
 70
     0
  3

  4

  5

  6

  7

 40
1.0
 41
0.1875
 42
0.0625
 43
0.38
 44
0.125
 45
0.0
 46
0.0
 47
0.01
 48
0.01
140
0.15625
141
0.09
142
0.0
143
25.3999999999999986
144
1.0
145
0.0
146
1.0
147
0.09
 71
     1
 72
     0
 73
     1
 74
     1
 75
     0
 76
     0
 77
     0
 78
     4
170
     0
171
     2
172
     0
173
     0
174
     0
175
     0
176
     0
177
     0
178
     0
  0
ENDTAB
  0
ENDSEC
  0
SECTION
  2
BLOCKS
  0
BLOCK
  8
0
  2
$MODEL_SPACE
 70
     0
 10
0.0
 20
0.0
 30
0.0
  3
$MODEL_SPACE
  1

  0
ENDBLK
  5
21
  8
0
  0
BLOCK
 67
     1
  8
0
  2
$PAPER_SPACE
 70
     0
 10
0.0
 20
0.0
 30
0.0
  3
$PAPER_SPACE
  1

  0
ENDBLK
  5
1D
 67
     1
  8
0
  0
BLOCK
  8
0
  2
_FILLED
 70
     0
 10
0.0
 20
0.0
 30
0.0
  3
_FILLED
  1

  0
SOLID
  5
8323
  8
0
  6
BYBLOCK
 62
     0
 10
0.0
 20
0.0
 30
0.0
 11
-1.0
 21
0.1666666667
 31
0.0
 12
-1.0
 22
-0.1666666667
 32
0.0
 13
-1.0
 23
-0.1666666667
 33
0.0
  0
ENDBLK
  5
8324
  8
0
  6
BYBLOCK
 62
     0
  0
BLOCK
  8
0
  2
*D3
 70
     1
 10
0.0
 20
0.0
 30
0.0
  3
*D3
  1

  0
LINE
  5
C8ED
  8
0
 62
     0
 10
8478.3192744597781711
 20
2363.9677625976810305
 30
0.0
 11
8458.0142086669384298
 21
2363.9677625976810305
 31
0.0
  0
LINE
  5
C8EE
  8
0
 62
     0
 10
8475.3342371555263526
 20
2331.9677625976810305
 30
0.0
 11
8458.0142086669384298
 21
2331.9677625976810305
 31
0.0
  0
LINE
  5
C8EF
  8
0
 62
     0
 10
8458.1392086669384298
 20
2363.7802625976810305
 30
0.0
 11
8458.1392086669384298
 21
2348.135887597681176
 31
0.0
  0
LINE
  5
C8F0
  8
0
 62
     0
 10
8458.1392086669384298
 20
2332.1552625976810305
 30
0.0
 11
8458.1392086669384298
 21
2347.7996375976808849
 31
0.0
  0
SOLID
  5
C8F1
  8
0
 62
     0
 10
8458.1079586669384298
 20
2363.7802625976810305
 30
0.0
 11
8458.1704586669384298
 21
2363.7802625976810305
 31
0.0
 12
8458.1392086669384298
 22
2363.9677625976810305
 32
0.0
 13
8458.1392086669384298
 23
2363.9677625976810305
 33
0.0
  0
SOLID
  5
C8F2
  8
0
 62
     0
 10
8458.1079586669384298
 20
2332.1552625976810305
 30
0.0
 11
8458.1704586669384298
 21
2332.1552625976810305
 31
0.0
 12
8458.1392086669384298
 22
2331.9677625976810305
 32
0.0
 13
8458.1392086669384298
 23
2331.9677625976810305
 33
0.0
  0
INSERT
  5
C8F3
  8
0
  2
*U7
 10
0.0
 20
0.0
 30
0.0
  0
POINT
  5
C8F4
  8
DEFPOINTS
 62
     0
 10
8478.3817744597781711
 20
2363.9677625976810305
 30
0.0
  0
POINT
  5
C8F5
  8
DEFPOINTS
 62
     0
 10
8475.3967371555245336
 20
2331.9677625976810305
 30
0.0
  0
POINT
  5
C8F6
  8
DEFPOINTS
 62
     0
 10
8458.1392086669384298
 20
2331.9677625976810305
 30
0.0
  0
ENDBLK
  5
C8EC
  8
0
  0
BLOCK
  8
0
  2
*D4
 70
     1
 10
0.0
 20
0.0
 30
0.0
  3
*D4
  1

  0
LINE
  5
C8FA
  8
0
 62
     0
 10
8531.0707046318802895
 20
2331.9677625976810305
 30
0.0
 11
8551.7858768475525721
 21
2331.9677625976810305
 31
0.0
  0
LINE
  5
C8FB
  8
0
 62
     0
 10
8531.0707046318802895
 20
2363.9677625976810305
 30
0.0
 11
8551.7858768475525721
 21
2363.9677625976810305
 31
0.0
  0
LINE
  5
C8FC
  8
0
 62
     0
 10
8551.6608768475525721
 20
2332.1552625976810305
 30
0.0
 11
8551.6608768475525721
 21
2347.7996375976808849
 31
0.0
  0
LINE
  5
C8FD
  8
0
 62
     0
 10
8551.6608768475525721
 20
2363.7802625976810305
 30
0.0
 11
8551.6608768475525721
 21
2348.135887597681176
 31
0.0
  0
SOLID
  5
C8FE
  8
0
 62
     0
 10
8551.6296268475525721
 20
2332.1552625976810305
 30
0.0
 11
8551.6921268475525721
 21
2332.1552625976810305
 31
0.0
 12
8551.6608768475525721
 22
2331.9677625976810305
 32
0.0
 13
8551.6608768475525721
 23
2331.9677625976810305
 33
0.0
  0
SOLID
  5
C8FF
  8
0
 62
     0
 10
8551.6296268475525721
 20
2363.7802625976810305
 30
0.0
 11
8551.6921268475525721
 21
2363.7802625976810305
 31
0.0
 12
8551.6608768475525721
 22
2363.9677625976810305
 32
0.0
 13
8551.6608768475525721
 23
2363.9677625976810305
 33
0.0
  0
INSERT
  5
C900
  8
0
  2
*U8
 10
0.0
 20
0.0
 30
0.0
  0
POINT
  5
C901
  8
DEFPOINTS
 62
     0
 10
8531.0082046318802895
 20
2331.9677625976810305
 30
0.0
  0
POINT
  5
C902
  8
DEFPOINTS
 62
     0
 10
8531.0082046318802895
 20
2363.9677625976810305
 30
0.0
  0
POINT
  5
C903
  8
DEFPOINTS
 62
     0
 10
8551.6608768475525721
 20
2363.9677625976810305
 30
0.0
  0
ENDBLK
  5
C8F9
  8
0
  0
BLOCK
  8
0
  2
*U5
 70
     1
 10
0.0
 20
0.0
 30
0.0
  3
*U5
  1

  0
TEXT
  5
C9D3
  8
0
 62
     0
 10
-24.0910928227823184
 20
1.2222612046000061
 30
0.0
 40
0.5
  1
32.000±.010 [812.80±0.25]
 41
0.8
  0
ENDBLK
  5
C9D5
  8
0
  0
BLOCK
  8
0
  2
*U6
 70
     1
 10
0.0
 20
0.0
 30
0.0
  3
*U6
  1

  0
TEXT
  5
C9D7
  8
0
 62
     0
 10
69.4305753578311311
 20
1.222261204599985
 30
0.0
 40
0.5
  1
32.000±.010 [812.80±0.25]
 41
0.8
  0
ENDBLK
  5
C9D9
  8
0
  0
BLOCK
  8
0
  2
*U7
 70
     1
 10
0.0
 20
0.0
 30
0.0
  3
*U7
  1

  0
TEXT
  5
C9DB
  8
0
 62
     0
 10
8457.6287920002705505
 20
2347.8896375976778472
 30
0.0
 40
0.15625
  1
32.000±.010
 41
0.8
  0
ENDBLK
  5
C9DD
  8
0
  0
BLOCK
  8
0
  2
*U8
 70
     1
 10
0.0
 20
0.0
 30
0.0
  3
*U8
  1

  0
TEXT
  5
C9DF
  8
0
 62
     0
 10
8551.1504601808846928
 20
2347.8896375976778472
 30
0.0
 40
0.15625
  1
32.000±.010
 41
0.8
  0
ENDBLK
  5
C9E1
  8
0
  0
ENDSEC
  0
SECTION
  2
ENTITIES
  0
ATTDEF
  5
3930
  8
DEFPOINTS
 10
8485.7370757357257389
 20
2331.9656757934008056
 30
0.0
 40
0.001
  1
K-31601IN
  3

  2
MODELNUMBER
 70
     0
1001
ACDBATTR
1070
     0
1070
     1
  0
ATTDEF
  5
3931
  8
DEFPOINTS
 10
8485.7370757357257389
 20
2331.9640091267337993
 30
0.0
 40
0.001
  1
FOREFRONT
  3

  2
TRADENAME
 70
     0
1001
ACDBATTR
1070
     0
1070
     1
  0
ATTDEF
  5
3932
  8
DEFPOINTS
 10
8485.7370757357257389
 20
2331.9623424600681574
 30
0.0
 40
0.001
  1
VANITY CABINET
  3

  2
PRODUCT
 70
     0
1001
ACDBATTR
1070
     0
1070
     1
  0
LINE
  5
C7BB
  8
0
 10
8503.2945802771191666
 20
2341.3299673221799821
 30
0.0
 11
8468.1764700409166835
 21
2341.3299673221799821
 31
0.0
  0
LINE
  5
C7BD
  8
0
 10
8503.1666275212173787
 20
2341.251227164680131
 30
0.0
 11
8499.0721393322164658
 21
2341.251227164680131
 31
0.0
  0
LINE
  5
C7BE
  8
0
 10
8472.3989109858175652
 20
2341.251227164680131
 30
0.0
 11
8468.3044227968166524
 21
2341.251227164680131
 31
0.0
  0
LINE
  5
C7C0
  8
0
 10
8502.5859188598187757
 20
2363.967762597680121
 30
0.0
 11
8468.8851314582152554
 21
2363.967762597680121
 31
0.0
  0
LINE
  5
C7C3
  8
0
 10
8503.2945802771191666
 20
2362.9835106291798184
 30
0.0
 11
8488.9638716157151066
 21
2362.9835106291798184
 31
0.0
  0
LINE
  5
C7C4
  8
0
 10
8488.8457613795180805
 20
2362.9835106291798184
 30
0.0
 11
8468.1764700409166835
 21
2362.9835106291798184
 31
0.0
  0
LINE
  5
C7C5
  8
0
 10
8499.0032416944177385
 20
2363.0327232276799805
 30
0.0
 11
8491.1292259464171366
 21
2363.0327232276799805
 31
0.0
  0
LINE
  5
C7C6
  8
0
 10
8486.6804070488196885
 20
2363.0327232276799805
 30
0.0
 11
8470.1056038992173853
 21
2363.0327232276799805
 31
0.0
  0
LINE
  5
C7CA
  8
0
 10
8468.1764700409166835
 20
2362.9835106291798184
 30
0.0
 11
8468.1764700409166835
 21
2341.3299673221799821
 31
0.0
  0
LINE
  5
C7CB
  8
0
 10
8468.3044227968166524
 20
2341.3299673221799821
 30
0.0
 11
8468.3044227968166524
 21
2341.251227164680131
 31
0.0
  0
LINE
  5
C7CC
  8
0
 10
8470.0268637417175341
 20
2362.9835106291798184
 30
0.0
 11
8470.0268637417175341
 21
2341.3299673221799821
 31
0.0
  0
LINE
  5
C7CD
  8
0
 10
8488.8457613795180805
 20
2362.9835106291798184
 30
0.0
 11
8488.8457613795180805
 21
2341.3299673221799821
 31
0.0
  0
LINE
  5
C7CF
  8
0
 10
8488.9638716157151066
 20
2362.9835106291798184
 30
0.0
 11
8488.9638716157151066
 21
2341.3299673221799821
 31
0.0
  0
LINE
  5
C7D1
  8
0
 10
8491.1292259464171366
 20
2363.0327232276799805
 30
0.0
 11
8491.1292259464171366
 21
2362.9835106291798184
 31
0.0
  0
LINE
  5
C7D2
  8
0
 10
8499.0032416944177385
 20
2363.0327232276799805
 30
0.0
 11
8499.0032416944177385
 21
2362.9835106291798184
 31
0.0
  0
LINE
  5
C7D3
  8
0
 10
8503.2945802771191666
 20
2362.9835106291798184
 30
0.0
 11
8503.2945802771191666
 21
2341.3299673221799821
 31
0.0
  0
LINE
  5
C7D7
  8
0
 10
8502.5859188598187757
 20
2363.967762597680121
 30
0.0
 11
8502.5859188598187757
 21
2362.9835106291798184
 31
0.0
  0
LINE
  5
C7DA
  8
0
 10
8501.3654464189166902
 20
2363.967762597680121
 30
0.0
 11
8501.3654464189166902
 21
2362.9835106291798184
 31
0.0
  0
LINE
  5
C7DB
  8
0
 10
8501.4441865763164969
 20
2362.9835106291798184
 30
0.0
 11
8501.4441865763164969
 21
2341.3299673221799821
 31
0.0
  0
LINE
  5
C7DD
  8
0
 10
8468.8851314582152554
 20
2363.967762597680121
 30
0.0
 11
8468.8851314582152554
 21
2362.9835106291798184
 31
0.0
  0
LINE
  5
C7DE
  8
0
 10
8470.1056038992173853
 20
2363.967762597680121
 30
0.0
 11
8470.1056038992173853
 21
2362.9835106291798184
 31
0.0
  0
LINE
  5
C7DF
  8
0
 10
8478.8063913007172232
 20
2363.0327232276799805
 30
0.0
 11
8478.8063913007172232
 21
2362.9835106291798184
 31
0.0
  0
LINE
  5
C7E1
  8
0
 10
8478.8851314582188934
 20
2363.0327232276799805
 30
0.0
 11
8478.8851314582188934
 21
2362.9835106291798184
 31
0.0
  0
LINE
  5
C805
  8
0
 10
8472.3989109858175652
 20
2341.3299673221799821
 30
0.0
 11
8472.3989109858175652
 21
2341.251227164680131
 31
0.0
  0
LINE
  5
C806
  8
0
 10
8488.8457613795180805
 20
2341.9598885819800671
 30
0.0
 11
8488.9638716157151066
 21
2341.9598885819800671
 31
0.0
  0
LINE
  5
C807
  8
0
 10
8488.8457613795180805
 20
2361.4087074795797889
 30
0.0
 11
8488.9638716157151066
 21
2361.4087074795797889
 31
0.0
  0
LINE
  5
C808
  8
0
 10
8486.6804070488196885
 20
2363.0327232276799805
 30
0.0
 11
8486.6804070488196885
 21
2362.9835106291798184
 31
0.0
  0
LINE
  5
C809
  8
0
 10
8499.0721393322164658
 20
2341.3299673221799821
 30
0.0
 11
8499.0721393322164658
 21
2341.251227164680131
 31
0.0
  0
LINE
  5
C80A
  8
0
 10
8503.1666275212173787
 20
2341.3299673221799821
 30
0.0
 11
8503.1666275212173787
 21
2341.251227164680131
 31
0.0
  0
ENDSEC
  0
EOF
