  0
SECTION
  2
HEADER
  9
$ACADVER
  1
AC1009
  9
$INSBASE
 10
8485.735525159017925
 20
2396.288824766036214
 30
0.0
  9
$EXTMIN
 10
8468.1590981537392508
 20
2375.8943652978778118
 30
-0.0000000349181948
  9
$EXTMAX
 10
8503.4577921318796143
 20
2396.3181558335950285
 30
0.0000000814935746
  9
$LIMMIN
 10
0.0
 20
0.0
  9
$LIMMAX
 10
11.6929133858000007
 20
8.2677165353999982
  9
$ORTHOMODE
 70
     0
  9
$REGENMODE
 70
     1
  9
$FILLMODE
 70
     1
  9
$QTEXTMODE
 70
     0
  9
$MIRRTEXT
 70
     0
  9
$DRAGMODE
 70
     2
  9
$LTSCALE
 40
0.6431102362
  9
$OSMODE
 70
  4095
  9
$ATTMODE
 70
     1
  9
$TEXTSIZE
 40
0.2
  9
$TRACEWID
 40
0.05
  9
$TEXTSTYLE
  7
STANDARD
  9
$CLAYER
  8
0
  9
$CELTYPE
  6
BYLAYER
  9
$CECOLOR
 62
   256
  9
$DIMSCALE
 40
1.0
  9
$DIMASZ
 40
0.1875
  9
$DIMEXO
 40
0.0625
  9
$DIMDLI
 40
0.4443307087
  9
$DIMRND
 40
0.0
  9
$DIMDLE
 40
0.0
  9
$DIMEXE
 40
0.125
  9
$DIMTP
 40
0.01
  9
$DIMTM
 40
0.01
  9
$DIMTXT
 40
2.0
  9
$DIMCEN
 40
0.1052362205
  9
$DIMTSZ
 40
0.0
  9
$DIMTOL
 70
     1
  9
$DIMLIM
 70
     0
  9
$DIMTIH
 70
     1
  9
$DIMTOH
 70
     1
  9
$DIMSE1
 70
     0
  9
$DIMSE2
 70
     0
  9
$DIMTAD
 70
     0
  9
$DIMZIN
 70
     0
  9
$DIMBLK
  1

  9
$DIMASO
 70
     1
  9
$DIMSHO
 70
     1
  9
$DIMPOST
  1
\X
  9
$DIMAPOST
  1

  9
$DIMALT
 70
     1
  9
$DIMALTD
 70
     2
  9
$DIMALTF
 40
25.3999999999999986
  9
$DIMLFAC
 40
1.0
  9
$DIMTOFL
 70
     0
  9
$DIMTVP
 40
0.0
  9
$DIMTIX
 70
     0
  9
$DIMSOXD
 70
     0
  9
$DIMSAH
 70
     0
  9
$DIMBLK1
  1

  9
$DIMBLK2
  1

  9
$DIMSTYLE
  2
STANDARD
  9
$DIMCLRD
 70
     0
  9
$DIMCLRE
 70
     0
  9
$DIMCLRT
 70
     0
  9
$DIMTFAC
 40
1.0
  9
$DIMGAP
 40
0.09
  9
$LUNITS
 70
     2
  9
$LUPREC
 70
     4
  9
$SKETCHINC
 40
0.1
  9
$FILLETRAD
 40
0.0
  9
$AUNITS
 70
     0
  9
$AUPREC
 70
     0
  9
$MENU
  1
.
  9
$ELEVATION
 40
0.0
  9
$PELEVATION
 40
0.0
  9
$THICKNESS
 40
0.0
  9
$LIMCHECK
 70
     0
  9
$BLIPMODE
 70
     0
  9
$CHAMFERA
 40
0.0
  9
$CHAMFERB
 40
0.0
  9
$SKPOLY
 70
     0
  9
$TDCREATE
 40
2458060.468368056230247
  9
$TDUPDATE
 40
2460028.4919675928540528
  9
$TDINDWG
 40
0.3272640046
  9
$TDUSRTIMER
 40
0.3272640046
  9
$USRTIMER
 70
     1
  9
$ANGBASE
 50
0.0
  9
$ANGDIR
 70
     0
  9
$PDMODE
 70
     0
  9
$PDSIZE
 40
0.3125
  9
$PLINEWID
 40
0.0
  9
$COORDS
 70
     1
  9
$SPLFRAME
 70
     0
  9
$SPLINETYPE
 70
     6
  9
$SPLINESEGS
 70
     8
  9
$ATTDIA
 70
     1
  9
$ATTREQ
 70
     1
  9
$HANDLING
 70
     1
  9
$HANDSEED
  5
C9E2
  9
$SURFTAB1
 70
     6
  9
$SURFTAB2
 70
     6
  9
$SURFTYPE
 70
     6
  9
$SURFU
 70
     6
  9
$SURFV
 70
     6
  9
$UCSNAME
  2

  9
$UCSORG
 10
0.0
 20
0.0
 30
0.0
  9
$UCSXDIR
 10
1.0
 20
0.0
 30
0.0
  9
$UCSYDIR
 10
0.0
 20
1.0
 30
0.0
  9
$PUCSNAME
  2

  9
$PUCSORG
 10
0.0
 20
0.0
 30
0.0
  9
$PUCSXDIR
 10
1.0
 20
0.0
 30
0.0
  9
$PUCSYDIR
 10
0.0
 20
1.0
 30
0.0
  9
$USERI1
 70
     0
  9
$USERI2
 70
     0
  9
$USERI3
 70
     0
  9
$USERI4
 70
     0
  9
$USERI5
 70
     0
  9
$USERR1
 40
0.0
  9
$USERR2
 40
0.0
  9
$USERR3
 40
0.0
  9
$USERR4
 40
0.0
  9
$USERR5
 40
0.0
  9
$WORLDVIEW
 70
     1
  9
$SHADEDGE
 70
     3
  9
$SHADEDIF
 70
    70
  9
$TILEMODE
 70
     1
  9
$MAXACTVP
 70
    64
  9
$PLIMCHECK
 70
     0
  9
$PEXTMIN
 10
1.0000000000000000E+20
 20
1.0000000000000000E+20
 30
1.0000000000000000E+20
  9
$PEXTMAX
 10
-1.0000000000000000E+20
 20
-1.0000000000000000E+20
 30
-1.0000000000000000E+20
  9
$PLIMMIN
 10
0.0
 20
0.0
  9
$PLIMMAX
 10
12.0
 20
9.0
  9
$UNITMODE
 70
     0
  9
$VISRETAIN
 70
     1
  9
$PLINEGEN
 70
     0
  9
$PSLTSCALE
 70
     1
  0
ENDSEC
  0
SECTION
  2
TABLES
  0
TABLE
  2
VPORT
 70
     1
  0
VPORT
  2
*ACTIVE
 70
     0
 10
0.0
 20
0.0
 11
1.0
 21
1.0
 12
4993.8918191662451136
 22
2209.1542952337049428
 13
0.0
 23
0.0
 14
1.0
 24
1.0
 15
0.0
 25
0.0
 16
0.0
 26
0.0
 36
199.3126279314143119
 17
3491.9166259765629547
 27
176.9519653320311932
 37
0.0
 40
20.5856699851419798
 41
2.5251322751322749
 42
50.0
 43
0.0
 44
0.0
 50
0.0
 51
0.0
 71
     0
 72
   100
 73
     1
 74
     1
 75
     0
 76
     0
 77
     0
 78
     0
  0
ENDTAB
  0
TABLE
  2
LTYPE
 70
     2
  0
LTYPE
  2
CONTINUOUS
 70
     0
  3
Solid line
 72
    65
 73
     0
 40
0.0
  0
LTYPE
  2
PHANTOM2
 70
     0
  3
___ _ _ ___ _ _ ___ _ _ ___ _ _
 72
    65
 73
     6
 40
1.25
 49
0.625
 49
-0.125
 49
0.125
 49
-0.125
 49
0.125
 49
-0.125
  0
ENDTAB
  0
TABLE
  2
LAYER
 70
     2
  0
LAYER
  2
0
 70
     0
 62
   255
  6
CONTINUOUS
  0
LAYER
  2
DEFPOINTS
 70
     0
 62
     7
  6
CONTINUOUS
  0
ENDTAB
  0
TABLE
  2
STYLE
 70
     1
  0
STYLE
  2
STANDARD
 70
     0
 40
0.0
 41
0.8
 50
0.0
 71
     0
 42
0.2
  3
txt
  4

  0
ENDTAB
  0
TABLE
  2
VIEW
 70
     0
  0
ENDTAB
  0
TABLE
  2
UCS
 70
     0
  0
ENDTAB
  0
TABLE
  2
APPID
 70
     9
  0
APPID
  2
ACAD
 70
     0
  0
APPID
  2
ACAD_MLEADERVER
 70
     0
  0
APPID
  2
ACAD_EXEMPT_FROM_CAD_STANDARDS
 70
     0
  0
APPID
  2
ACAD_NAV_VCDISPLAY
 70
     0
  0
APPID
  2
ACAECLAYERSTANDARD
 70
     0
  0
APPID
  2
ACCMTRANSPARENCY
 70
     0
  0
APPID
  2
ACAD_DSTYLE_DIMJAG
 70
     0
  0
APPID
  2
ACAD_DSTYLE_DIMTALN
 70
     0
  0
APPID
  2
ACDBATTR
 70
     0
  0
ENDTAB
  0
TABLE
  2
DIMSTYLE
 70
     1
  0
DIMSTYLE
  2
STANDARD
 70
     0
  3

  4

  5

  6

  7

 40
1.0
 41
0.1875
 42
0.0625
 43
0.38
 44
0.125
 45
0.0
 46
0.0
 47
0.01
 48
0.01
140
0.15625
141
0.09
142
0.0
143
25.3999999999999986
144
1.0
145
0.0
146
1.0
147
0.09
 71
     1
 72
     0
 73
     1
 74
     1
 75
     0
 76
     0
 77
     0
 78
     4
170
     0
171
     2
172
     0
173
     0
174
     0
175
     0
176
     0
177
     0
178
     0
  0
ENDTAB
  0
ENDSEC
  0
SECTION
  2
BLOCKS
  0
BLOCK
  8
0
  2
$MODEL_SPACE
 70
     0
 10
0.0
 20
0.0
 30
0.0
  3
$MODEL_SPACE
  1

  0
ENDBLK
  5
21
  8
0
  0
BLOCK
 67
     1
  8
0
  2
$PAPER_SPACE
 70
     0
 10
0.0
 20
0.0
 30
0.0
  3
$PAPER_SPACE
  1

  0
ENDBLK
  5
1D
 67
     1
  8
0
  0
BLOCK
  8
0
  2
_FILLED
 70
     0
 10
0.0
 20
0.0
 30
0.0
  3
_FILLED
  1

  0
SOLID
  5
8323
  8
0
  6
BYBLOCK
 62
     0
 10
0.0
 20
0.0
 30
0.0
 11
-1.0
 21
0.1666666667
 31
0.0
 12
-1.0
 22
-0.1666666667
 32
0.0
 13
-1.0
 23
-0.1666666667
 33
0.0
  0
ENDBLK
  5
8324
  8
0
  6
BYBLOCK
 62
     0
  0
BLOCK
  8
0
  2
*D3
 70
     1
 10
0.0
 20
0.0
 30
0.0
  3
*D3
  1

  0
LINE
  5
C8ED
  8
0
 62
     0
 10
8478.3192744597781711
 20
2363.9677625976810305
 30
0.0
 11
8458.0142086669384298
 21
2363.9677625976810305
 31
0.0
  0
LINE
  5
C8EE
  8
0
 62
     0
 10
8475.3342371555263526
 20
2331.9677625976810305
 30
0.0
 11
8458.0142086669384298
 21
2331.9677625976810305
 31
0.0
  0
LINE
  5
C8EF
  8
0
 62
     0
 10
8458.1392086669384298
 20
2363.7802625976810305
 30
0.0
 11
8458.1392086669384298
 21
2348.135887597681176
 31
0.0
  0
LINE
  5
C8F0
  8
0
 62
     0
 10
8458.1392086669384298
 20
2332.1552625976810305
 30
0.0
 11
8458.1392086669384298
 21
2347.7996375976808849
 31
0.0
  0
SOLID
  5
C8F1
  8
0
 62
     0
 10
8458.1079586669384298
 20
2363.7802625976810305
 30
0.0
 11
8458.1704586669384298
 21
2363.7802625976810305
 31
0.0
 12
8458.1392086669384298
 22
2363.9677625976810305
 32
0.0
 13
8458.1392086669384298
 23
2363.9677625976810305
 33
0.0
  0
SOLID
  5
C8F2
  8
0
 62
     0
 10
8458.1079586669384298
 20
2332.1552625976810305
 30
0.0
 11
8458.1704586669384298
 21
2332.1552625976810305
 31
0.0
 12
8458.1392086669384298
 22
2331.9677625976810305
 32
0.0
 13
8458.1392086669384298
 23
2331.9677625976810305
 33
0.0
  0
INSERT
  5
C8F3
  8
0
  2
*U7
 10
0.0
 20
0.0
 30
0.0
  0
POINT
  5
C8F4
  8
DEFPOINTS
 62
     0
 10
8478.3817744597781711
 20
2363.9677625976810305
 30
0.0
  0
POINT
  5
C8F5
  8
DEFPOINTS
 62
     0
 10
8475.3967371555245336
 20
2331.9677625976810305
 30
0.0
  0
POINT
  5
C8F6
  8
DEFPOINTS
 62
     0
 10
8458.1392086669384298
 20
2331.9677625976810305
 30
0.0
  0
ENDBLK
  5
C8EC
  8
0
  0
BLOCK
  8
0
  2
*D4
 70
     1
 10
0.0
 20
0.0
 30
0.0
  3
*D4
  1

  0
LINE
  5
C8FA
  8
0
 62
     0
 10
8531.0707046318802895
 20
2331.9677625976810305
 30
0.0
 11
8551.7858768475525721
 21
2331.9677625976810305
 31
0.0
  0
LINE
  5
C8FB
  8
0
 62
     0
 10
8531.0707046318802895
 20
2363.9677625976810305
 30
0.0
 11
8551.7858768475525721
 21
2363.9677625976810305
 31
0.0
  0
LINE
  5
C8FC
  8
0
 62
     0
 10
8551.6608768475525721
 20
2332.1552625976810305
 30
0.0
 11
8551.6608768475525721
 21
2347.7996375976808849
 31
0.0
  0
LINE
  5
C8FD
  8
0
 62
     0
 10
8551.6608768475525721
 20
2363.7802625976810305
 30
0.0
 11
8551.6608768475525721
 21
2348.135887597681176
 31
0.0
  0
SOLID
  5
C8FE
  8
0
 62
     0
 10
8551.6296268475525721
 20
2332.1552625976810305
 30
0.0
 11
8551.6921268475525721
 21
2332.1552625976810305
 31
0.0
 12
8551.6608768475525721
 22
2331.9677625976810305
 32
0.0
 13
8551.6608768475525721
 23
2331.9677625976810305
 33
0.0
  0
SOLID
  5
C8FF
  8
0
 62
     0
 10
8551.6296268475525721
 20
2363.7802625976810305
 30
0.0
 11
8551.6921268475525721
 21
2363.7802625976810305
 31
0.0
 12
8551.6608768475525721
 22
2363.9677625976810305
 32
0.0
 13
8551.6608768475525721
 23
2363.9677625976810305
 33
0.0
  0
INSERT
  5
C900
  8
0
  2
*U8
 10
0.0
 20
0.0
 30
0.0
  0
POINT
  5
C901
  8
DEFPOINTS
 62
     0
 10
8531.0082046318802895
 20
2331.9677625976810305
 30
0.0
  0
POINT
  5
C902
  8
DEFPOINTS
 62
     0
 10
8531.0082046318802895
 20
2363.9677625976810305
 30
0.0
  0
POINT
  5
C903
  8
DEFPOINTS
 62
     0
 10
8551.6608768475525721
 20
2363.9677625976810305
 30
0.0
  0
ENDBLK
  5
C8F9
  8
0
  0
BLOCK
  8
0
  2
*U5
 70
     1
 10
0.0
 20
0.0
 30
0.0
  3
*U5
  1

  0
TEXT
  5
C9D3
  8
0
 62
     0
 10
-24.0910928227823184
 20
1.2222612046000061
 30
0.0
 40
0.5
  1
32.000±.010 [812.80±0.25]
 41
0.8
  0
ENDBLK
  5
C9D5
  8
0
  0
BLOCK
  8
0
  2
*U6
 70
     1
 10
0.0
 20
0.0
 30
0.0
  3
*U6
  1

  0
TEXT
  5
C9D7
  8
0
 62
     0
 10
69.4305753578311311
 20
1.222261204599985
 30
0.0
 40
0.5
  1
32.000±.010 [812.80±0.25]
 41
0.8
  0
ENDBLK
  5
C9D9
  8
0
  0
BLOCK
  8
0
  2
*U7
 70
     1
 10
0.0
 20
0.0
 30
0.0
  3
*U7
  1

  0
TEXT
  5
C9DB
  8
0
 62
     0
 10
8457.6287920002705505
 20
2347.8896375976778472
 30
0.0
 40
0.15625
  1
32.000±.010
 41
0.8
  0
ENDBLK
  5
C9DD
  8
0
  0
BLOCK
  8
0
  2
*U8
 70
     1
 10
0.0
 20
0.0
 30
0.0
  3
*U8
  1

  0
TEXT
  5
C9DF
  8
0
 62
     0
 10
8551.1504601808846928
 20
2347.8896375976778472
 30
0.0
 40
0.15625
  1
32.000±.010
 41
0.8
  0
ENDBLK
  5
C9E1
  8
0
  0
ENDSEC
  0
SECTION
  2
ENTITIES
  0
LINE
  5
C7C8
  8
0
 10
8468.1764700409166835
 20
2377.8242641361362075
 30
0.0
 11
8468.1764700409166835
 21
2380.4620531125360685
 31
0.0
  0
LINE
  5
C7C9
  8
0
 10
8468.1764700409166835
 20
2380.5407932700368292
 30
0.0
 11
8468.1764700409166835
 21
2396.288824766036214
 31
0.0
  0
LINE
  5
C7CE
  8
0
 10
8488.8457613795180805
 20
2375.9738641361359441
 30
0.0
 11
8488.8457613795180805
 21
2376.7612657109361862
 31
0.0
  0
LINE
  5
C7D0
  8
0
 10
8488.9638716157151066
 20
2375.9738641361359441
 30
0.0
 11
8488.9638716157151066
 21
2376.7612657109361862
 31
0.0
  0
LINE
  5
C7D4
  8
0
 10
8503.2945802771191666
 20
2377.8242641361362075
 30
0.0
 11
8503.2945802771191666
 21
2380.4620531125360685
 31
0.0
  0
LINE
  5
C7D5
  8
0
 10
8503.2945802771191666
 20
2380.5407932700368292
 30
0.0
 11
8503.2945802771191666
 21
2396.288824766036214
 31
0.0
  0
ARC
  5
C7D6
  8
0
 10
8501.4441802771179937
 20
2377.8242641361362075
 30
0.0
 40
1.8504
 50
270.0
 51
0.0
  0
LINE
  5
C7D8
  8
0
 10
8502.5859188598187757
 20
2377.981765710936088
 30
0.0
 11
8502.5859188598187757
 21
2396.288824766036214
 31
0.0
  0
ARC
  5
C7D9
  8
0
 10
8501.3654188598175097
 20
2377.981765710936088
 30
0.0
 40
1.220499999999999
 50
270.0
 51
0.0
  0
LINE
  5
C7DC
  8
0
 10
8468.8851314582152554
 20
2377.981765710936088
 30
0.0
 11
8468.8851314582152554
 21
2396.288824766036214
 31
0.0
  0
LINE
  5
C7E0
  8
0
 10
8478.8063913007172232
 20
2376.1706743723361797
 30
0.0
 11
8478.8063913007172232
 21
2376.6923680731360946
 31
0.0
  0
LINE
  5
C802
  8
0
 10
8470.0268700409178564
 20
2375.9738641361359441
 30
0.0
 11
8488.8457613795180805
 21
2375.9738641361359441
 31
0.0
  0
LINE
  5
C803
  8
0
 10
8488.9638716157151066
 20
2375.9738641361359441
 30
0.0
 11
8501.4441802771179937
 21
2375.9738641361359441
 31
0.0
  0
LINE
  5
C804
  8
0
 10
8468.1764700409166835
 20
2396.288824766036214
 30
0.0
 11
8503.2945802771191666
 21
2396.288824766036214
 31
0.0
  0
ARC
  5
C80B
  8
0
 10
8470.0268700409178564
 20
2377.8242641361362075
 30
0.0
 40
1.8504
 50
180.0
 51
270.0
  0
LINE
  5
C80C
  8
0
 10
8468.1764700409166835
 20
2380.4620531125360685
 30
0.0
 11
8468.8457613795162615
 21
2380.4620531125360685
 31
0.0
  0
LINE
  5
C80D
  8
0
 10
8468.8457613795162615
 20
2380.4620531125360685
 30
0.0
 11
8468.8457613795162615
 21
2377.8242554747362192
 31
0.0
  0
LINE
  5
C80E
  8
0
 10
8470.026861379517868
 20
2376.6431554747359769
 30
0.0
 11
8478.8063913007172232
 21
2376.6431554747359769
 31
0.0
  0
LINE
  5
C80F
  8
0
 10
8486.6804070488196885
 20
2376.6431554747359769
 30
0.0
 11
8488.8457613795180805
 21
2376.6431554747359769
 31
0.0
  0
LINE
  5
C810
  8
0
 10
8488.9638716157151066
 20
2376.6431554747359769
 30
0.0
 11
8491.1292259464171366
 21
2376.6431554747359769
 31
0.0
  0
LINE
  5
C811
  8
0
 10
8499.0032416944177385
 20
2376.6431554747359769
 30
0.0
 11
8501.444188938519801
 21
2376.6431554747359769
 31
0.0
  0
ARC
  5
C812
  8
0
 10
8470.026861379517868
 20
2377.8242554747362192
 30
0.0
 40
1.1811
 50
180.0
 51
270.0
  0
LINE
  5
C813
  8
0
 10
8468.1764700409166835
 20
2380.5407932700368292
 30
0.0
 11
8468.8851314582152554
 21
2380.5407932700368292
 31
0.0
  0
LINE
  5
C814
  8
0
 10
8468.8457613795162615
 20
2380.2561476005362238
 30
0.0
 11
8468.8851314582152554
 21
2380.2561476005362238
 31
0.0
  0
LINE
  5
C815
  8
0
 10
8468.8457613795162615
 20
2380.207547889435773
 30
0.0
 11
8468.8851314582152554
 21
2380.207547889435773
 31
0.0
  0
LINE
  5
C816
  8
0
 10
8468.8457613795162615
 20
2380.0411869707359074
 30
0.0
 11
8468.8851314582152554
 21
2380.0411869707359074
 31
0.0
  0
LINE
  5
C817
  8
0
 10
8468.8457613795162615
 20
2379.8832523855357977
 30
0.0
 11
8468.8851314582152554
 21
2379.8832523855357977
 31
0.0
  0
LINE
  5
C818
  8
0
 10
8468.8457613795162615
 20
2379.3703208288370661
 30
0.0
 11
8468.8851314582152554
 21
2379.3703208288370661
 31
0.0
  0
LINE
  5
C819
  8
0
 10
8468.8457613795162615
 20
2379.063234214735985
 30
0.0
 11
8468.8851314582152554
 21
2379.063234214735985
 31
0.0
  0
LINE
  5
C81A
  8
0
 10
8468.8457613795162615
 20
2379.0456065179359939
 30
0.0
 11
8468.8851314582152554
 21
2379.0456065179359939
 31
0.0
  0
LINE
  5
C81B
  8
0
 10
8468.8457613795162615
 20
2378.9337066556367972
 30
0.0
 11
8468.8851314582152554
 21
2378.9337066556367972
 31
0.0
  0
LINE
  5
C81C
  8
0
 10
8470.1056314582147024
 20
2376.7612657109361862
 30
0.0
 11
8501.3654188598175097
 21
2376.7612657109361862
 31
0.0
  0
ARC
  5
C81D
  8
0
 10
8470.1056314582147024
 20
2377.981765710936088
 30
0.0
 40
1.220499999999999
 50
180.0
 51
270.0
  0
LINE
  5
C81E
  8
0
 10
8470.1056527181171987
 20
2377.3911869707358164
 30
0.0
 11
8501.3653976000168768
 21
2377.3911869707358164
 31
0.0
  0
LINE
  5
C81F
  8
0
 10
8469.5150527181194775
 20
2377.9817869707358113
 30
0.0
 11
8469.5150527181194775
 21
2396.288824766036214
 31
0.0
  0
ARC
  5
C820
  8
0
 10
8470.1056527181171987
 20
2377.9817869707358113
 30
0.0
 40
0.5906000000000001
 50
180.0
 51
270.0
  0
LINE
  5
C821
  8
0
 10
8469.5150527181194775
 20
2395.658903506236129
 30
0.0
 11
8501.955997600016417
 21
2395.658903506236129
 31
0.0
  0
LINE
  5
C822
  8
0
 10
8469.8300133480170189
 20
2395.658903506236129
 30
0.0
 11
8469.8300133480170189
 21
2395.4423680731360946
 31
0.0
  0
LINE
  5
C823
  8
0
 10
8469.8300133480170189
 20
2395.4423680731360946
 30
0.0
 11
8469.5937928755174653
 21
2395.4423680731360946
 31
0.0
  0
LINE
  5
C824
  8
0
 10
8469.5937928755174653
 20
2395.4423680731360946
 30
0.0
 11
8469.5937928755174653
 21
2393.1982735849360324
 31
0.0
  0
LINE
  5
C825
  8
0
 10
8469.5937928755174653
 20
2393.1982735849360324
 30
0.0
 11
8469.5150527181194775
 21
2393.1982735849360324
 31
0.0
  0
ARC
  5
C826
  8
0
 10
8472.6114847412172821
 20
2395.6315581210360506
 30
0.0
 40
0.0273453862999918
 50
90.016251485535193
 51
169.2753149452071
  0
ARC
  5
C827
  8
0
 10
8472.6114847412172821
 20
2395.6315581210360506
 30
0.0
 40
0.027345386300016
 50
169.2753149452071
 51
213.0281127799950127
  0
ARC
  5
C828
  8
0
 10
8472.8148710288405709
 20
2395.7637806454267775
 30
0.0
 40
0.2699330569458641
 50
213.0281127799950127
 51
251.3222212595310054
  0
ARC
  5
C829
  8
0
 10
8472.7911973723366827
 20
2395.6937504175762115
 30
0.0
 40
0.1960096180034483
 50
251.3222212595310054
 51
264.8059630958650814
  0
ARC
  5
C82A
  8
0
 10
8472.7575010275304521
 20
2395.5615110612079661
 30
0.0
 40
0.0649546236996182
 50
284.2163371419021018
 51
303.6556142524096913
  0
LINE
  5
C82B
  8
0
 10
8472.7934988647175487
 20
2395.5074438913361519
 30
0.0
 11
8472.797145692517006
 21
2395.528126039036124
 31
0.0
  0
LINE
  5
C82C
  8
0
 10
8472.797145692517006
 20
2395.528126039036124
 30
0.0
 11
8472.8471330803185992
 21
2395.528126039036124
 31
0.0
  0
LINE
  5
C82D
  8
0
 10
8472.8471330803185992
 20
2395.528126039036124
 30
0.0
 11
8472.8507798453174473
 21
2395.5074438913361519
 31
0.0
  0
ARC
  5
C82E
  8
0
 10
8472.8855799157136062
 20
2395.5588127221171817
 30
0.0
 40
0.0620467700641248
 50
235.8841278298378938
 51
256.2439204720968178
  0
ARC
  5
C82F
  8
0
 10
8472.8299051613212214
 20
2395.7663834467730339
 30
0.0
 40
0.2709457342674489
 50
278.6865749273965207
 51
326.4530806835463181
  0
ARC
  5
C830
  8
0
 10
8473.0327939666367456
 20
2395.6315581200301494
 30
0.0
 40
0.0273453882806446
 50
326.9718928411858201
 51
53.8816903157938327
  0
ARC
  5
C831
  8
0
 10
8473.0299510999666381
 20
2395.6276621925298969
 30
0.0
 40
0.0321682652214573
 50
53.8816903157938327
 51
76.2120167175414167
  0
LINE
  5
C832
  8
0
 10
8471.8772574425183848
 20
2377.3911869707358164
 30
0.0
 11
8471.8772574425183848
 21
2379.6155964196368586
 31
0.0
  0
ARC
  5
C833
  8
0
 10
8472.9402495684153109
 20
2379.6155964196368586
 30
0.0
 40
1.062992125899995
 50
89.9999999946326454
 51
180.0
  0
LINE
  5
C834
  8
0
 10
8472.9402495685171743
 20
2380.6785885455360585
 30
0.0
 11
8484.7512731905153487
 21
2380.6785885444251107
 31
0.0
  0
ARC
  5
C835
  8
0
 10
8484.7512731904171233
 20
2379.6155964183249125
 30
0.0
 40
1.0629921261000059
 50
0.0000000706614419
 51
89.9999999946326454
  0
LINE
  5
C836
  8
0
 10
8485.8142653165177762
 20
2379.6155964196368586
 30
0.0
 11
8485.8142653192608122
 21
2377.3911869707358164
 31
0.0
  0
LINE
  5
C837
  8
0
 10
8485.9323755527166213
 20
2377.3911869707358164
 30
0.0
 11
8485.9323755527166213
 21
2379.6155964196368586
 31
0.0
  0
ARC
  5
C838
  8
0
 10
8484.7512731905153487
 20
2379.6155964196368586
 30
0.0
 40
1.181102362200001
 50
0.0
 51
90.0
  0
LINE
  5
C839
  8
0
 10
8484.7512731905153487
 20
2380.7966987818358575
 30
0.0
 11
8472.9402495685171743
 21
2380.7966987818358575
 31
0.0
  0
ARC
  5
C83A
  8
0
 10
8472.9402495685171743
 20
2379.6155964196368586
 30
0.0
 40
1.181102362199993
 50
90.0
 51
180.0
  0
LINE
  5
C83B
  8
0
 10
8471.7591472063177207
 20
2379.6155964196368586
 30
0.0
 11
8471.7591472063177207
 21
2377.3911869707358164
 31
0.0
  0
LINE
  5
C83C
  8
0
 10
8478.8850913007172494
 20
2376.0919743723361535
 30
0.0
 11
8486.6017070488178433
 21
2376.0919743723361535
 31
0.0
  0
ARC
  5
C83D
  8
0
 10
8478.8850913007172494
 20
2376.1706743723361797
 30
0.0
 40
0.0787
 50
180.0
 51
270.0
  0
LINE
  5
C83E
  8
0
 10
8478.8063913007172232
 20
2376.6923680731360946
 30
0.0
 11
8486.6804070488196885
 21
2376.6923680731360946
 31
0.0
  0
LINE
  5
C83F
  8
0
 10
8486.6804070488196885
 20
2376.6923680731360946
 30
0.0
 11
8486.6804070488196885
 21
2376.1706743723361797
 31
0.0
  0
ARC
  5
C840
  8
0
 10
8486.6017070488178433
 20
2376.1706743723361797
 30
0.0
 40
0.0787
 50
270.0
 51
0.0
  0
LINE
  5
C841
  8
0
 10
8478.955997600014598
 20
2376.6923680731360946
 30
0.0
 11
8478.955997600014598
 21
2376.5939428763358592
 31
0.0
  0
ARC
  5
C842
  8
0
 10
8479.3182023244171432
 20
2376.5939428763358592
 30
0.0
 40
0.3622047243999937
 50
180.0
 51
217.6651078623746969
  0
ARC
  5
C843
  8
0
 10
8479.318202324622689
 20
2376.5939428764932018
 30
0.0
 40
0.3622047246570927
 50
217.6651078623746969
 51
269.9999999677958726
  0
LINE
  5
C844
  8
0
 10
8479.3182023244171432
 20
2376.231738151835998
 30
0.0
 11
8486.1685960252198129
 21
2376.2317381479870164
 31
0.0
  0
ARC
  5
C845
  8
0
 10
8486.1685960254199017
 20
2376.5939428705360115
 30
0.0
 40
0.3622047225484941
 50
269.9999999677958726
 51
343.4069000696366061
  0
ARC
  5
C846
  8
0
 10
8486.1685959874957916
 20
2376.5939428818369379
 30
0.0
 40
0.3622047621228747
 50
343.4069000696366061
 51
359.999999129837704
  0
LINE
  5
C847
  8
0
 10
8486.5308007496169012
 20
2376.5939428763358592
 30
0.0
 11
8486.5308007511102915
 21
2376.6923680731360946
 31
0.0
  0
LINE
  5
C848
  8
0
 10
8486.5308007515595818
 20
2376.7218956322358281
 30
0.0
 11
8486.5308007515632198
 21
2376.7220162638977854
 31
0.0
  0
LINE
  5
C849
  8
0
 10
8473.7276511433192354
 20
2376.7612657109361862
 30
0.0
 11
8473.7276511433192354
 21
2376.6431554747359769
 31
0.0
  0
LINE
  5
C84A
  8
0
 10
8475.3024542929179006
 20
2376.7612657109361862
 30
0.0
 11
8475.3024542929179006
 21
2376.6431554747359769
 31
0.0
  0
LINE
  5
C84B
  8
0
 10
8482.3890684661164414
 20
2376.7612657109361862
 30
0.0
 11
8482.3890684661164414
 21
2376.6923680731360946
 31
0.0
  0
LINE
  5
C84C
  8
0
 10
8483.9638716157169256
 20
2376.7612657109361862
 30
0.0
 11
8483.9638716157169256
 21
2376.6923680731360946
 31
0.0
  0
ARC
  5
C84D
  8
0
 10
8488.2423310886151739
 20
2376.7214730467321715
 30
0.0
 40
0.0402727136742794
 50
98.8553865612622928
 51
179.3987787753536054
  0
LINE
  5
C84E
  8
0
 10
8488.20206059211705
 20
2376.7218956322358281
 30
0.0
 11
8488.20206059211705
 21
2376.6825255534358803
 31
0.0
  0
ARC
  5
C84F
  8
0
 10
8488.2420196901766758
 20
2376.6825255534358803
 30
0.0
 40
0.0399590980603151
 50
180.0
 51
260.1501525872582192
  0
LINE
  5
C850
  8
0
 10
8488.702060592115231
 20
2376.7218956322358281
 30
0.0
 11
8488.702060592115231
 21
2376.6825255534358803
 31
0.0
  0
ARC
  5
C851
  8
0
 10
8488.6620876131928526
 20
2376.6825255534358803
 30
0.0
 40
0.0399729789238226
 50
279.9637878542652061
 51
0.0
  0
ARC
  5
C852
  8
0
 10
8488.6617282723364042
 20
2376.7213947698051015
 30
0.0
 40
0.0403354296134289
 50
0.7114846986244147
 51
81.2963902696048137
  0
ARC
  5
C853
  8
0
 10
8489.1478428997143055
 20
2376.7214730467321715
 30
0.0
 40
0.0402727136742794
 50
98.8553865612622928
 51
179.3987787753536054
  0
LINE
  5
C854
  8
0
 10
8489.1075724032180005
 20
2376.7218956322358281
 30
0.0
 11
8489.1075724032180005
 21
2376.6825255534358803
 31
0.0
  0
ARC
  5
C855
  8
0
 10
8489.1475315012794454
 20
2376.6825255534358803
 30
0.0
 40
0.0399590980603151
 50
180.0
 51
260.1501525872582192
  0
LINE
  5
C856
  8
0
 10
8489.6075724032198195
 20
2376.7218956322358281
 30
0.0
 11
8489.6075724032198195
 21
2376.6825255534358803
 31
0.0
  0
ARC
  5
C857
  8
0
 10
8489.5675994242938032
 20
2376.6825255534358803
 30
0.0
 40
0.0399729789238226
 50
279.9637878542652061
 51
0.0
  0
ARC
  5
C858
  8
0
 10
8489.5672400834355358
 20
2376.7213947698051015
 30
0.0
 40
0.0403354296134289
 50
0.7114846986244147
 51
81.2963902696048137
  0
LINE
  5
C859
  8
0
 10
8489.6528479937169323
 20
2376.7612657109361862
 30
0.0
 11
8489.6528479937169323
 21
2376.6431554747359769
 31
0.0
  0
LINE
  5
C85A
  8
0
 10
8489.8890684661164414
 20
2376.6431554747359769
 30
0.0
 11
8489.8890684661164414
 21
2376.7612657109361862
 31
0.0
  0
ARC
  5
C85B
  8
0
 10
8469.4761755604195059
 20
2380.3816842575301962
 30
0.0
 40
0.0590551179623442
 50
15.3952512955720007
 51
48.8281377850702611
  0
ARC
  5
C85C
  8
0
 10
8490.9913074723372119
 20
2386.2574240588210159
 30
0.0
 40
22.2439766317265892
 50
195.2745686214805119
 51
195.8355795198642966
  0
ARC
  5
C85D
  8
0
 10
8469.6998278402534197
 20
2380.2182598358308496
 30
0.0
 40
0.1125824272099144
 50
195.8355795198642966
 51
265.7041131409322929
  0
ARC
  5
C85E
  8
0
 10
8469.7078677118151973
 20
2380.3252894669540183
 30
0.0
 40
0.2199136038234892
 50
265.7041131409322929
 51
283.4938026257331103
  0
ARC
  5
C85F
  8
0
 10
8469.7056116653347999
 20
2380.2345529861750038
 30
0.0
 40
0.1342572885103161
 50
293.5166417899285989
 51
359.2174454504536811
  0
ARC
  5
C860
  8
0
 10
15108.9092973368296953
 20
2914.6988747994118967
 30
0.0
 40
6660.5478087390192741
 50
184.5784573910692075
 51
184.6025664618260009
  0
LINE
  5
C861
  8
0
 10
8469.615550095515573
 20
2383.0263718989372137
 30
0.0
 11
8469.5150527181194775
 21
2383.0263718989372137
 31
0.0
  0
LINE
  5
C862
  8
0
 10
8469.7725956156446045
 20
2381.0688828042138994
 30
0.0
 11
8469.7965534220547852
 21
2381.0708099649709766
 31
0.0
  0
LINE
  5
C863
  8
0
 10
8469.7965534220547852
 20
2381.0708099649709766
 30
0.0
 11
8469.77136894981777
 21
2381.3838947493359228
 31
0.0
  0
LINE
  5
C864
  8
0
 10
8469.77136894981777
 20
2381.3838947493359228
 30
0.0
 11
8469.7474382385098579
 21
2381.3819697680992249
 31
0.0
  0
LINE
  5
C865
  8
0
 10
8469.6981889650724042
 20
2381.9954197973461305
 30
0.0
 11
8469.7220237827077653
 21
2381.9973370649131539
 31
0.0
  0
LINE
  5
C866
  8
0
 10
8469.7220237827077653
 20
2381.9973370649131539
 30
0.0
 11
8469.6969299788834178
 21
2382.3092946924498392
 31
0.0
  0
LINE
  5
C867
  8
0
 10
8469.6969299788834178
 20
2382.3092946924498392
 30
0.0
 11
8469.6731656677420688
 21
2382.3073830964208355
 31
0.0
  0
LINE
  5
C868
  8
0
 10
8491.1292259463152732
 20
2376.1706743723361797
 30
0.0
 11
8491.1292259463152732
 21
2376.6923680731360946
 31
0.0
  0
LINE
  5
C869
  8
0
 10
8491.2079259463171184
 20
2376.0919743723361535
 30
0.0
 11
8498.9245416944177123
 21
2376.0919743723361535
 31
0.0
  0
ARC
  5
C86A
  8
0
 10
8491.2079259463171184
 20
2376.1706743723361797
 30
0.0
 40
0.0787
 50
180.0
 51
270.0
  0
LINE
  5
C86B
  8
0
 10
8491.1292259463152732
 20
2376.6923680731360946
 30
0.0
 11
8499.0032416944177385
 21
2376.6923680731360946
 31
0.0
  0
LINE
  5
C86C
  8
0
 10
8499.0032416944177385
 20
2376.6923680731360946
 30
0.0
 11
8499.0032416944177385
 21
2376.1706743723361797
 31
0.0
  0
ARC
  5
C86D
  8
0
 10
8498.9245416944177123
 20
2376.1706743723361797
 30
0.0
 40
0.0787
 50
270.0
 51
0.0
  0
LINE
  5
C86E
  8
0
 10
8491.2788322456162859
 20
2376.6923680731360946
 30
0.0
 11
8491.2788322456162859
 21
2376.5939428763358592
 31
0.0
  0
ARC
  5
C86F
  8
0
 10
8491.6410369700170122
 20
2376.5939428763358592
 30
0.0
 40
0.3622047243999937
 50
180.0
 51
217.6651078623746969
  0
ARC
  5
C870
  8
0
 10
8491.641036970220739
 20
2376.5939428764932018
 30
0.0
 40
0.3622047246570927
 50
217.6651078623746969
 51
269.9999999677958726
  0
LINE
  5
C871
  8
0
 10
8491.6410369700170122
 20
2376.231738151835998
 30
0.0
 11
8498.4914306708178628
 21
2376.2317381479870164
 31
0.0
  0
ARC
  5
C872
  8
0
 10
8498.4914306710215897
 20
2376.5939428705360115
 30
0.0
 40
0.3622047225484941
 50
269.9999999677958726
 51
343.4069000696366061
  0
ARC
  5
C873
  8
0
 10
8498.4914306330938416
 20
2376.5939428818369379
 30
0.0
 40
0.3622047621228747
 50
343.4069000696366061
 51
359.999999129837704
  0
LINE
  5
C874
  8
0
 10
8498.8536353952167701
 20
2376.5939428763358592
 30
0.0
 11
8498.8536353967101604
 21
2376.6923680731360946
 31
0.0
  0
LINE
  5
C875
  8
0
 10
8498.8536353971612698
 20
2376.7218956322358281
 30
0.0
 11
8498.8536353971649078
 21
2376.7220162638977854
 31
0.0
  0
LINE
  5
C876
  8
0
 10
8489.2000920881164348
 20
2395.658903506236129
 30
0.0
 11
8489.2000920881164348
 21
2377.3911869707358164
 31
0.0
  0
LINE
  5
C877
  8
0
 10
8488.570170828317714
 20
2395.658903506236129
 30
0.0
 11
8488.570170828317714
 21
2377.3911869707358164
 31
0.0
  0
LINE
  5
C878
  8
0
 10
8488.570170828317714
 20
2379.123470435336003
 30
0.0
 11
8489.2000920881164348
 21
2379.123470435336003
 31
0.0
  0
LINE
  5
C879
  8
0
 10
8501.955997600016417
 20
2396.288824766036214
 30
0.0
 11
8501.955997600016417
 21
2377.9817869707358113
 31
0.0
  0
ARC
  5
C87A
  8
0
 10
8501.3653976000168768
 20
2377.9817869707358113
 30
0.0
 40
0.5906000000000001
 50
270.0
 51
0.0
  0
LINE
  5
C87B
  8
0
 10
8502.6252889385177696
 20
2377.8242554747362192
 30
0.0
 11
8502.6252889385177696
 21
2380.4620531125360685
 31
0.0
  0
ARC
  5
C87C
  8
0
 10
8501.444188938519801
 20
2377.8242554747362192
 30
0.0
 40
1.1811
 50
270.0
 51
0.0
  0
LINE
  5
C87D
  8
0
 10
8502.6252889385177696
 20
2380.4620531125360685
 30
0.0
 11
8503.2945802771191666
 21
2380.4620531125360685
 31
0.0
  0
LINE
  5
C87E
  8
0
 10
8502.5859188598187757
 20
2380.5407932700368292
 30
0.0
 11
8503.2945802771191666
 21
2380.5407932700368292
 31
0.0
  0
ARC
  5
C87F
  8
0
 10
8498.4382641514584975
 20
2395.6315581199360167
 30
0.0
 40
0.0273453862999918
 50
90.016251485535193
 51
169.2753149452071
  0
ARC
  5
C880
  8
0
 10
8498.4382641514584975
 20
2395.6315581199360167
 30
0.0
 40
0.027345386300016
 50
169.2753149452071
 51
213.0281127799950127
  0
ARC
  5
C881
  8
0
 10
8498.6416504390836053
 20
2395.7637806443281079
 30
0.0
 40
0.2699330569458641
 50
213.0281127799950127
 51
251.3222212595310054
  0
ARC
  5
C882
  8
0
 10
8498.6179767825815361
 20
2395.6937504164770871
 30
0.0
 40
0.1960096180034483
 50
251.3222212595310054
 51
264.8059630958650814
  0
ARC
  5
C883
  8
0
 10
8498.5842804377734865
 20
2395.5615110601079323
 30
0.0
 40
0.0649546236996182
 50
284.2163371419021018
 51
303.6556142524096913
  0
LINE
  5
C884
  8
0
 10
8498.6202782749605831
 20
2395.507443890236118
 30
0.0
 11
8498.6239251027600403
 21
2395.5281260379360901
 31
0.0
  0
LINE
  5
C885
  8
0
 10
8498.6239251027600403
 20
2395.5281260379360901
 30
0.0
 11
8498.6739124905598146
 21
2395.5281260379360901
 31
0.0
  0
LINE
  5
C886
  8
0
 10
8498.6739124905598146
 20
2395.5281260379360901
 30
0.0
 11
8498.6775592555586627
 21
2395.507443890236118
 31
0.0
  0
ARC
  5
C887
  8
0
 10
8498.7123593259566405
 20
2395.5588127210171479
 30
0.0
 40
0.0620467700641248
 50
235.8841278298378938
 51
256.2439204720968178
  0
ARC
  5
C888
  8
0
 10
8498.6566845715642557
 20
2395.7663834456730001
 30
0.0
 40
0.2709457342674489
 50
278.6865749273965207
 51
326.4530806835463181
  0
ARC
  5
C889
  8
0
 10
8498.859573376881599
 20
2395.6315581189301156
 30
0.0
 40
0.0273453882806446
 50
326.9718928411858201
 51
53.8816903157938327
  0
ARC
  5
C88A
  8
0
 10
8498.8567305102096725
 20
2395.627662191429863
 30
0.0
 40
0.0321682652214573
 50
53.8816903157938327
 51
76.2120167175414167
  0
LINE
  5
C88B
  8
0
 10
8489.4166275212173787
 20
2394.5565413014360274
 30
0.0
 11
8490.400879489716317
 21
2394.5565413014360274
 31
0.0
  0
LINE
  5
C88C
  8
0
 10
8490.400879489716317
 20
2394.5565413014360274
 30
0.0
 11
8490.400879489716317
 21
2394.4384310652358181
 31
0.0
  0
LINE
  5
C88D
  8
0
 10
8490.400879489716317
 20
2394.4384310652358181
 30
0.0
 11
8489.4166275212173787
 21
2394.4384310652358181
 31
0.0
  0
LINE
  5
C88E
  8
0
 10
8490.1056038992173853
 20
2394.5565413014360274
 30
0.0
 11
8490.1056038992173853
 21
2394.7848877581359375
 31
0.0
  0
LINE
  5
C88F
  8
0
 10
8490.1056038992173853
 20
2394.7848877581359375
 30
0.0
 11
8490.6567850015162549
 21
2394.7848877581359375
 31
0.0
  0
LINE
  5
C890
  8
0
 10
8490.6567850015162549
 20
2394.7848877581359375
 30
0.0
 11
8490.6567850015162549
 21
2394.4778011440362206
 31
0.0
  0
LINE
  5
C891
  8
0
 10
8490.400879489716317
 20
2394.4778011440362206
 30
0.0
 11
8500.7552101984165347
 21
2394.4778011440362206
 31
0.0
  0
LINE
  5
C892
  8
0
 10
8501.6410369700170122
 20
2395.658903506236129
 30
0.0
 11
8501.6410369700170122
 21
2395.4423680731360946
 31
0.0
  0
LINE
  5
C893
  8
0
 10
8501.6410369700170122
 20
2395.4423680731360946
 30
0.0
 11
8501.8772574425165658
 21
2395.4423680731360946
 31
0.0
  0
LINE
  5
C894
  8
0
 10
8501.8772574425165658
 20
2395.4423680731360946
 30
0.0
 11
8501.8772574425165658
 21
2393.1982735849360324
 31
0.0
  0
LINE
  5
C895
  8
0
 10
8501.8772574425165658
 20
2393.1982735849360324
 30
0.0
 11
8501.955997600016417
 21
2393.1982735849360324
 31
0.0
  0
LINE
  5
C896
  8
0
 10
8489.455997600016417
 20
2394.4384310652358181
 30
0.0
 11
8489.455997600016417
 21
2388.3924422781069552
 31
0.0
  0
LINE
  5
C897
  8
0
 10
8489.2000920881164348
 20
2390.1648090180360668
 30
0.0
 11
8489.455997600016417
 21
2390.1648090180360668
 31
0.0
  0
LINE
  5
C898
  8
0
 10
8489.2000920881164348
 20
2381.0703208290360635
 30
0.0
 11
8489.4166275212173787
 21
2381.0703208290360635
 31
0.0
  0
LINE
  5
C899
  8
0
 10
8489.4166275212173787
 20
2377.3911869707358164
 30
0.0
 11
8489.4166275212173787
 21
2394.5565413014360274
 31
0.0
  0
ARC
  5
C89A
  8
0
 10
8489.6166023539135495
 20
2388.2738980677709151
 30
0.0
 40
0.1999991028495607
 50
88.9586101291567246
 51
179.1073848458242992
  0
LINE
  5
C89B
  8
0
 10
8489.6202372738716804
 20
2388.4738641361359441
 30
0.0
 11
8490.7552101984165347
 21
2388.4738641361359441
 31
0.0
  0
ARC
  5
C89C
  8
0
 10
8490.7552101984165347
 20
2388.5919743723361535
 30
0.0
 40
0.1181102362000033
 50
270.0
 51
350.4059317567359813
  0
ARC
  5
C89D
  8
0
 10
8490.7552101984165347
 20
2388.5919743723361535
 30
0.0
 40
0.1181102362000931
 50
350.4059317567359813
 51
0.0
  0
LINE
  5
C89E
  8
0
 10
8490.8733204346171988
 20
2388.5919743723361535
 30
0.0
 11
8490.8733204346171988
 21
2388.8085098054361879
 31
0.0
  0
LINE
  5
C89F
  8
0
 10
8490.8733204346171988
 20
2388.8085098054361879
 30
0.0
 11
8500.1646590173168079
 21
2388.8085098054361879
 31
0.0
  0
LINE
  5
C8A0
  8
0
 10
8500.1646590173168079
 20
2382.9029979944361912
 30
0.0
 11
8490.8733204346171988
 21
2382.9029979944361912
 31
0.0
  0
LINE
  5
C8A1
  8
0
 10
8490.8733204346171988
 20
2382.9029979944361912
 30
0.0
 11
8490.8732988313367969
 21
2383.1217923365179558
 31
0.0
  0
ARC
  5
C8A2
  8
0
 10
8490.7608372892173065
 20
2383.1217812323088765
 30
0.0
 40
0.1124615426692208
 50
0.0056572612233686
 51
43.5439335608315119
  0
ARC
  5
C8A3
  8
0
 10
8490.7528969706509088
 20
2383.1142515118331175
 30
0.0
 40
0.1234043582105997
 50
43.5382324349548284
 51
89.194124219448895
  0
LINE
  5
C8A4
  8
0
 10
8489.6134779149178939
 20
2383.2376436637359802
 30
0.0
 11
8490.7546326186402439
 21
2383.2376436637359802
 31
0.0
  0
ARC
  5
C8A5
  8
0
 10
8489.6137504883481597
 20
2383.4348952981790717
 30
0.0
 40
0.1972518227718542
 50
182.0711067339167926
 51
269.9208255115680117
  0
LINE
  5
C8A6
  8
0
 10
8490.8733204346171988
 20
2388.6903995692359786
 30
0.0
 11
8500.1646590173168079
 21
2388.6903995692359786
 31
0.0
  0
LINE
  5
C8A7
  8
0
 10
8495.5780448440164037
 20
2388.5722893329361796
 30
0.0
 11
8500.1663109900964628
 21
2388.5722893329361796
 31
0.0
  0
LINE
  5
C8A8
  8
0
 10
8495.4599346078193776
 20
2388.5722893329361796
 30
0.0
 11
8490.8716684618393629
 21
2388.5722893329361796
 31
0.0
  0
LINE
  5
C8A9
  8
0
 10
8495.4599346078193776
 20
2388.6903995692359786
 30
0.0
 11
8495.4599346078193776
 21
2383.0211082306359458
 31
0.0
  0
LINE
  5
C8AA
  8
0
 10
8495.4599346078193776
 20
2382.6667775219370924
 30
0.0
 11
8495.4599346078193776
 21
2377.3911869707358164
 31
0.0
  0
LINE
  5
C8AB
  8
0
 10
8495.5780448440164037
 20
2388.6903995692359786
 30
0.0
 11
8495.5780448440164037
 21
2383.0211082306359458
 31
0.0
  0
LINE
  5
C8AC
  8
0
 10
8495.5780448440164037
 20
2382.6667775219370924
 30
0.0
 11
8495.5780448440164037
 21
2377.3911869707358164
 31
0.0
  0
LINE
  5
C8AD
  8
0
 10
8490.873308772668679
 20
2383.0211082306359458
 30
0.0
 11
8500.1646590173168079
 21
2383.0211082306359458
 31
0.0
  0
LINE
  5
C8AE
  8
0
 10
8495.4599346078193776
 20
2383.1392184668361551
 30
0.0
 11
8490.8716684618393629
 21
2383.1392184668361551
 31
0.0
  0
LINE
  5
C8AF
  8
0
 10
8495.5780448440164037
 20
2383.1392184668361551
 30
0.0
 11
8500.1663109900964628
 21
2383.1392184668361551
 31
0.0
  0
LINE
  5
C8B0
  8
0
 10
8489.6528479937169323
 20
2394.4384310652358181
 30
0.0
 11
8489.6528479937169323
 21
2388.4738641361359441
 31
0.0
  0
LINE
  5
C8B1
  8
0
 10
8489.8890684661164414
 20
2394.4384310652358181
 30
0.0
 11
8489.8890684661164414
 21
2388.4738641361359441
 31
0.0
  0
LINE
  5
C8B2
  8
0
 10
8489.6528479937169323
 20
2393.8478798841360913
 30
0.0
 11
8489.455997600016417
 21
2393.8478798841360913
 31
0.0
  0
LINE
  5
C8B3
  8
0
 10
8489.8890684661164414
 20
2393.8478798841360913
 30
0.0
 11
8501.2670212220182293
 21
2393.8478798841360913
 31
0.0
  0
LINE
  5
C8B4
  8
0
 10
8501.5032416944177385
 20
2393.8478798841360913
 30
0.0
 11
8501.7000920881164348
 21
2393.8478798841360913
 31
0.0
  0
LINE
  5
C8B5
  8
0
 10
8490.0859188598169567
 20
2393.8478798841360913
 30
0.0
 11
8490.0859188598169567
 21
2377.3911869707358164
 31
0.0
  0
LINE
  5
C8B6
  8
0
 10
8489.6528479937169323
 20
2383.2376436637359802
 30
0.0
 11
8489.6528479937169323
 21
2382.4502420888361485
 31
0.0
  0
LINE
  5
C8B7
  8
0
 10
8489.8890684661164414
 20
2383.2376436637359802
 30
0.0
 11
8489.8890684661164414
 21
2382.4502420888361485
 31
0.0
  0
LINE
  5
C8B8
  8
0
 10
8501.7394621669154731
 20
2394.5565413014360274
 30
0.0
 11
8500.7552101984165347
 21
2394.5565413014360274
 31
0.0
  0
LINE
  5
C8B9
  8
0
 10
8500.7552101984165347
 20
2394.5565413014360274
 30
0.0
 11
8500.7552101984165347
 21
2394.4384310652358181
 31
0.0
  0
LINE
  5
C8BA
  8
0
 10
8500.7552101984165347
 20
2394.4384310652358181
 30
0.0
 11
8501.7394621669154731
 21
2394.4384310652358181
 31
0.0
  0
LINE
  5
C8BB
  8
0
 10
8501.0504857889172854
 20
2394.5565413014360274
 30
0.0
 11
8501.0504857889172854
 21
2394.7848877581359375
 31
0.0
  0
LINE
  5
C8BC
  8
0
 10
8501.0504857889172854
 20
2394.7848877581359375
 30
0.0
 11
8500.4993046866165969
 21
2394.7848877581359375
 31
0.0
  0
LINE
  5
C8BD
  8
0
 10
8500.4993046866165969
 20
2394.7848877581359375
 30
0.0
 11
8500.4993046866165969
 21
2394.4778011440362206
 31
0.0
  0
LINE
  5
C8BE
  8
0
 10
8501.7000920881164348
 20
2394.4384310652358181
 30
0.0
 11
8501.7000920881164348
 21
2377.4951783398678344
 31
0.0
  0
ARC
  5
C8BF
  8
0
 10
8501.4213770980204572
 20
2388.2738980677709151
 30
0.0
 40
0.1999991028495607
 50
0.8926151541756469
 51
91.0413898708432754
  0
LINE
  5
C8C0
  8
0
 10
8501.4177421780623263
 20
2388.4738641361359441
 30
0.0
 11
8500.282769253517472
 21
2388.4738641361359441
 31
0.0
  0
ARC
  5
C8C1
  8
0
 10
8500.282769253517472
 20
2388.5919743723361535
 30
0.0
 40
0.1181102362000033
 50
189.5940682432639903
 51
270.0
  0
ARC
  5
C8C2
  8
0
 10
8500.282769253517472
 20
2388.5919743723361535
 30
0.0
 40
0.1181102362000931
 50
180.0
 51
189.5940682432639903
  0
LINE
  5
C8C3
  8
0
 10
8500.1646590173168079
 20
2388.5919743723361535
 30
0.0
 11
8500.1646590173168079
 21
2388.8085098054361879
 31
0.0
  0
LINE
  5
C8C4
  8
0
 10
8500.1646590173168079
 20
2382.9029979944361912
 30
0.0
 11
8500.1646806205972098
 21
2383.1217923365179558
 31
0.0
  0
ARC
  5
C8C5
  8
0
 10
8500.2771421627185191
 20
2383.1217812323088765
 30
0.0
 40
0.1124615426692208
 50
136.4560664391684952
 51
179.9943427387765951
  0
ARC
  5
C8C6
  8
0
 10
8500.2850824812849169
 20
2383.1142515118331175
 30
0.0
 40
0.1234043582105997
 50
90.8058757805511192
 51
136.4617675650451929
  0
LINE
  5
C8C7
  8
0
 10
8501.4245015370179317
 20
2383.2376436637359802
 30
0.0
 11
8500.2833468332937628
 21
2383.2376436637359802
 31
0.0
  0
LINE
  5
C8C8
  8
0
 10
8501.5032416944177385
 20
2394.4384310652358181
 30
0.0
 11
8501.5032416944177385
 21
2388.4574301084139734
 31
0.0
  0
LINE
  5
C8C9
  8
0
 10
8501.2670212220182293
 20
2394.4384310652358181
 30
0.0
 11
8501.2670212220182293
 21
2388.4738641361359441
 31
0.0
  0
LINE
  5
C8CA
  8
0
 10
8501.3851314582170744
 20
2383.2376436637359802
 30
0.0
 11
8501.3851314582170744
 21
2382.4502420888361485
 31
0.0
  0
LINE
  5
C8CB
  8
0
 10
8501.1489109858175652
 20
2383.2376436637359802
 30
0.0
 11
8501.1489109858175652
 21
2382.4502420888361485
 31
0.0
  0
LINE
  5
C8CC
  8
0
 10
8501.7394621669154731
 20
2394.5565413014360274
 30
0.0
 11
8501.7394621669154731
 21
2394.4384310652358181
 31
0.0
  0
LINE
  5
C8CD
  8
0
 10
8501.621351930716628
 20
2388.2770137424358836
 30
0.0
 11
8501.621351930716628
 21
2383.4344940574360407
 31
0.0
  0
ARC
  5
C8CE
  8
0
 10
8501.4245015370179317
 20
2383.4344940574360407
 30
0.0
 40
0.1968503936999895
 50
270.0
 51
0.0
  0
LINE
  5
C8CF
  8
0
 10
8501.7000920881164348
 20
2390.1648090180360668
 30
0.0
 11
8501.955997600016417
 21
2390.1648090180360668
 31
0.0
  0
LINE
  5
C8D0
  8
0
 10
8501.7000920881164348
 20
2381.0703208290360635
 30
0.0
 11
8501.955997600016417
 21
2381.0703208290360635
 31
0.0
  0
LINE
  5
C8D1
  8
0
 10
8490.8716684618393629
 20
2382.5486672857359736
 30
0.0
 11
8495.4599346078193776
 21
2382.5486672857359736
 31
0.0
  0
LINE
  5
C8D2
  8
0
 10
8495.5780448440164037
 20
2382.5486672857359736
 30
0.0
 11
8500.1663109900964628
 21
2382.5486672857359736
 31
0.0
  0
LINE
  5
C8D3
  8
0
 10
8490.8733204346171988
 20
2382.7848877581359375
 30
0.0
 11
8500.1646590173168079
 21
2382.7848877581359375
 31
0.0
  0
LINE
  5
C8D4
  8
0
 10
8490.8733204346171988
 20
2382.6667775219370924
 30
0.0
 11
8500.1646590173168079
 21
2382.6667775219370924
 31
0.0
  0
LINE
  5
C8D5
  8
0
 10
8490.8733204346171988
 20
2382.7848877581359375
 30
0.0
 11
8490.8733204346171988
 21
2382.568352325136857
 31
0.0
  0
ARC
  5
C8D6
  8
0
 10
8490.7552101984165347
 20
2382.568352325136857
 30
0.0
 40
0.1181102362000015
 50
270.0
 51
0.0
  0
LINE
  5
C8D7
  8
0
 10
8490.7552101984165347
 20
2382.4502420889361929
 30
0.0
 11
8489.6134779149178939
 21
2382.4502420889361929
 31
0.0
  0
ARC
  5
C8D8
  8
0
 10
8489.6134779149178939
 20
2382.2529689774250983
 30
0.0
 40
0.197273111511727
 50
90.0
 51
176.2484862894094988
  0
LINE
  5
C8D9
  8
0
 10
8500.1646590173168079
 20
2382.7848877581359375
 30
0.0
 11
8500.1646590173168079
 21
2382.568352325136857
 31
0.0
  0
ARC
  5
C8DA
  8
0
 10
8500.2827692536175164
 20
2382.568352325136857
 30
0.0
 40
0.1181102363000015
 50
180.0
 51
269.9999999514853926
  0
LINE
  5
C8DB
  8
0
 10
8500.282769253517472
 20
2382.4502420888361485
 30
0.0
 11
8501.4245015370179317
 21
2382.4502420878698103
 31
0.0
  0
ARC
  5
C8DC
  8
0
 10
8501.4245015368996974
 20
2382.2533916940528798
 30
0.0
 40
0.196850393817293
 50
0.0000003155012537
 51
89.9999999658678149
  0
LINE
  5
C8DD
  8
0
 10
8501.621351930716628
 20
2377.4495619974359215
 30
0.0
 11
8501.621351930716628
 21
2382.2533916951360879
 31
0.0
  0
ATTDEF
  5
C907
  8
DEFPOINTS
 10
8485.7359133060981549
 20
2396.2927994368019426
 30
0.0
 40
0.001
  1
K-31601IN
  3

  2
MODELNUMBER
 70
     0
1001
ACDBATTR
1070
     0
1070
     1
  0
ATTDEF
  5
C908
  8
DEFPOINTS
 10
8485.7359133060981549
 20
2396.2911327701349364
 30
0.0
 40
0.001
  1
FOREFRONT
  3

  2
TRADENAME
 70
     0
1001
ACDBATTR
1070
     0
1070
     1
  0
ATTDEF
  5
C909
  8
DEFPOINTS
 10
8485.7359133060981549
 20
2396.2894661034688397
 30
0.0
 40
0.001
  1
VANITY CABINET
  3

  2
PRODUCT
 70
     0
1001
ACDBATTR
1070
     0
1070
     1
  0
ENDSEC
  0
EOF
