  0
SECTION
  2
HEADER
  9
$ACADVER
  1
AC1009
  9
$INSBASE
 10
4561.3424832368509669
 20
251.391768753781804
 30
0.0
  9
$EXTMIN
 10
4533.2434832463513885
 20
251.391768753781804
 30
0.0
  9
$EXTMAX
 10
4561.3491421943363093
 20
282.6602687537820202
 30
0.0
  9
$LIMMIN
 10
0.0
 20
0.0
  9
$LIMMAX
 10
11.6929133858000007
 20
8.2677165353999982
  9
$ORTHOMODE
 70
     1
  9
$REGENMODE
 70
     1
  9
$FILLMODE
 70
     1
  9
$QTEXTMODE
 70
     0
  9
$MIRRTEXT
 70
     0
  9
$DRAGMODE
 70
     2
  9
$LTSCALE
 40
0.6431102362
  9
$OSMODE
 70
  4095
  9
$ATTMODE
 70
     1
  9
$TEXTSIZE
 40
0.2
  9
$TRACEWID
 40
0.05
  9
$TEXTSTYLE
  7
STANDARD
  9
$CLAYER
  8
0
  9
$CELTYPE
  6
BYLAYER
  9
$CECOLOR
 62
   256
  9
$DIMSCALE
 40
1.0
  9
$DIMASZ
 40
0.1875
  9
$DIMEXO
 40
0.0625
  9
$DIMDLI
 40
0.4443307087
  9
$DIMRND
 40
0.0
  9
$DIMDLE
 40
0.0
  9
$DIMEXE
 40
0.125
  9
$DIMTP
 40
0.01
  9
$DIMTM
 40
0.01
  9
$DIMTXT
 40
2.0
  9
$DIMCEN
 40
0.1052362205
  9
$DIMTSZ
 40
0.0
  9
$DIMTOL
 70
     1
  9
$DIMLIM
 70
     0
  9
$DIMTIH
 70
     1
  9
$DIMTOH
 70
     1
  9
$DIMSE1
 70
     0
  9
$DIMSE2
 70
     0
  9
$DIMTAD
 70
     0
  9
$DIMZIN
 70
     0
  9
$DIMBLK
  1

  9
$DIMASO
 70
     1
  9
$DIMSHO
 70
     1
  9
$DIMPOST
  1
\X
  9
$DIMAPOST
  1

  9
$DIMALT
 70
     1
  9
$DIMALTD
 70
     2
  9
$DIMALTF
 40
25.3999999999999986
  9
$DIMLFAC
 40
1.0
  9
$DIMTOFL
 70
     0
  9
$DIMTVP
 40
0.0
  9
$DIMTIX
 70
     0
  9
$DIMSOXD
 70
     0
  9
$DIMSAH
 70
     0
  9
$DIMBLK1
  1

  9
$DIMBLK2
  1

  9
$DIMSTYLE
  2
STANDARD
  9
$DIMCLRD
 70
     0
  9
$DIMCLRE
 70
     0
  9
$DIMCLRT
 70
     0
  9
$DIMTFAC
 40
1.0
  9
$DIMGAP
 40
0.09
  9
$LUNITS
 70
     2
  9
$LUPREC
 70
     4
  9
$SKETCHINC
 40
0.1
  9
$FILLETRAD
 40
0.0
  9
$AUNITS
 70
     0
  9
$AUPREC
 70
     0
  9
$MENU
  1
.
  9
$ELEVATION
 40
0.0
  9
$PELEVATION
 40
0.0
  9
$THICKNESS
 40
0.0
  9
$LIMCHECK
 70
     0
  9
$BLIPMODE
 70
     0
  9
$CHAMFERA
 40
0.0
  9
$CHAMFERB
 40
0.0
  9
$SKPOLY
 70
     0
  9
$TDCREATE
 40
2458060.468368056230247
  9
$TDUPDATE
 40
2459026.6846759258769453
  9
$TDINDWG
 40
0.3113496528
  9
$TDUSRTIMER
 40
0.3113496528
  9
$USRTIMER
 70
     1
  9
$ANGBASE
 50
0.0
  9
$ANGDIR
 70
     0
  9
$PDMODE
 70
     0
  9
$PDSIZE
 40
0.3125
  9
$PLINEWID
 40
0.0
  9
$COORDS
 70
     1
  9
$SPLFRAME
 70
     0
  9
$SPLINETYPE
 70
     6
  9
$SPLINESEGS
 70
     8
  9
$ATTDIA
 70
     1
  9
$ATTREQ
 70
     1
  9
$HANDLING
 70
     1
  9
$HANDSEED
  5
73FA
  9
$SURFTAB1
 70
     6
  9
$SURFTAB2
 70
     6
  9
$SURFTYPE
 70
     6
  9
$SURFU
 70
     6
  9
$SURFV
 70
     6
  9
$UCSNAME
  2

  9
$UCSORG
 10
0.0
 20
0.0
 30
0.0
  9
$UCSXDIR
 10
1.0
 20
0.0
 30
0.0
  9
$UCSYDIR
 10
0.0
 20
1.0
 30
0.0
  9
$PUCSNAME
  2

  9
$PUCSORG
 10
0.0
 20
0.0
 30
0.0
  9
$PUCSXDIR
 10
1.0
 20
0.0
 30
0.0
  9
$PUCSYDIR
 10
0.0
 20
1.0
 30
0.0
  9
$USERI1
 70
     0
  9
$USERI2
 70
     0
  9
$USERI3
 70
     0
  9
$USERI4
 70
     0
  9
$USERI5
 70
     0
  9
$USERR1
 40
0.0
  9
$USERR2
 40
0.0
  9
$USERR3
 40
0.0
  9
$USERR4
 40
0.0
  9
$USERR5
 40
0.0
  9
$WORLDVIEW
 70
     1
  9
$SHADEDGE
 70
     3
  9
$SHADEDIF
 70
    70
  9
$TILEMODE
 70
     1
  9
$MAXACTVP
 70
    64
  9
$PLIMCHECK
 70
     0
  9
$PEXTMIN
 10
1.0000000000000000E+20
 20
1.0000000000000000E+20
 30
1.0000000000000000E+20
  9
$PEXTMAX
 10
-1.0000000000000000E+20
 20
-1.0000000000000000E+20
 30
-1.0000000000000000E+20
  9
$PLIMMIN
 10
0.0
 20
0.0
  9
$PLIMMAX
 10
12.0
 20
9.0
  9
$UNITMODE
 70
     0
  9
$VISRETAIN
 70
     1
  9
$PLINEGEN
 70
     0
  9
$PSLTSCALE
 70
     1
  0
ENDSEC
  0
SECTION
  2
TABLES
  0
TABLE
  2
VPORT
 70
     1
  0
VPORT
  2
*ACTIVE
 70
     0
 10
0.0
 20
0.0
 11
1.0
 21
1.0
 12
0.0
 22
0.0
 13
0.0
 23
0.0
 14
1.0
 24
1.0
 15
0.0
 25
0.0
 16
0.0
 26
0.0
 36
120.4477534328733981
 17
4547.2963972691995878
 27
267.0260238647460938
 37
0.0
 40
42.0546797456908834
 41
2.1481900452488678
 42
50.0
 43
0.0
 44
0.0
 50
0.0
 51
0.0
 71
     0
 72
   100
 73
     1
 74
     1
 75
     0
 76
     0
 77
     0
 78
     0
  0
ENDTAB
  0
TABLE
  2
LTYPE
 70
     3
  0
LTYPE
  2
CONTINUOUS
 70
     0
  3
Solid line
 72
    65
 73
     0
 40
0.0
  0
LTYPE
  2
PHANTOM2
 70
     0
  3
___ _ _ ___ _ _ ___ _ _ ___ _ _
 72
    65
 73
     6
 40
1.25
 49
0.625
 49
-0.125
 49
0.125
 49
-0.125
 49
0.125
 49
-0.125
  0
ENDTAB
  0
TABLE
  2
LAYER
 70
     2
  0
LAYER
  2
0
 70
     0
 62
   255
  6
CONTINUOUS
  0
LAYER
  2
DEFPOINTS
 70
     0
 62
     7
  6
CONTINUOUS
  0
ENDTAB
  0
TABLE
  2
STYLE
 70
     1
  0
STYLE
  2
STANDARD
 70
     0
 40
0.0
 41
0.8
 50
0.0
 71
     0
 42
0.2
  3
txt
  4

  0
ENDTAB
  0
TABLE
  2
VIEW
 70
     0
  0
ENDTAB
  0
TABLE
  2
UCS
 70
     0
  0
ENDTAB
  0
TABLE
  2
APPID
 70
     9
  0
APPID
  2
ACAD
 70
     0
  0
APPID
  2
ACAD_MLEADERVER
 70
     0
  0
APPID
  2
ACAD_EXEMPT_FROM_CAD_STANDARDS
 70
     0
  0
APPID
  2
ACAD_NAV_VCDISPLAY
 70
     0
  0
APPID
  2
ACAECLAYERSTANDARD
 70
     0
  0
APPID
  2
ACCMTRANSPARENCY
 70
     0
  0
APPID
  2
ACAD_DSTYLE_DIMJAG
 70
     0
  0
APPID
  2
ACAD_DSTYLE_DIMTALN
 70
     0
  0
APPID
  2
ACDBATTR
 70
     0
  0
ENDTAB
  0
TABLE
  2
DIMSTYLE
 70
     2
  0
DIMSTYLE
  2
STANDARD
 70
     0
  3

  4

  5

  6

  7

 40
1.0
 41
0.1875
 42
0.0625
 43
0.38
 44
0.125
 45
0.0
 46
0.0
 47
0.01
 48
0.01
140
0.15625
141
0.09
142
0.0
143
25.3999999999999986
144
1.0
145
0.0
146
1.0
147
0.09
 71
     1
 72
     0
 73
     1
 74
     1
 75
     0
 76
     0
 77
     0
 78
     4
170
     0
171
     2
172
     0
173
     0
174
     0
175
     0
176
     0
177
     0
178
     0
  0
ENDTAB
  0
ENDSEC
  0
SECTION
  2
BLOCKS
  0
BLOCK
  8
0
  2
$MODEL_SPACE
 70
     0
 10
0.0
 20
0.0
 30
0.0
  3
$MODEL_SPACE
  1

  0
ENDBLK
  5
21
  8
0
  0
BLOCK
 67
     1
  8
0
  2
$PAPER_SPACE
 70
     0
 10
0.0
 20
0.0
 30
0.0
  3
$PAPER_SPACE
  1

  0
ENDBLK
  5
1D
 67
     1
  8
0
  0
ENDSEC
  0
SECTION
  2
ENTITIES
  0
ATTDEF
  5
3930
  8
DEFPOINTS
 10
4561.3384755276665601
 20
251.4032191388095043
 30
0.0
 40
0.001
  1
K-31641-RA
  3

  2
MODELNUMBER
 70
     0
1001
ACDBATTR
1070
     0
1070
     1
  0
ATTDEF
  5
3931
  8
DEFPOINTS
 10
4561.3384755276665601
 20
251.4015524721428108
 30
0.0
 40
0.001
  1
CIMARRON
  3

  2
TRADENAME
 70
     0
1001
ACDBATTR
1070
     0
1070
     1
  0
ATTDEF
  5
3932
  8
DEFPOINTS
 10
4561.3384755276665601
 20
251.3998858054760888
 30
0.0
 40
0.001
  1
TOILET
  3

  2
PRODUCT
 70
     0
1001
ACDBATTR
1070
     0
1070
     1
  0
LINE
  5
7218
  8
0
 10
4535.587487174276248
 20
251.391768753781804
 30
0.0
 11
4557.6174832463511848
 21
251.391768753781804
 31
0.0
  0
LINE
  5
7219
  8
0
 10
4545.6923491485504201
 20
252.6100280029818066
 30
0.0
 11
4547.3312363786508286
 21
252.6102222595818034
 31
0.0
  0
LINE
  5
721A
  8
0
 10
4533.2434832463513885
 20
267.4517687533818275
 30
0.0
 11
4533.2434832463513885
 21
267.6917686105817893
 31
0.0
  0
LINE
  5
721B
  8
0
 10
4552.7538951534497755
 20
254.6408687104818114
 30
0.0
 11
4551.5874833190509889
 21
254.6408687104818114
 31
0.0
  0
LINE
  5
721C
  8
0
 10
4535.7711235226506687
 20
267.9921816220817732
 30
0.0
 11
4535.7659041947499645
 21
268.0518388124817761
 31
0.0
  0
LINE
  5
721D
  8
0
 10
4536.0508076285514107
 20
268.902394206381814
 30
0.0
 11
4536.0520832353504375
 21
268.8283610304818012
 31
0.0
  0
LINE
  5
721E
  8
0
 10
4537.1431593033512399
 20
268.8283707717818061
 30
0.0
 11
4537.1450120385670743
 21
268.9413882616881892
 31
0.0
  0
LINE
  5
721F
  8
0
 10
4536.8600786295501166
 20
267.9921816220817732
 30
0.0
 11
4536.8609173907643708
 21
268.0017687537817892
 31
0.0
  0
LINE
  5
7220
  8
0
 10
4536.768027388149676
 20
259.7917686557818229
 30
0.0
 11
4535.587487174276248
 21
251.391768753781804
 31
0.0
  0
LINE
  5
7221
  8
0
 10
4548.0274282148247948
 20
254.2798961991603903
 30
0.0
 11
4546.7144650628506497
 21
255.8446247523818045
 31
0.0
  0
LINE
  5
7222
  8
0
 10
4547.8304883961509404
 20
255.8994221101818027
 30
0.0
 11
4548.7907417642509245
 21
254.7550367089818053
 31
0.0
  0
LINE
  5
7223
  8
0
 10
4542.988859356130888
 20
268.9180237537818243
 30
0.0
 11
4542.9890262970511685
 21
268.9083776533818195
 31
0.0
  0
LINE
  5
7224
  8
0
 10
4552.3874832463498024
 20
264.3510057672817766
 30
0.0
 11
4554.8266694157509846
 21
264.3510077387817887
 31
0.0
  0
LINE
  5
7225
  8
0
 10
4545.1923778201507957
 20
253.0953651156818012
 30
0.0
 11
4545.1207753611506632
 21
255.6429032469818026
 31
0.0
  0
LINE
  5
7226
  8
0
 10
4552.7617540701512553
 20
265.6517687537818233
 30
0.0
 11
4553.8132124225512598
 21
265.6517687537818233
 31
0.0
  0
LINE
  5
7227
  8
0
 10
4544.2777390829496653
 20
268.0757215270817824
 30
0.0
 11
4544.2658049148503778
 21
268.1517687537818233
 31
0.0
  0
LINE
  5
7228
  8
0
 10
4548.288069452885793
 20
268.3159213966224002
 30
0.0
 11
4548.2732577162505549
 21
267.8917687537817756
 31
0.0
  0
LINE
  5
7229
  8
0
 10
4549.2662077074992339
 20
268.4422199094782968
 30
0.0
 11
4549.2764270651032348
 21
268.4436615192734052
 31
0.0
  0
LINE
  5
722A
  8
0
 10
4547.3088736529507514
 20
268.1760985818817744
 30
0.0
 11
4548.2705842492514421
 21
268.3112581918817909
 31
0.0
  0
LINE
  5
722B
  8
0
 10
4548.7361393943228904
 20
268.3720734232837231
 30
0.0
 11
4549.2402600559507846
 21
268.4353483709818988
 31
0.0
  0
LINE
  5
722C
  8
0
 10
4550.8366219793506389
 20
267.3070036782817738
 30
0.0
 11
4547.6261314228504489
 21
267.3070036782817738
 31
0.0
  0
LINE
  5
722D
  8
0
 10
4545.9906551652511553
 20
267.4517687537817778
 30
0.0
 11
4559.5070614832511637
 21
267.4517687537817778
 31
0.0
  0
LINE
  5
722E
  8
0
 10
4553.3374832463514394
 20
267.8917687537817756
 30
0.0
 11
4533.4434825148509844
 21
267.8917687537817756
 31
0.0
  0
LINE
  5
722F
  8
0
 10
4544.4254602351511494
 20
267.9517687537817778
 30
0.0
 11
4544.5572856403496189
 21
267.9517687537817778
 31
0.0
  0
LINE
  5
7230
  8
0
 10
4535.6634832578511123
 20
268.0017687537817892
 30
0.0
 11
4535.7702847573036706
 21
268.0017687537817892
 31
0.0
  0
LINE
  5
7231
  8
0
 10
4536.8609173907643708
 20
268.0017687537817892
 30
0.0
 11
4544.3170146505799494
 21
268.0017687537817892
 31
0.0
  0
LINE
  5
7232
  8
0
 10
4544.6586471255459401
 20
268.0017687537817892
 30
0.0
 11
4546.718481543451162
 21
268.0017687537817892
 31
0.0
  0
LINE
  5
7233
  8
0
 10
4559.5562353223504033
 20
268.3317687537817733
 30
0.0
 11
4553.7074832463504208
 21
268.3317687537817733
 31
0.0
  0
LINE
  5
7234
  8
0
 10
4551.9127215255512056
 20
259.2157554391818053
 30
0.0
 11
4552.0086283284499586
 21
259.0367457342817943
 31
0.0
  0
LINE
  5
7235
  8
0
 10
4552.1666113776509519
 20
259.2920541203818061
 30
0.0
 11
4552.2376556945500852
 21
259.159450156681828
 31
0.0
  0
LINE
  5
7236
  8
0
 10
4548.8699775979512196
 20
269.6680128605818254
 30
0.0
 11
4548.8665115356507158
 21
269.7341492725818171
 31
0.0
  0
LINE
  5
7237
  8
0
 10
4553.4003765315510464
 20
268.6517687537818233
 30
0.0
 11
4559.5791261060512625
 21
268.6517687537818233
 31
0.0
  0
LINE
  5
7238
  8
0
 10
4544.2098639685509625
 20
268.8356512537819185
 30
0.0
 11
4543.0630043940509495
 21
268.8356512537819185
 31
0.0
  0
LINE
  5
7239
  8
0
 10
4547.8487089443497098
 20
268.9180237537818243
 30
0.0
 11
4541.084845509751176
 21
268.9180237537818243
 31
0.0
  0
LINE
  5
723A
  8
0
 10
4548.3069603462508894
 20
268.419432391581779
 30
0.0
 11
4547.9432780938495853
 21
268.7831156933817738
 31
0.0
  0
LINE
  5
723B
  8
0
 10
4548.2034875863046182
 20
268.7703476394220274
 30
0.0
 11
4548.5276121853230507
 21
268.4439647644617253
 31
0.0
  0
LINE
  5
723C
  8
0
 10
4549.3268452753582096
 20
268.4909353165706989
 30
0.0
 11
4549.399738457949752
 21
267.8917687537817756
 31
0.0
  0
LINE
  5
723D
  8
0
 10
4549.3276547739833404
 20
268.5104836769261283
 30
0.0
 11
4549.3265482349816011
 21
268.5193498639470135
 31
0.0
  0
LINE
  5
723E
  8
0
 10
4549.3268900556277003
 20
268.5468614077869915
 30
0.0
 11
4549.2706642843513691
 21
269.0060776782818266
 31
0.0
  0
LINE
  5
723F
  8
0
 10
4549.4199100841497057
 20
267.8917687537817756
 30
0.0
 11
4549.2769851049506542
 21
269.0557992975818138
 31
0.0
  0
LINE
  5
7240
  8
0
 10
4549.3650522783509587
 20
268.464845388781896
 30
0.0
 11
4549.4325191381503828
 21
267.9153719102818059
 31
0.0
  0
LINE
  5
7241
  8
0
 10
4551.9050210288496601
 20
282.5360808144818066
 30
0.0
 11
4551.9598466370507595
 21
280.9660808142818951
 31
0.0
  0
LINE
  5
7242
  8
0
 10
4553.5874832463496205
 20
268.2117687537818256
 30
0.0
 11
4553.5874832463496205
 21
268.1417687537817756
 31
0.0
  0
LINE
  5
7243
  8
0
 10
4550.1856445891507974
 20
261.981436197581786
 30
0.0
 11
4549.0257313070496821
 21
260.2617940385817974
 31
0.0
  0
LINE
  5
7244
  8
0
 10
4554.9383807391513983
 20
258.8328956091817759
 30
0.0
 11
4555.003423025250413
 21
256.9703239979817795
 31
0.0
  0
LINE
  5
7245
  8
0
 10
4554.7005017804767704
 20
268.3317687537817733
 30
0.0
 11
4554.7069363321497804
 21
268.6324667436819027
 31
0.0
  0
LINE
  5
7246
  8
0
 10
4551.2441008909509037
 20
258.7654847848817781
 30
0.0
 11
4551.5991928451512649
 21
259.2921976757817788
 31
0.0
  0
LINE
  5
7247
  8
0
 10
4552.4423804136504259
 20
260.4592486636818194
 30
0.0
 11
4552.2099330603496128
 21
260.1146312903817943
 31
0.0
  0
LINE
  5
7248
  8
0
 10
4557.6174832463511848
 20
251.391768753781804
 30
0.0
 11
4557.4527405844510213
 21
252.3260073042818021
 31
0.0
  0
LINE
  5
7249
  8
0
 10
4555.4837968419496974
 20
280.9660809071817766
 30
0.0
 11
4555.4613481203496121
 21
282.5360808470819052
 31
0.0
  0
LINE
  5
724A
  8
0
 10
4556.1499832463496205
 20
268.6517687537818233
 30
0.0
 11
4556.1499832463496205
 21
268.3317687537817733
 31
0.0
  0
LINE
  5
724B
  8
0
 10
4557.3830509882509432
 20
264.5322964816818967
 30
0.0
 11
4555.7138976539508803
 21
262.863143147381777
 31
0.0
  0
LINE
  5
724C
  8
0
 10
4557.4873995833504523
 20
259.1662739027818247
 30
0.0
 11
4557.6362200692510669
 21
254.9046127762819083
 31
0.0
  0
LINE
  5
724D
  8
0
 10
4557.0249832463496205
 20
268.6517687537818233
 30
0.0
 11
4557.0249832463496205
 21
268.3317687537817733
 31
0.0
  0
LINE
  5
724E
  8
0
 10
4556.3990864452498499
 20
262.2117119536817995
 30
0.0
 11
4557.7159390655506286
 21
263.528564573981896
 31
0.0
  0
LINE
  5
724F
  8
0
 10
4558.4680301606504145
 20
268.6324667436819027
 30
0.0
 11
4558.4774094172289551
 21
268.3317687537817733
 31
0.0
  0
LINE
  5
7251
  8
0
 10
4558.438607835851144
 20
264.0993574656818055
 30
0.0
 11
4557.3816700332499749
 21
260.1548118862817773
 31
0.0
  0
LINE
  5
7252
  8
0
 10
4559.6761621441510215
 20
268.2159567054819149
 30
0.0
 11
4559.7065297169119731
 21
267.3463491998816153
 31
0.0
  0
LINE
  5
7253
  8
0
 10
4560.1624832368497664
 20
281.2202687537819088
 30
0.0
 11
4560.1624832368497664
 21
282.540268753781902
 31
0.0
  0
LINE
  5
7254
  8
0
 10
4560.1624832368497664
 20
280.9602682069818229
 30
0.0
 11
4559.9540689917512282
 21
269.0202241013818139
 31
0.0
  0
LINE
  5
7255
  8
0
 10
4552.0797746344496773
 20
280.8502687537819043
 30
0.0
 11
4559.4916598023501138
 21
280.8502687537819043
 31
0.0
  0
LINE
  5
7256
  8
0
 10
4560.0424832463495477
 20
282.6602687537817928
 30
0.0
 11
4552.0249503072509469
 21
282.6602687537817928
 31
0.0
  0
ARC
  5
7257
  8
0
 10
4536.7505032725703131
 20
268.0017621406577746
 30
0.0
 40
0.1099933870435271
 50
269.9968373414344001
 51
355.0031565694796996
  0
ARC
  5
7258
  8
0
 10
4535.8806856328710637
 20
268.0017476843564168
 30
0.0
 40
0.1099789322706144
 50
184.9899418445295964
 51
270.0100625633751861
  0
ARC
  5
7259
  8
0
 10
4544.4330286504891774
 20
268.1107884264216068
 30
0.0
 40
0.1591996771265821
 50
192.724886868211513
 51
267.2751090064616051
  0
ARC
  5
725A
  8
0
 10
4547.0595711642254173
 20
269.4310108290414973
 30
0.0
 40
1.279436000291013
 50
270.9975869695418851
 51
281.2361613097584154
  0
ARC
  5
725B
  8
0
 10
4547.8199333516904517
 20
268.3488929514202255
 30
0.0
 40
0.569857793602755
 50
47.6955399056262124
 51
87.1055559782867448
  0
ARC
  5
725C
  8
0
 10
4548.9598112006979136
 20
268.9619666305367218
 30
0.0
 40
0.3332976117977278
 50
22.2846585326608491
 51
32.725296615295477
  0
ARC
  5
725D
  8
0
 10
4548.7050015026497931
 20
268.6201267072818268
 30
0.0
 40
0.25
 50
224.8010950474181016
 51
277.1548600690874764
  0
ARC
  5
725E
  8
0
 10
4549.1578795667510349
 20
269.0411749763819103
 30
0.0
 40
0.12
 50
7.0000000000977352
 51
23.1521565130966707
  0
ARC
  5
725F
  8
0
 10
4549.2680086352511353
 20
268.5031626857817741
 30
0.0
 40
0.0600937499
 50
278.0529544585991744
 51
6.9975075388000727
  0
ARC
  5
7260
  8
0
 10
4549.4935508295648106
 20
267.9824763630915072
 30
0.0
 40
0.0907076344780913
 50
227.7133908773523956
 51
269.9573180979676863
  0
ARC
  5
7261
  8
0
 10
4550.8786322461510281
 20
268.2586994375819245
 30
0.0
 40
0.0600063242
 50
0.9680422423005456
 51
73.1104416249914237
  0
ARC
  5
7262
  8
0
 10
4549.49348325785013
 20
268.4317687537819097
 30
0.0
 40
0.1355
 50
99.7415716904763059
 51
159.0679660965926132
  0
ARC
  5
7263
  8
0
 10
4549.3968206131039551
 20
268.468744360864207
 30
0.0
 40
0.032006703614376
 50
159.0709668425531902
 51
186.9969991147071084
  0
ARC
  5
7264
  8
0
 10
4564.9188019086514032
 20
-730.0791714855181453
 30
0.0
 40
999.9999986742000146
 50
90.9232568716961254
 51
91.7796239518152248
  0
ARC
  5
7265
  8
0
 10
4552.5564956504158545
 20
258.9937290548347733
 30
0.0
 40
4.9339219005156556
 50
2.0041070682010309
 51
12.2098988237332602
  0
ARC
  5
7266
  8
0
 10
4552.5914250115765753
 20
260.4693980176402874
 30
0.0
 40
2.5478331463698098
 50
316.1096697040107983
 51
322.0454202801902284
  0
ARC
  5
7267
  8
0
 10
4552.5914297792496654
 20
260.4693936631817905
 30
0.0
 40
2.2879999999999998
 50
316.1096659437175163
 51
330.1565343883012247
  0
ARC
  5
7268
  8
0
 10
4552.7538943019635553
 20
256.8917693478048818
 30
0.0
 40
2.2508998889230298
 50
270.000021861222308
 51
1.9999841302207051
  0
ARC
  5
7269
  8
0
 10
4553.3394832463500279
 20
259.7497687537817797
 30
0.0
 40
1.5098266916
 50
208.1807653480933027
 51
316.1096659438039751
  0
ARC
  5
726A
  8
0
 10
4556.0671373708510146
 20
253.3918575524818095
 30
0.0
 40
1.3086534992000001
 50
334.0016382026961992
 51
350.6254980748979051
  0
ARC
  5
726B
  8
0
 10
4553.3394832463500279
 20
259.7497687537817797
 30
0.0
 40
1.25
 50
208.1807653480933027
 51
316.1096659437175163
  0
ARC
  5
726C
  8
0
 10
4553.3874832463507119
 20
259.8217687537817824
 30
0.0
 40
1.140000000000007
 50
45.0162391882405828
 51
145.9999999999868123
  0
ARC
  5
726D
  8
0
 10
4554.3315787099190857
 20
267.5837687551897943
 30
0.0
 40
5.3630000063130661
 50
320.7797710999931269
 51
356.0976449621238089
  0
ARC
  5
726E
  8
0
 10
4553.3374832463514394
 20
268.1417687537817756
 30
0.0
 40
0.25
 50
270.0
 51
0.0
  0
ARC
  5
726F
  8
0
 10
4553.7074832463504208
 20
268.2117687537818256
 30
0.0
 40
0.12
 50
90.0
 51
180.0
  0
ARC
  5
7270
  8
0
 10
4554.7269234722607507
 20
268.6317694542032086
 30
0.0
 40
0.0199992995900482
 50
89.9980622211061956
 51
178.0019377797273137
  0
ARC
  5
7271
  8
0
 10
4559.5515080046752701
 20
269.0548731379212768
 30
0.0
 40
0.4040493831650737
 50
273.9194106429902718
 51
355.0805893570191074
  0
ARC
  5
7272
  8
0
 10
4559.9322027710386465
 20
267.2016314765735956
 30
0.0
 40
0.2506457894595404
 50
159.6340859294768961
 51
176.0762598222225961
  0
ARC
  5
7273
  8
0
 10
4559.5556154908499593
 20
267.3412770167818167
 30
0.0
 40
0.1509994393
 50
339.6878174869096938
 51
1.9249698248996641
  0
ARC
  5
7274
  8
0
 10
4559.5513480601421179
 20
268.2067079281093811
 30
0.0
 40
0.1251562841001666
 50
4.2378966742068416
 51
87.7620723302551653
  0
ARC
  5
7275
  8
0
 10
4558.448043632952249
 20
268.6317700884782198
 30
0.0
 40
0.0199986653451331
 50
1.996307323332851
 51
90.0036926758683506
  0
ARC
  5
7276
  8
0
 10
4560.0115877284542876
 20
280.9536586360194974
 30
0.0
 40
0.1510401962473438
 50
2.5080839456473498
 51
65.6603286912897346
  0
ARC
  5
7277
  8
0
 10
4560.0421226301368733
 20
281.2203476142386762
 30
0.0
 40
0.1203606325484571
 50
307.7356605604301762
 51
359.962459721476705
  0
ARC
  5
7278
  8
0
 10
4560.0319701239268397
 20
282.5297556416900875
 30
0.0
 40
0.1309358551770819
 50
4.6053546655493118
 51
85.3946407985225733
  0
ARC
  5
7279
  8
0
 10
4552.0835527830640785
 20
280.9741823154358258
 30
0.0
 40
0.1239711465168721
 50
183.7469443580895074
 51
268.253581583644177
  0
ARC
  5
727A
  8
0
 10
4552.0249518325354074
 20
282.5402649832643078
 30
0.0
 40
0.1200037705272566
 50
90.000728246721323
 51
181.9981356597207878
  0
ARC
  5
727B
  8
0
 10
4559.3380650492963468
 20
282.0449609622871776
 30
0.0
 40
1.2045251434608379
 50
277.3260041830699834
 51
310.2156088473253135
  0
LINE
  5
727C
  8
0
 10
4533.3625663126440486
 20
268.1517687537818233
 30
0.0
 11
4547.0818465256343188
 21
268.1517687537818233
 31
0.0
  0
LINE
  5
727D
  8
0
 10
4533.6593520887836348
 20
268.7711398192818137
 30
0.0
 11
4547.4380022207124057
 21
268.7711398192818137
 31
0.0
  0
ARC
  5
727E
  8
0
 10
4533.4493464340803257
 20
267.6859055916963257
 30
0.0
 40
0.2059466606978658
 50
91.6316032294227512
 51
178.3686473540294912
  0
ARC
  5
727F
  8
0
 10
4533.3613694815212511
 20
268.2128317236916928
 30
0.0
 40
0.0610746976984003
 50
162.1562404471656862
 51
271.1228506134751797
  0
ARC
  5
7280
  8
0
 10
4533.6806446371601851
 20
268.4939672123555852
 30
0.0
 40
0.2779892563509367
 50
94.3928647369654641
 51
160.0454345904933007
  0
LINE
  5
7281
  8
0
 10
4533.4193448712503596
 20
268.5888379611819232
 30
0.0
 11
4533.3032327430173609
 21
268.2315463793178196
 31
0.0
  0
ARC
  5
7282
  8
0
 10
4538.1399432102325591
 20
382.5141597590670131
 30
0.0
 40
113.5753065980534018
 50
267.7273069941999211
 51
268.9199668108198011
  0
ARC
  5
7283
  8
0
 10
4533.6443750342978092
 20
269.0922777921193187
 30
0.0
 40
0.064625808758455
 50
167.170923743660893
 51
262.5978618895082946
  0
ARC
  5
7284
  8
0
 10
2795.9533082773968999
 20
832.2660988654573657
 30
0.0
 40
1826.6088374251139612
 50
342.0426630931900718
 51
342.0479061663104972
  0
ARC
  5
7285
  8
0
 10
4533.8707424964859456
 20
269.1885737279973796
 30
0.0
 40
0.2500261649558681
 50
91.6602606142180605
 51
162.0476466376165945
  0
ARC
  5
7286
  8
0
 10
4548.806593751291075
 20
269.7310093466127228
 30
0.0
 40
0.0600000001470793
 50
2.9997787134374989
 51
90.9232059130222154
  0
ARC
  5
7287
  8
0
 10
4540.7080957337857399
 20
537.5770294546779269
 30
0.0
 40
268.6592698653590219
 50
268.9956946072887831
 51
270.0803477921189142
  0
ARC
  5
7288
  8
0
 10
4549.2279303196210094
 20
268.5343330500958245
 30
0.0
 40
0.0997496320658749
 50
277.1003093886391753
 51
7.2152927982212303
  0
ARC
  5
7289
  8
0
 10
4548.5226007144901814
 20
269.0711672559115755
 30
0.0
 40
0.6905761181629076
 50
25.4234538326130703
 51
59.7996811579059724
  0
ARC
  5
728A
  8
0
 10
4548.1824320551304481
 20
268.8339306529023816
 30
0.0
 40
1.1017640323865441
 50
8.9891095574923252
 51
28.9737520406259215
  0
ARC
  5
728B
  8
0
 10
4549.4756340681678921
 20
268.5355798021844862
 30
0.0
 40
0.0301656552540132
 50
83.2408614273910246
 51
99.6911958574130352
  0
ARC
  5
728C
  8
0
 10
4548.4641486143191287
 20
258.6501999210939857
 30
0.0
 40
9.9671552238834167
 50
75.8776628949509302
 51
84.1549755865916751
  0
ARC
  5
728D
  8
0
 10
4550.8225303168228493
 20
268.2693930255563259
 30
0.0
 40
0.1165025162331396
 50
315.4783622136088184
 51
355.2339941639420999
  0
ARC
  5
728E
  8
0
 10
4551.0225835894580086
 20
267.9885753834590787
 30
0.0
 40
0.230951362670782
 50
120.4343656836301051
 51
148.7285695745331964
  0
ARC
  5
728F
  8
0
 10
4550.9316593463581739
 20
268.0217821392780024
 30
0.0
 40
0.1372948256199527
 50
140.851611874219202
 51
177.3082724459295036
  0
ARC
  5
7290
  8
0
 10
4709.1101560822044121
 20
259.5705843428069102
 30
0.0
 40
158.5413941549745971
 50
176.9420129548944942
 51
176.9913982434497086
  0
ARC
  5
7291
  8
0
 10
4549.3954519543221977
 20
268.3413192998472141
 30
0.0
 40
0.0307476964828248
 50
194.1197824039776947
 51
247.5467742382591041
  0
ARC
  5
7292
  8
0
 10
4546.6269449991877991
 20
273.6113507930671176
 30
0.0
 40
4.9076935608631631
 50
279.5124782138012733
 51
286.0443168626230772
  0
ARC
  5
7293
  8
0
 10
4547.7997984583698781
 20
268.633179701355516
 30
0.0
 40
0.2075264019410538
 50
46.2605405458952035
 51
98.4747860127444739
  0
ARC
  5
7294
  8
0
 10
4548.2632335855287238
 20
268.3739332792152936
 30
0.0
 40
0.0631046656708136
 50
276.6892088761774176
 51
46.1379537444896286
  0
ARC
  5
7295
  8
0
 10
4548.2746835988127714
 20
267.6822067558388767
 30
0.0
 40
0.7562466277635347
 50
76.9226789862274813
 51
88.9866821782831465
  0
ARC
  5
7296
  8
0
 10
4548.9573325136489075
 20
270.5437516369653963
 30
0.0
 40
2.185615761056777
 50
256.4645633865508785
 51
261.2147052114423218
  0
ARC
  5
7297
  8
0
 10
4535.696707286914716
 20
268.7618423652228898
 30
0.0
 40
0.7607994025473392
 50
252.1623261271018919
 51
267.4971034379627781
  0
ARC
  5
7298
  8
0
 10
4521.5726586718674298
 20
226.6091842224205948
 30
0.0
 40
43.6952494670659206
 50
71.4636398774753587
 51
71.9404036908031799
  0
ARC
  5
7299
  8
0
 10
4535.6562625185915749
 20
268.0416777043188858
 30
0.0
 40
0.1101115128849385
 50
5.2947967360710466
 51
88.8953692686044405
  0
ARC
  5
729A
  8
0
 10
4544.5281780388422703
 20
268.1385180549773963
 30
0.0
 40
0.1890041109674949
 50
278.8591012639968199
 51
337.8608353322907192
  0
ARC
  5
729B
  8
0
 10
4544.8114785601374024
 20
268.0403827742401859
 30
0.0
 40
0.1115260896095201
 50
92.8722983050805624
 51
166.0386164498962955
  0
ARC
  5
729C
  8
0
 10
4546.4860731325861707
 20
269.8757392693312909
 30
0.0
 40
1.8883270804046
 50
277.069681145463619
 51
295.8317459743694826
  0
ARC
  5
729D
  8
0
 10
4537.0687925368556535
 20
268.8299739249471827
 30
0.0
 40
0.0743840443841466
 50
307.7255630981409809
 51
358.765043987110289
  0
ARC
  5
729E
  8
0
 10
4536.1270003840609206
 20
268.8302198701807129
 30
0.0
 40
0.0749402058702985
 50
181.4213277432708082
 51
232.0327503658496084
  0
ARC
  5
729F
  8
0
 10
4535.9926972061794004
 20
268.9012699319034141
 30
0.0
 40
0.0581212971408917
 50
1.108375133095993
 51
83.6156853823259922
  0
ARC
  5
72A0
  8
0
 10
4543.0663395455649152
 20
268.9130326752518272
 30
0.0
 40
0.0774532609018998
 50
183.4456126502414008
 51
267.5320702392775161
  0
ARC
  5
72A1
  8
0
 10
4544.2055075207308619
 20
268.9146605327255202
 30
0.0
 40
0.0791292916485149
 50
273.1560037346795866
 51
350.1597345806753765
  0
ARC
  5
72A2
  8
0
 10
4544.3167560742331261
 20
268.8864568645274176
 30
0.0
 40
0.0363771495667642
 50
119.7998238880999935
 51
156.1991581233174031
  0
ARC
  5
72A3
  8
0
 10
4541.6128843167043669
 20
267.5793563775818029
 30
0.0
 40
8.3703735208338887
 50
180.8733798408109124
 51
190.932441174752114
  0
ARC
  5
72A4
  8
0
 10
4547.2395034452620166
 20
272.4000101851099203
 30
0.0
 40
15.2561512981981693
 50
204.8367532474422035
 51
222.841743558230803
  0
ARC
  5
72A5
  8
0
 10
4534.3230300350242032
 20
260.2411067973390004
 30
0.0
 40
2.4859438493769921
 50
349.5864629448985852
 51
45.8956847313932386
  0
ARC
  5
72A6
  8
0
 10
4558.6978324070178132
 20
264.02556912653381
 30
0.0
 40
0.2695219792355231
 50
141.6687648376810102
 51
164.1109835367263088
  0
ARC
  5
72A7
  8
0
 10
4557.6265680848100601
 20
260.0900240007703133
 30
0.0
 40
0.2533229673093791
 50
165.1818437440821867
 51
192.0307427140614038
  0
ARC
  5
72A8
  8
0
 10
4557.4680774033740818
 20
252.7087437451473875
 30
0.0
 40
0.2499604716508575
 50
154.026508899479694
 51
238.4690853763551956
  0
ARC
  5
72A9
  8
0
 10
4557.2064737331866127
 20
252.2826168158796918
 30
0.0
 40
0.2500601857849574
 50
9.9925532139215143
 51
58.4385436874243425
  0
ARC
  5
72AA
  8
0
 10
3763.2951360623228538
 20
384.6701262430779025
 30
0.0
 40
804.8765906622303419
 50
350.5975332002204254
 51
350.7174346624506143
  0
ARC
  5
72AB
  8
0
 10
4557.342697014641999
 20
254.8930573345195967
 30
0.0
 40
0.2937504243762541
 50
349.7325177466294122
 51
2.2544611434887361
  0
ARC
  5
72AC
  8
0
 10
4549.3416744130881852
 20
252.6759489556974074
 30
0.0
 40
0.7228307449415937
 50
50.4525757263510073
 51
136.1778038971656883
  0
ARC
  5
72AD
  8
0
 10
4549.02272270865069
 20
252.5488735979222952
 30
0.0
 40
1.037114779365055
 50
1.5542660161869251
 51
41.296403657608117
  0
ARC
  5
72AE
  8
0
 10
4549.8280600262423832
 20
252.502016066451489
 30
0.0
 40
1.2127376621385071
 50
146.2115587365913996
 51
175.6330451050264969
  0
ARC
  5
72AF
  8
0
 10
4545.6929039941105657
 20
253.1107915374516892
 30
0.0
 40
0.5007638418540039
 50
181.7653205848448863
 51
269.9365163520837996
  0
ARC
  5
72B0
  8
0
 10
4545.3718007002526065
 20
255.6459077327683929
 30
0.0
 40
0.2510433185846346
 50
88.2595066461265958
 51
180.6857321113702142
  0
ARC
  5
72B1
  8
0
 10
4545.6110268990232726
 20
262.1995116797874061
 30
0.0
 40
6.3069302834199528
 50
267.8955271309172872
 51
278.3503465829148809
  0
ARC
  5
72B2
  8
0
 10
4548.6291173499821525
 20
249.7113425646016935
 30
0.0
 40
6.5922573882720163
 50
96.2623327752751266
 51
108.595419527416496
  0
ARC
  5
72B3
  8
0
 10
4546.5141349874993466
 20
255.7279877170751945
 30
0.0
 40
0.2318109943368336
 50
30.2090034585403195
 51
86.829717145273861
  0
ARC
  5
72B4
  8
0
 10
4548.068659650482914
 20
256.0385886511389231
 30
0.0
 40
0.2758493656185975
 50
125.1041746116455045
 51
210.2982958171467942
  0
ARC
  5
72B5
  8
0
 10
4547.81077165663919
 20
254.1136102650918076
 30
0.0
 40
0.273113668779298
 50
334.0400417195930913
 51
37.5065758399001794
  0
ARC
  5
72B6
  8
0
 10
4548.9985690054663792
 20
254.9245732180143875
 30
0.0
 40
0.2682066182743251
 50
219.2060834073992908
 51
275.0899435008520868
  0
ARC
  5
72B7
  8
0
 10
4609.4505671488532244
 20
5242.4302819825343249
 30
0.0
 40
4990.2067131200992662
 50
269.2867495053155835
 51
269.4016437870263871
  0
ARC
  5
72B8
  8
0
 10
4547.3254034138999486
 20
252.8581805379880905
 30
0.0
 40
0.24802687618078
 50
271.347576043263814
 51
354.8330277750732193
  0
ARC
  5
72B9
  8
0
 10
4549.7090423041636313
 20
252.6233511623337904
 30
0.0
 40
2.1471603430540092
 50
140.3288285675573093
 51
174.3204604801435949
  0
ARC
  5
72BA
  8
0
 10
4545.4300516934363259
 20
258.8536832293340808
 30
0.0
 40
5.5238843576466143
 50
298.3880132702374226
 51
310.566005735904298
  0
ARC
  5
72BB
  8
0
 10
4549.7083366912411293
 20
252.6200673588020038
 30
0.0
 40
2.1497398325715049
 50
90.022725099833977
 51
108.6082398420981008
  0
ARC
  5
72BC
  8
0
 10
4541.1044478228241132
 20
115.5620511264905019
 30
0.0
 40
139.4733362825176926
 50
85.6894939791556851
 51
86.4636196147682767
  0
ARC
  5
72BD
  8
0
 10
4552.5712905779837456
 20
258.9027308401837786
 30
0.0
 40
2.3681200963171878
 50
358.3101177270675066
 51
46.7675931986758826
  0
ARC
  5
72BE
  8
0
 10
4546.073826518808346
 20
262.1846121055389744
 30
0.0
 40
6.1985618265929512
 50
287.2313264534515156
 51
326.5231441187472115
  0
ARC
  5
72BF
  8
0
 10
4555.8544178003721754
 20
256.7702474081708033
 30
0.0
 40
4.9464302857554312
 50
137.4587608194975132
 51
149.3459889984470124
  0
ARC
  5
72C0
  8
0
 10
4553.8052379841283255
 20
259.7501076486395277
 30
0.0
 40
0.8774422892151968
 50
331.4541450002777765
 51
25.8904384305618898
  0
ARC
  5
72C1
  8
0
 10
4552.8731837086452288
 20
259.6672712955323163
 30
0.0
 40
0.8000202419028504
 50
146.0004878297195035
 51
207.9700268384756043
  0
ARC
  5
72C2
  8
0
 10
4554.6595801254097751
 20
258.3335779348763026
 30
0.0
 40
0.5718810384126721
 50
60.8226164533765612
 51
95.9410195355007573
  0
ARC
  5
72C3
  8
0
 10
4551.677056471978176
 20
258.9303644073600026
 30
0.0
 40
0.3701162770259921
 50
50.4514022478816315
 51
102.1443948234576027
  0
ARC
  5
72C4
  8
0
 10
4559.1722873443541175
 20
259.1251160432091751
 30
0.0
 40
14.4765601912993098
 50
184.3453392908625119
 51
193.9184994412937897
  0
ARC
  5
72C5
  8
0
 10
4544.0809698763987399
 20
255.4612334380892946
 30
0.0
 40
2.6496116983823801
 50
75.6571759247037647
 51
88.935445300448734
  0
ARC
  5
72C6
  8
0
 10
4544.3237195422061632
 20
259.088513917769717
 30
0.0
 40
0.9970866298217682
 50
156.91858898611369
 51
258.808536031714425
  0
ARC
  5
72C7
  8
0
 10
4585.9729406369997378
 20
244.5622385181249001
 30
0.0
 40
45.1046345934728734
 50
160.2663170969786961
 51
160.6872926166111029
  0
ARC
  5
72C8
  8
0
 10
4544.3321396610281226
 20
259.5662806792432775
 30
0.0
 40
0.8455556856881633
 50
103.704246472826199
 51
164.5342583664437939
  0
ARC
  5
72C9
  8
0
 10
4542.1573431465239992
 20
265.7466209658414868
 30
0.0
 40
5.7110327380548913
 50
290.2263687493784801
 51
306.0328744782988792
  0
ARC
  5
72CA
  8
0
 10
4552.6495804766564106
 20
254.3761055855898974
 30
0.0
 40
9.8217565180348902
 50
121.7035039399213048
 51
136.5701781650373903
  0
ARC
  5
72CB
  8
0
 10
4926.613527089634772
 20
-110.8535079255862996
 30
0.0
 40
532.2616576456656503
 50
135.1533341149111891
 51
135.4216740912935961
  0
ARC
  5
72CC
  8
0
 10
4549.4292799799386557
 20
264.3750697209400187
 30
0.0
 40
0.2273718682842675
 50
96.102494594229654
 51
145.5324672480682011
  0
ARC
  5
72CD
  8
0
 10
4551.8192083491985613
 20
469.5476936776420871
 30
0.0
 40
204.9607580821289901
 50
269.3251346149465917
 51
269.5931134524878985
  0
ARC
  5
72CE
  8
0
 10
4550.4241218100287369
 20
265.4724968371584737
 30
0.0
 40
0.8824646872667004
 50
266.0732529903988279
 51
295.3471237631637223
  0
ARC
  5
72CF
  8
0
 10
4550.5720186880407709
 20
265.0548330569428117
 30
0.0
 40
0.4439951922251485
 50
301.1827870262887927
 51
11.3056554052466396
  0
ARC
  5
72D0
  8
0
 10
4559.4079010514351467
 20
267.1435753857820146
 30
0.0
 40
0.3237529047236739
 50
26.6635759192651385
 51
72.1645528353366643
  0
ARC
  5
72D1
  8
0
 10
4550.9028830891329562
 20
266.9627642702697017
 30
0.0
 40
0.4900374335145206
 50
0.2943845993118192
 51
86.279177357470374
  0
ARC
  5
72D2
  8
0
 10
4552.7452624083489354
 20
267.0045876723324909
 30
0.0
 40
1.3529194363663031
 50
181.6648164321406114
 51
270.6984348031257923
  0
ARC
  5
72D3
  8
0
 10
4555.6844876004734033
 20
266.9507263394744996
 30
0.0
 40
0.5031622497430007
 50
95.2612297998899322
 51
178.3422651440552897
  0
ARC
  5
72D4
  8
0
 10
4553.8299407056056225
 20
267.0038095021512277
 30
0.0
 40
1.352144230744398
 50
269.2911373660725189
 51
358.3672253973106194
  0
ARC
  5
72D5
  8
0
 10
4558.0786214949912392
 20
267.2080802339207253
 30
0.0
 40
0.2437579801187993
 50
91.367844464816443
 51
179.9644045917328015
  0
ARC
  5
72D6
  8
0
 10
4555.036076294159102
 20
267.0683257897454723
 30
0.0
 40
2.802281896160534
 50
308.2895377019243028
 51
2.8617214859699081
  0
ARC
  5
72D7
  8
0
 10
4558.3792439214657861
 20
267.2056186373520177
 30
0.0
 40
0.2501426423360855
 50
354.7366161807798903
 51
79.7494544318290366
  0
ARC
  5
72D8
  8
0
 10
4554.3315787190686024
 20
267.5837687516989263
 30
0.0
 40
4.3154334688725129
 50
314.9999999921377025
 51
354.6669624865587025
  0
ARC
  5
72D9
  8
0
 10
4555.6218024988329489
 20
262.9586951951574747
 30
0.0
 40
0.1327091234278064
 50
246.6803060905915004
 51
313.9446001715646162
  0
ARC
  5
72DA
  8
0
 10
4559.5049415200091971
 20
262.2321920830468116
 30
0.0
 40
2.2093237466052269
 50
117.4526554509091056
 51
144.0716256599500866
  0
ARC
  5
72DB
  8
0
 10
4556.4767387241154211
 20
262.1017977857657115
 30
0.0
 40
0.1345771181201468
 50
125.2404821931161933
 51
191.9934331263964111
  0
ARC
  5
72DC
  8
0
 10
4551.4844233019775857
 20
258.3260870887115743
 30
0.0
 40
6.1377331157452737
 50
16.1879678157813984
 51
37.6334392537505167
  0
ARC
  5
72DF
  8
0
 10
4558.1940825250148919
 20
264.7298628789343979
 30
0.0
 40
3.2362378520908401
 50
215.7994254320782943
 51
235.1564697612392081
  0
ARC
  5
72E0
  8
0
 10
4553.3151085743893418
 20
259.6546541058988851
 30
0.0
 40
3.8996743116675829
 50
54.6873432748205417
 51
143.3688953293693089
  0
ARC
  5
72E1
  8
0
 10
4545.4830721085054392
 20
262.586170844320975
 30
0.0
 40
4.2371171498064424
 50
304.5362088381311878
 51
326.7306899968946823
  0
ARC
  5
72E2
  8
0
 10
4547.3045013416785878
 20
259.9457978303861978
 30
0.0
 40
1.029450923007005
 50
280.8754507604410833
 51
304.3393699446880873
  0
ARC
  5
72E3
  8
0
 10
4547.4629684881101639
 20
259.1357531295349759
 30
0.0
 40
0.2040751931246874
 50
188.8550703422002925
 51
280.0932098551276113
  0
ARC
  5
72E4
  8
0
 10
4548.3953833241766915
 20
259.1979751360152022
 30
0.0
 40
1.1379167361294671
 50
170.8309230179380904
 51
184.7200696695269073
  0
ARC
  5
72E5
  8
0
 10
4564.7794801177342379
 20
256.2046786887187864
 30
0.0
 40
17.79297214937489
 50
167.5196616271047105
 51
169.7222586348810864
  0
ARC
  5
72E6
  8
0
 10
4549.0455084326604265
 20
256.300340422579211
 30
0.0
 40
4.091879134583519
 50
113.6057554402109986
 51
133.2057521186995928
  0
ARC
  5
72E7
  8
0
 10
4529.5992165545567332
 20
278.38950569656879
 30
0.0
 40
25.3399871342630689
 50
307.3664768451313876
 51
311.0610892146797823
  0
ARC
  5
72E8
  8
0
 10
4545.1382217802447485
 20
257.8344914621703765
 30
0.0
 40
0.4452548816909382
 50
111.0447941873121067
 51
154.2030365898735909
  0
ARC
  5
72E9
  8
0
 10
4540.752159065223168
 20
266.8215629407815186
 30
0.0
 40
9.4943536833845563
 50
314.5009510990216199
 51
326.240726495897718
  0
ARC
  5
72EA
  8
0
 10
4558.1525289195296864
 20
256.4437851808282858
 30
0.0
 40
10.7893363521447796
 50
141.0179365860439873
 51
151.7806518614603988
  0
ARC
  5
72EB
  8
0
 10
4552.4258560132002458
 20
260.6318617925990111
 30
0.0
 40
3.7193419274994448
 50
90.5911359152782723
 51
135.6655021911795984
  0
ARC
  5
72EC
  8
0
 10
4554.8497409338961006
 20
268.1789645455621098
 30
0.0
 40
3.8280263334419109
 50
269.6546761948189896
 51
300.1507552631899216
  0
ARC
  5
72ED
  8
0
 10
4543.789073062856005
 20
351.357006010289183
 30
0.0
 40
83.9341158458487939
 50
268.496968448035318
 51
271.5030340199717216
  0
ARC
  5
72EE
  8
0
 10
4544.2142788509991078
 20
291.0147339871206782
 30
0.0
 40
23.7089293451012608
 50
263.6389673400065021
 51
269.9015470963207122
  0
ARC
  5
72EF
  8
0
 10
4544.9146180540601563
 20
3189.5173139609250939
 30
0.0
 40
2922.2115682864118753
 50
269.9854696719115168
 51
270.0531646291619836
  0
ARC
  5
72F0
  8
0
 10
4554.4957680653424177
 20
265.4206807537498776
 30
0.0
 40
3.4994937092858689
 50
167.4043751753252138
 51
184.5696125738936928
  0
ARC
  5
72F1
  8
0
 10
4540.9863187475330051
 20
266.7224944591492886
 30
0.0
 40
10.1085398810192704
 50
356.945263726695714
 51
1.3798801177614051
  0
ARC
  5
72F2
  8
0
 10
4550.7660302923923155
 20
266.9880735429504739
 30
0.0
 40
0.3266490739161552
 50
356.1110836385302036
 51
77.5194231317002931
  0
ARC
  5
72F3
  8
0
 10
4553.4189746632891911
 20
269.046588975893485
 30
0.0
 40
0.3952580148364959
 50
186.36366303353131
 51
267.3030577198942979
  0
ARC
  5
72F4
  8
0
 10
6533.2118456795988095
 20
357.4477643865135974
 30
0.0
 40
1982.1599069239020992
 50
182.2146579747441137
 51
182.2529745337789961
  0
ARC
  5
72F5
  8
0
 10
6533.2118456795988095
 20
357.4477643865135974
 30
0.0
 40
1982.1599069239020992
 50
182.2796585588085065
 51
182.557415994184197
  0
ARC
  5
72F6
  8
0
 10
4554.401956395070556
 20
268.9554018185514792
 30
0.0
 40
0.3048978850371141
 50
191.9549020600674112
 51
264.7793439691827757
  0
ARC
  5
72F7
  8
0
 10
4500.934099918249558
 20
282.4685229357822891
 30
0.0
 40
54.8754832966386701
 50
345.6761991374966101
 51
358.3101273442117076
  0
ARC
  5
72F8
  8
0
 10
4555.6404969890118082
 20
282.5298514118255184
 30
0.0
 40
0.179257142134477
 50
133.3191620372643911
 51
178.0084909117049961
  0
ARC
  5
72F9
  8
0
 10
4555.6775244916052543
 20
280.9777472235779214
 30
0.0
 40
0.1940786056702562
 50
183.4462010548091939
 51
221.0592685962213864
  0
LINE
  5
72FA
  8
0
 10
4555.250022009749955
 20
268.3317687537817733
 30
0.0
 11
4555.256456561424784
 21
268.6324667436819027
 31
0.0
  0
ARC
  5
72FB
  8
0
 10
4555.2764437015357544
 20
268.6317694542032086
 30
0.0
 40
0.0199992995900482
 50
89.9980622211061956
 51
178.0019377797273137
  0
LINE
  5
72FC
  8
0
 10
4557.9155652263707452
 20
268.6324667436819027
 30
0.0
 11
4557.9249444829511049
 21
268.3317687537817733
 31
0.0
  0
ARC
  5
72FD
  8
0
 10
4557.8955786986716703
 20
268.6317700884782198
 30
0.0
 40
0.0199986653451331
 50
1.996307323332851
 51
90.0036926758683506
  0
LINE
  5
72FF
  8
0
 10
4553.721948831375812
 20
278.9829988594818246
 30
0.0
 11
4553.7150260722773965
 21
279.1230609917818128
 31
0.0
  0
LINE
  5
7300
  8
0
 10
4554.266828362776323
 20
279.0342065376818255
 30
0.0
 11
4554.2618489669766859
 21
279.1349499507817882
 31
0.0
  0
LINE
  5
7301
  8
0
 10
4553.7413581692762818
 20
278.964411678281806
 30
0.0
 11
4554.229803502787945
 21
278.9929599834172791
 31
0.0
  0
LINE
  5
7302
  8
0
 10
4553.7321168919761476
 20
279.1437740097819074
 30
0.0
 11
4554.2215591769972889
 21
279.1723623352253867
 31
0.0
  0
LINE
  5
7303
  8
0
 10
4553.2555838774760559
 20
278.9650696290818246
 30
0.0
 11
4553.7413581692762818
 21
278.964411678281806
 31
0.0
  0
ARC
  5
7304
  8
0
 10
4554.2275062860699109
 20
279.0322629847025269
 30
0.0
 40
0.0393700789264835
 50
273.3450688385786975
 51
2.8296276215667868
  0
ARC
  5
7305
  8
0
 10
4554.2183759025938343
 20
279.1285337922257099
 30
0.0
 40
0.0439439918236331
 50
8.3956337613594094
 51
85.8458922134564659
  0
ARC
  5
7306
  8
0
 10
4553.8912703201667682
 20
279.1155048313627276
 30
0.0
 40
1.3699693755540341
 50
161.8940742481084953
 51
161.8952052947554989
  0
ARC
  5
7307
  8
0
 10
4553.8912703201667682
 20
279.1155048313627276
 30
0.0
 40
1.3699693755540341
 50
162.5769941220596877
 51
201.9556389705294066
  0
ARC
  5
7308
  8
0
 10
4553.8912703201667682
 20
279.1155048313627276
 30
0.0
 40
1.3699693755540341
 50
203.0869922703016925
 51
203.0903961917140066
  0
ARC
  5
7309
  8
0
 10
4552.9163737246399251
 20
279.4151918552079223
 30
0.0
 40
0.3501182986162535
 50
137.9272035574711026
 51
161.5999867682988906
  0
ARC
  5
730A
  8
0
 10
4552.7609534321518368
 20
279.5597638976972803
 30
0.0
 40
0.1379132117156851
 50
94.8810018255672958
 51
139.2450514756249049
  0
ARC
  5
730B
  8
0
 10
4552.7409091792396794
 20
279.4940519616827146
 30
0.0
 40
0.2032949149408135
 50
73.056189337825586
 51
87.6573784441361852
  0
ARC
  5
730C
  8
0
 10
4552.5912767361778606
 20
279.3637755906536881
 30
0.0
 40
0.3861228868232102
 50
17.6109890016751685
 51
57.2505622608152933
  0
ARC
  5
730D
  8
0
 10
4554.3245320322057523
 20
279.9997541738583209
 30
0.0
 40
1.460607112183699
 50
200.8203239196355128
 51
211.9270157950207079
  0
ARC
  5
730E
  8
0
 10
4553.242103413971563
 20
279.3325583284722029
 30
0.0
 40
0.1891872717769377
 50
213.7947133629450889
 51
268.724327650234784
  0
LINE
  5
730F
  8
0
 10
4553.2378915673980373
 20
279.1434179463458918
 30
0.0
 11
4553.7321168919761476
 21
279.1437740097819074
 31
0.0
  0
ARC
  5
7310
  8
0
 10
4553.7353579222999542
 20
279.1236922196123942
 30
0.0
 40
0.0203416462945068
 50
99.1679972498892113
 51
181.7782482792844121
  0
ARC
  5
7311
  8
0
 10
4553.7415897998243963
 20
278.9840810753241271
 30
0.0
 40
0.0196707608575931
 50
183.1538039479887914
 51
269.325305226323394
  0
ARC
  5
7312
  8
0
 10
4553.0341490213968427
 20
278.7667471739026723
 30
0.0
 40
0.4446255614788476
 50
201.5696099924971065
 51
220.2176844343323125
  0
ARC
  5
7313
  8
0
 10
4552.8578375490333201
 20
278.6138835918521863
 30
0.0
 40
0.2113113515313076
 50
219.4359570196172058
 51
246.0880890451057041
  0
ARC
  5
7314
  8
0
 10
4552.8218666487246082
 20
278.552097000807521
 30
0.0
 40
0.1404667078232549
 50
249.2874290202481973
 51
269.1274291414986237
  0
ARC
  5
7315
  8
0
 10
4552.8171917661029511
 20
278.5288244002446163
 30
0.0
 40
0.1172052525467031
 50
271.2397052151213188
 51
305.8766276774965718
  0
ARC
  5
7316
  8
0
 10
4552.544142195675704
 20
278.7726120701200898
 30
0.0
 40
0.4811862442709153
 50
315.2509002108486129
 51
346.6740750602485264
  0
ARC
  5
7317
  8
0
 10
4553.6535514920651622
 20
278.5220765922567807
 30
0.0
 40
0.6562060264245347
 50
143.4730051613163084
 51
167.7147437884526084
  0
ARC
  5
7318
  8
0
 10
4553.244810328337735
 20
278.8058637408396976
 30
0.0
 40
0.1595699978441614
 50
86.1286655438738649
 51
137.9930106070731028
  0
ARC
  5
7319
  8
0
 10
4553.6913363056455637
 20
274.7251596137866159
 30
0.0
 40
3.786193354665544
 50
95.1899735237274456
 51
102.7692209958700005
  0
ARC
  5
731A
  8
0
 10
4553.6661929378751665
 20
274.8974420154373206
 30
0.0
 40
3.6123552186807251
 50
92.2385068824112153
 51
95.0399925700301083
  0
ARC
  5
731B
  8
0
 10
4553.483324798875401
 20
278.7133612709375257
 30
0.0
 40
0.2105067601377422
 50
281.4454253804701125
 51
340.88004015335639
  0
ARC
  5
731C
  8
0
 10
4552.8327635541618292
 20
278.9868240611148735
 30
0.0
 40
0.9158720121679872
 50
338.0457406767234261
 51
358.6234201172213147
  0
ARC
  5
731D
  8
0
 10
4553.1831173354930797
 20
283.689907572948016
 30
0.0
 40
4.0162266378270859
 50
264.1671796368893865
 51
271.3773448930309087
  0
ARC
  5
731E
  8
0
 10
4553.233033823423284
 20
282.208101244357124
 30
0.0
 40
2.5336888717170969
 50
271.0543295913556108
 51
275.0552515748610176
  0
ARC
  5
731F
  8
0
 10
4553.4391884084789126
 20
279.4750017730905256
 30
0.0
 40
0.2099640587559643
 50
25.6617030653398217
 51
85.3271883190715954
  0
ARC
  5
7320
  8
0
 10
4552.7719837152480977
 20
279.1044332386567248
 30
0.0
 40
0.9728823433776156
 50
3.946980040301411
 51
28.3175814477394283
  0
LINE
  5
7321
  8
0
 10
4553.7425585508763106
 20
279.1713999654818963
 30
0.0
 11
4554.2215591769972889
 21
279.1723623352253867
 31
0.0
  0
ARC
  5
7322
  8
0
 10
4553.7233832360516317
 20
279.3909997207458105
 30
0.0
 40
0.2204353538128787
 50
216.3018144806756879
 51
274.9903743933032274
  0
ARC
  5
7323
  8
0
 10
4553.9044150143499792
 20
279.3450568269402083
 30
0.0
 40
0.3685163020205536
 50
156.0991807397647904
 51
193.2658594167643002
  0
ARC
  5
7324
  8
0
 10
4553.6916577056435926
 20
279.4503642581797749
 30
0.0
 40
0.1317235827314666
 50
118.6791402921990937
 51
160.486880730180502
  0
ENDSEC
  0
EOF
