  0
SECTION
  2
HEADER
  9
$ACADVER
  1
AC1009
  9
$INSBASE
 10
4283.0732729155060952
 20
140.7949668944517043
 30
0.0
  9
$EXTMIN
 10
4254.9742729250046978
 20
140.7949668944517043
 30
0.0
  9
$EXTMAX
 10
4283.0800858799575508
 20
172.0634668944518069
 30
0.0
  9
$LIMMIN
 10
0.0
 20
0.0
  9
$LIMMAX
 10
11.6929133858000007
 20
8.2677165353999982
  9
$ORTHOMODE
 70
     1
  9
$REGENMODE
 70
     1
  9
$FILLMODE
 70
     1
  9
$QTEXTMODE
 70
     0
  9
$MIRRTEXT
 70
     0
  9
$DRAGMODE
 70
     2
  9
$LTSCALE
 40
0.6431102362
  9
$OSMODE
 70
  4095
  9
$ATTMODE
 70
     1
  9
$TEXTSIZE
 40
0.2
  9
$TRACEWID
 40
0.05
  9
$TEXTSTYLE
  7
STANDARD
  9
$CLAYER
  8
0
  9
$CELTYPE
  6
BYLAYER
  9
$CECOLOR
 62
   256
  9
$DIMSCALE
 40
1.0
  9
$DIMASZ
 40
0.1875
  9
$DIMEXO
 40
0.0625
  9
$DIMDLI
 40
0.4443307087
  9
$DIMRND
 40
0.0
  9
$DIMDLE
 40
0.0
  9
$DIMEXE
 40
0.125
  9
$DIMTP
 40
0.01
  9
$DIMTM
 40
0.01
  9
$DIMTXT
 40
2.0
  9
$DIMCEN
 40
0.1052362205
  9
$DIMTSZ
 40
0.0
  9
$DIMTOL
 70
     1
  9
$DIMLIM
 70
     0
  9
$DIMTIH
 70
     1
  9
$DIMTOH
 70
     1
  9
$DIMSE1
 70
     0
  9
$DIMSE2
 70
     0
  9
$DIMTAD
 70
     0
  9
$DIMZIN
 70
     0
  9
$DIMBLK
  1

  9
$DIMASO
 70
     1
  9
$DIMSHO
 70
     1
  9
$DIMPOST
  1
\X
  9
$DIMAPOST
  1

  9
$DIMALT
 70
     1
  9
$DIMALTD
 70
     2
  9
$DIMALTF
 40
25.3999999999999986
  9
$DIMLFAC
 40
1.0
  9
$DIMTOFL
 70
     0
  9
$DIMTVP
 40
0.0
  9
$DIMTIX
 70
     0
  9
$DIMSOXD
 70
     0
  9
$DIMSAH
 70
     0
  9
$DIMBLK1
  1

  9
$DIMBLK2
  1

  9
$DIMSTYLE
  2
STANDARD
  9
$DIMCLRD
 70
     0
  9
$DIMCLRE
 70
     0
  9
$DIMCLRT
 70
     0
  9
$DIMTFAC
 40
1.0
  9
$DIMGAP
 40
0.09
  9
$LUNITS
 70
     2
  9
$LUPREC
 70
     4
  9
$SKETCHINC
 40
0.1
  9
$FILLETRAD
 40
0.0
  9
$AUNITS
 70
     0
  9
$AUPREC
 70
     0
  9
$MENU
  1
.
  9
$ELEVATION
 40
0.0
  9
$PELEVATION
 40
0.0
  9
$THICKNESS
 40
0.0
  9
$LIMCHECK
 70
     0
  9
$BLIPMODE
 70
     0
  9
$CHAMFERA
 40
0.0
  9
$CHAMFERB
 40
0.0
  9
$SKPOLY
 70
     0
  9
$TDCREATE
 40
2458060.468368056230247
  9
$TDUPDATE
 40
2459026.6822222219780087
  9
$TDINDWG
 40
0.3105510417
  9
$TDUSRTIMER
 40
0.3105510417
  9
$USRTIMER
 70
     1
  9
$ANGBASE
 50
0.0
  9
$ANGDIR
 70
     0
  9
$PDMODE
 70
     0
  9
$PDSIZE
 40
0.3125
  9
$PLINEWID
 40
0.0
  9
$COORDS
 70
     1
  9
$SPLFRAME
 70
     0
  9
$SPLINETYPE
 70
     6
  9
$SPLINESEGS
 70
     8
  9
$ATTDIA
 70
     1
  9
$ATTREQ
 70
     1
  9
$HANDLING
 70
     1
  9
$HANDSEED
  5
703E
  9
$SURFTAB1
 70
     6
  9
$SURFTAB2
 70
     6
  9
$SURFTYPE
 70
     6
  9
$SURFU
 70
     6
  9
$SURFV
 70
     6
  9
$UCSNAME
  2

  9
$UCSORG
 10
0.0
 20
0.0
 30
0.0
  9
$UCSXDIR
 10
1.0
 20
0.0
 30
0.0
  9
$UCSYDIR
 10
0.0
 20
1.0
 30
0.0
  9
$PUCSNAME
  2

  9
$PUCSORG
 10
0.0
 20
0.0
 30
0.0
  9
$PUCSXDIR
 10
1.0
 20
0.0
 30
0.0
  9
$PUCSYDIR
 10
0.0
 20
1.0
 30
0.0
  9
$USERI1
 70
     0
  9
$USERI2
 70
     0
  9
$USERI3
 70
     0
  9
$USERI4
 70
     0
  9
$USERI5
 70
     0
  9
$USERR1
 40
0.0
  9
$USERR2
 40
0.0
  9
$USERR3
 40
0.0
  9
$USERR4
 40
0.0
  9
$USERR5
 40
0.0
  9
$WORLDVIEW
 70
     1
  9
$SHADEDGE
 70
     3
  9
$SHADEDIF
 70
    70
  9
$TILEMODE
 70
     1
  9
$MAXACTVP
 70
    64
  9
$PLIMCHECK
 70
     0
  9
$PEXTMIN
 10
1.0000000000000000E+20
 20
1.0000000000000000E+20
 30
1.0000000000000000E+20
  9
$PEXTMAX
 10
-1.0000000000000000E+20
 20
-1.0000000000000000E+20
 30
-1.0000000000000000E+20
  9
$PLIMMIN
 10
0.0
 20
0.0
  9
$PLIMMAX
 10
12.0
 20
9.0
  9
$UNITMODE
 70
     0
  9
$VISRETAIN
 70
     1
  9
$PLINEGEN
 70
     0
  9
$PSLTSCALE
 70
     1
  0
ENDSEC
  0
SECTION
  2
TABLES
  0
TABLE
  2
VPORT
 70
     1
  0
VPORT
  2
*ACTIVE
 70
     0
 10
0.0
 20
0.0
 11
1.0
 21
1.0
 12
0.0
 22
0.0
 13
0.0
 23
0.0
 14
1.0
 24
1.0
 15
0.0
 25
0.0
 16
0.0
 26
0.0
 36
120.4486304859436956
 17
4269.0271034870120275
 27
156.4292144775390057
 37
0.0
 40
42.0483343687629372
 41
2.1481900452488678
 42
50.0
 43
0.0
 44
0.0
 50
0.0
 51
0.0
 71
     0
 72
   100
 73
     1
 74
     1
 75
     0
 76
     0
 77
     0
 78
     0
  0
ENDTAB
  0
TABLE
  2
LTYPE
 70
     3
  0
LTYPE
  2
CONTINUOUS
 70
     0
  3
Solid line
 72
    65
 73
     0
 40
0.0
  0
LTYPE
  2
PHANTOM2
 70
     0
  3
___ _ _ ___ _ _ ___ _ _ ___ _ _
 72
    65
 73
     6
 40
1.25
 49
0.625
 49
-0.125
 49
0.125
 49
-0.125
 49
0.125
 49
-0.125
  0
ENDTAB
  0
TABLE
  2
LAYER
 70
     2
  0
LAYER
  2
0
 70
     0
 62
   255
  6
CONTINUOUS
  0
LAYER
  2
DEFPOINTS
 70
     0
 62
     7
  6
CONTINUOUS
  0
ENDTAB
  0
TABLE
  2
STYLE
 70
     1
  0
STYLE
  2
STANDARD
 70
     0
 40
0.0
 41
0.8
 50
0.0
 71
     0
 42
0.2
  3
txt
  4

  0
ENDTAB
  0
TABLE
  2
VIEW
 70
     0
  0
ENDTAB
  0
TABLE
  2
UCS
 70
     0
  0
ENDTAB
  0
TABLE
  2
APPID
 70
     9
  0
APPID
  2
ACAD
 70
     0
  0
APPID
  2
ACAD_MLEADERVER
 70
     0
  0
APPID
  2
ACAD_EXEMPT_FROM_CAD_STANDARDS
 70
     0
  0
APPID
  2
ACAD_NAV_VCDISPLAY
 70
     0
  0
APPID
  2
ACAECLAYERSTANDARD
 70
     0
  0
APPID
  2
ACCMTRANSPARENCY
 70
     0
  0
APPID
  2
ACAD_DSTYLE_DIMJAG
 70
     0
  0
APPID
  2
ACAD_DSTYLE_DIMTALN
 70
     0
  0
APPID
  2
ACDBATTR
 70
     0
  0
ENDTAB
  0
TABLE
  2
DIMSTYLE
 70
     2
  0
DIMSTYLE
  2
STANDARD
 70
     0
  3

  4

  5

  6

  7

 40
1.0
 41
0.1875
 42
0.0625
 43
0.38
 44
0.125
 45
0.0
 46
0.0
 47
0.01
 48
0.01
140
0.15625
141
0.09
142
0.0
143
25.3999999999999986
144
1.0
145
0.0
146
1.0
147
0.09
 71
     1
 72
     0
 73
     1
 74
     1
 75
     0
 76
     0
 77
     0
 78
     4
170
     0
171
     2
172
     0
173
     0
174
     0
175
     0
176
     0
177
     0
178
     0
  0
ENDTAB
  0
ENDSEC
  0
SECTION
  2
BLOCKS
  0
BLOCK
  8
0
  2
$MODEL_SPACE
 70
     0
 10
0.0
 20
0.0
 30
0.0
  3
$MODEL_SPACE
  1

  0
ENDBLK
  5
21
  8
0
  0
BLOCK
 67
     1
  8
0
  2
$PAPER_SPACE
 70
     0
 10
0.0
 20
0.0
 30
0.0
  3
$PAPER_SPACE
  1

  0
ENDBLK
  5
1D
 67
     1
  8
0
  0
ENDSEC
  0
SECTION
  2
ENTITIES
  0
ATTDEF
  5
3930
  8
DEFPOINTS
 10
4283.0694192132896205
 20
140.8066512586082979
 30
0.0
 40
0.001
  1
K-31641
  3

  2
MODELNUMBER
 70
     0
1001
ACDBATTR
1070
     0
1070
     1
  0
ATTDEF
  5
3931
  8
DEFPOINTS
 10
4283.0694192132896205
 20
140.8049845919416896
 30
0.0
 40
0.001
  1
CIMARRON
  3

  2
TRADENAME
 70
     0
1001
ACDBATTR
1070
     0
1070
     1
  0
ATTDEF
  5
3932
  8
DEFPOINTS
 10
4283.0694192132896205
 20
140.803317925274996
 30
0.0
 40
0.001
  1
TOILET
  3

  2
PRODUCT
 70
     0
1001
ACDBATTR
1070
     0
1070
     1
  0
LINE
  5
6DF6
  8
0
 10
4257.3182768529313762
 20
140.7949668944517043
 30
0.0
 11
4279.348272925006313
 21
140.7949668944517043
 31
0.0
  0
LINE
  5
6DF7
  8
0
 10
4267.4231388272046388
 20
142.0132261436517069
 30
0.0
 11
4269.0620260573059568
 21
142.0134204002517038
 31
0.0
  0
LINE
  5
6DF8
  8
0
 10
4254.9742729250046978
 20
156.8549668940516995
 30
0.0
 11
4254.9742729250046978
 21
157.0949667512516896
 31
0.0
  0
LINE
  5
6DF9
  8
0
 10
4274.4846848321049038
 20
144.0440668511517117
 30
0.0
 11
4273.3182729977052077
 21
144.0440668511517117
 31
0.0
  0
LINE
  5
6DFA
  8
0
 10
4257.501913201305797
 20
157.3953797627517019
 30
0.0
 11
4257.4966938734050927
 21
157.4550369531517049
 31
0.0
  0
LINE
  5
6DFB
  8
0
 10
4257.78159730720472
 20
158.3055923470516859
 30
0.0
 11
4257.7828729140046562
 21
158.2315591711517015
 31
0.0
  0
LINE
  5
6DFC
  8
0
 10
4258.8739489820063682
 20
158.2315689124517064
 30
0.0
 11
4258.8758017172231121
 21
158.3445864023580896
 31
0.0
  0
LINE
  5
6DFD
  8
0
 10
4258.5908683082061543
 20
157.3953797627517019
 30
0.0
 11
4258.5917070694185895
 21
157.4049668944516895
 31
0.0
  0
LINE
  5
6DFE
  8
0
 10
4258.4988170668048042
 20
149.1949667964516948
 30
0.0
 11
4257.3182768529313762
 21
140.7949668944517043
 31
0.0
  0
LINE
  5
6DFF
  8
0
 10
4269.7582178934808326
 20
143.6830943398302907
 30
0.0
 11
4268.4452547415048684
 21
145.2478228930517048
 31
0.0
  0
LINE
  5
6E00
  8
0
 10
4269.5612780748060686
 20
145.3026202508517031
 30
0.0
 11
4270.5215314429060527
 21
144.1582348496517056
 31
0.0
  0
LINE
  5
6E01
  8
0
 10
4264.7196490347869258
 20
158.3212218944516962
 30
0.0
 11
4264.7198159757062967
 21
158.3115757940516914
 31
0.0
  0
LINE
  5
6E02
  8
0
 10
4274.1182729250049306
 20
153.7542039079517053
 30
0.0
 11
4276.5574590944061129
 21
153.754205879451689
 31
0.0
  0
LINE
  5
6E03
  8
0
 10
4266.923167498805924
 20
142.4985632563517015
 30
0.0
 11
4266.8515650398057915
 21
145.0461013876517029
 31
0.0
  0
LINE
  5
6E04
  8
0
 10
4274.4925437488045645
 20
155.0549668944516952
 30
0.0
 11
4275.544002101204569
 21
155.0549668944516952
 31
0.0
  0
LINE
  5
6E05
  8
0
 10
4266.0085287616047935
 20
157.4789196677517111
 30
0.0
 11
4265.9965945935045966
 21
157.5549668944516952
 31
0.0
  0
LINE
  5
6E06
  8
0
 10
4270.0188591315418307
 20
157.7191195372921868
 30
0.0
 11
4270.0040473949047737
 21
157.2949668944517043
 31
0.0
  0
LINE
  5
6E07
  8
0
 10
4270.9969973861552717
 20
157.8454180501481972
 30
0.0
 11
4271.007216743758363
 21
157.8468596599431919
 31
0.0
  0
LINE
  5
6E08
  8
0
 10
4269.0396633316058796
 20
157.5792967225517032
 30
0.0
 11
4270.0013739279056608
 21
157.7144563325516913
 31
0.0
  0
LINE
  5
6E09
  8
0
 10
4270.4669290729780187
 20
157.775271563953595
 30
0.0
 11
4270.9710497346059128
 21
157.8385465116517139
 31
0.0
  0
LINE
  5
6E0A
  8
0
 10
4272.5674116580048576
 20
156.7102018189517025
 30
0.0
 11
4269.3569211015055771
 21
156.7102018189517025
 31
0.0
  0
LINE
  5
6E0B
  8
0
 10
4267.7214448439062835
 20
156.8549668944517066
 30
0.0
 11
4281.2378511619072015
 21
156.8549668944517066
 31
0.0
  0
LINE
  5
6E0C
  8
0
 10
4275.0682729250056582
 20
157.2949668944517043
 30
0.0
 11
4255.1742721935061127
 21
157.2949668944517043
 31
0.0
  0
LINE
  5
6E0D
  8
0
 10
4266.1562499138062776
 20
157.3549668944517066
 30
0.0
 11
4266.2880753190056566
 21
157.3549668944517066
 31
0.0
  0
LINE
  5
6E0E
  8
0
 10
4257.3942729365062405
 20
157.4049668944516895
 30
0.0
 11
4257.5010744359597084
 21
157.4049668944516895
 31
0.0
  0
LINE
  5
6E0F
  8
0
 10
4258.5917070694185895
 20
157.4049668944516895
 30
0.0
 11
4266.0478043292350776
 21
157.4049668944516895
 31
0.0
  0
LINE
  5
6E10
  8
0
 10
4266.3894368042001588
 20
157.4049668944516895
 30
0.0
 11
4268.4492712221062902
 21
157.4049668944516895
 31
0.0
  0
LINE
  5
6E11
  8
0
 10
4281.287025001004622
 20
157.734966894451702
 30
0.0
 11
4275.4382729250046395
 21
157.734966894451702
 31
0.0
  0
LINE
  5
6E12
  8
0
 10
4273.6435112042054243
 20
148.6189535798517056
 30
0.0
 11
4273.7394180071059964
 21
148.4399438749516946
 31
0.0
  0
LINE
  5
6E13
  8
0
 10
4273.8974010563060801
 20
148.6952522610517065
 30
0.0
 11
4273.9684453732052134
 21
148.5626482973517
 31
0.0
  0
LINE
  5
6E14
  8
0
 10
4270.6007672766054384
 20
159.0712110012516973
 30
0.0
 11
4270.597301214305844
 21
159.137347413251689
 31
0.0
  0
LINE
  5
6E15
  8
0
 10
4275.1311662102061746
 20
158.0549668944516952
 30
0.0
 11
4281.3099157847063907
 21
158.0549668944516952
 31
0.0
  0
LINE
  5
6E16
  8
0
 10
4265.9406536472060907
 20
158.2388493944517052
 30
0.0
 11
4264.7937940727060777
 21
158.2388493944517052
 31
0.0
  0
LINE
  5
6E17
  8
0
 10
4269.579498623004838
 20
158.3212218944516962
 30
0.0
 11
4262.8156351884063042
 21
158.3212218944516962
 31
0.0
  0
LINE
  5
6E18
  8
0
 10
4270.0377500249060176
 20
157.8226305322517078
 30
0.0
 11
4269.674067772505623
 21
158.1863138340517025
 31
0.0
  0
LINE
  5
6E19
  8
0
 10
4269.9342772649606559
 20
158.1735457800918994
 30
0.0
 11
4270.2584018639781789
 21
157.8471629051315972
 31
0.0
  0
LINE
  5
6E1A
  8
0
 10
4271.0576349540142473
 20
157.894133457240514
 30
0.0
 11
4271.1305281366048803
 21
157.2949668944517043
 31
0.0
  0
LINE
  5
6E1B
  8
0
 10
4271.0584444526375592
 20
157.9136818175960002
 30
0.0
 11
4271.0573379136367294
 21
157.9225480046169139
 31
0.0
  0
LINE
  5
6E1C
  8
0
 10
4271.0576797342828286
 20
157.9500595484568919
 30
0.0
 11
4271.0014539630046784
 21
158.4092758189516985
 31
0.0
  0
LINE
  5
6E1D
  8
0
 10
4271.1506997628048339
 20
157.2949668944517043
 30
0.0
 11
4271.0077747836057824
 21
158.4589974382517141
 31
0.0
  0
LINE
  5
6E1E
  8
0
 10
4271.0958419570060869
 20
157.868043529451711
 30
0.0
 11
4271.1633088168046015
 21
157.3185700509517062
 31
0.0
  0
LINE
  5
6E1F
  8
0
 10
4273.6358107075056978
 20
171.9392789551517069
 30
0.0
 11
4273.6906363157058877
 21
170.3692789549517101
 31
0.0
  0
LINE
  5
6E20
  8
0
 10
4275.3182729250047487
 20
157.6149668944516975
 30
0.0
 11
4275.3182729250047487
 21
157.5449668944517043
 31
0.0
  0
LINE
  5
6E21
  8
0
 10
4271.9164342678059256
 20
151.3846343382516864
 30
0.0
 11
4270.7565209857048103
 21
149.6649921792516977
 31
0.0
  0
LINE
  5
6E22
  8
0
 10
4276.669170417805617
 20
148.2360937498517046
 30
0.0
 11
4276.7342127039064508
 21
146.3735221386517082
 31
0.0
  0
LINE
  5
6E23
  8
0
 10
4276.4312914591318986
 20
157.734966894451702
 30
0.0
 11
4276.4377260108049086
 21
158.0356648843516894
 31
0.0
  0
LINE
  5
6E24
  8
0
 10
4272.9748905696060319
 20
148.1686829255517068
 30
0.0
 11
4273.3299825238045742
 21
148.6953958164517076
 31
0.0
  0
LINE
  5
6E25
  8
0
 10
4274.1731700923046446
 20
149.8624468043516913
 30
0.0
 11
4273.9407227390056505
 21
149.5178294310516947
 31
0.0
  0
LINE
  5
6E26
  8
0
 10
4279.348272925006313
 20
140.7949668944517043
 30
0.0
 11
4279.1835302631061495
 21
141.7292054449517025
 31
0.0
  0
LINE
  5
6E27
  8
0
 10
4277.2145865206057351
 20
170.3692790478517054
 30
0.0
 11
4277.1921377990047404
 21
171.9392789877516918
 31
0.0
  0
LINE
  5
6E28
  8
0
 10
4277.8807729250047487
 20
158.0549668944516952
 30
0.0
 11
4277.8807729250047487
 21
157.734966894451702
 31
0.0
  0
LINE
  5
6E29
  8
0
 10
4279.1138406669060714
 20
153.9354946223517118
 30
0.0
 11
4277.4446873326060086
 21
152.2663412880517058
 31
0.0
  0
LINE
  5
6E2A
  8
0
 10
4279.2181892620055805
 20
148.5694720434516967
 30
0.0
 11
4279.3670097479071046
 21
144.3078109169516949
 31
0.0
  0
LINE
  5
6E2B
  8
0
 10
4278.7557729250056582
 20
158.0549668944516952
 30
0.0
 11
4278.7557729250056582
 21
157.734966894451702
 31
0.0
  0
LINE
  5
6E2C
  8
0
 10
4278.1298761239049782
 20
151.6149100943516999
 30
0.0
 11
4279.4467287442057568
 21
152.9317627146517111
 31
0.0
  0
LINE
  5
6E2D
  8
0
 10
4280.1988198393046332
 20
158.0356648843516894
 30
0.0
 11
4280.2081990958849929
 21
157.734966894451702
 31
0.0
  0
LINE
  5
6E2F
  8
0
 10
4280.1693975145062723
 20
153.5025556063517058
 30
0.0
 11
4279.1124597119060127
 21
149.5580100269517061
 31
0.0
  0
LINE
  5
6E30
  8
0
 10
4281.4069518228052402
 20
157.6191548461517016
 30
0.0
 11
4281.4373193955661918
 21
156.7495473405514872
 31
0.0
  0
LINE
  5
6E31
  8
0
 10
4281.8932729155058041
 20
170.6234668944516955
 30
0.0
 11
4281.8932729155058041
 21
171.9434668944516886
 31
0.0
  0
LINE
  5
6E32
  8
0
 10
4281.8932729155058041
 20
170.3634663476516948
 30
0.0
 11
4281.6848586704054469
 21
158.4234222420517142
 31
0.0
  0
LINE
  5
6E33
  8
0
 10
4273.8105643131048055
 20
170.2534668944516909
 30
0.0
 11
4281.222449481005242
 21
170.2534668944516909
 31
0.0
  0
LINE
  5
6E34
  8
0
 10
4281.7732729250046759
 20
172.0634668944516932
 30
0.0
 11
4273.7557399859060752
 21
172.0634668944516932
 31
0.0
  0
ARC
  5
6E35
  8
0
 10
4258.4812929512263509
 20
157.4049602813277033
 30
0.0
 40
0.1099933870435271
 50
269.9968373414344001
 51
355.0031565694796996
  0
ARC
  5
6E36
  8
0
 10
4257.6114753115261919
 20
157.4049458250262035
 30
0.0
 40
0.1099789322706144
 50
184.9899418445288006
 51
270.0100625633751861
  0
ARC
  5
6E37
  8
0
 10
4266.1638183291443056
 20
157.5139865670915071
 30
0.0
 40
0.1591996771265821
 50
192.724886868211513
 51
267.2751090064616051
  0
ARC
  5
6E38
  8
0
 10
4268.790360842879636
 20
158.8342089697113977
 30
0.0
 40
1.279436000291013
 50
270.9975869695418851
 51
281.2361613097581881
  0
ARC
  5
6E39
  8
0
 10
4269.5507230303446704
 20
157.7520910920900121
 30
0.0
 40
0.569857793602755
 50
47.6955399056262124
 51
87.1055559782867448
  0
ARC
  5
6E3A
  8
0
 10
4270.6906008793539513
 20
158.3651647712065085
 30
0.0
 40
0.3332976117977278
 50
22.2846585326616093
 51
32.725296615295477
  0
ARC
  5
6E3B
  8
0
 10
4270.4357911813058308
 20
158.0233248479516988
 30
0.0
 40
0.25
 50
224.8010950474181016
 51
277.1548600690874764
  0
ARC
  5
6E3C
  8
0
 10
4270.8886692454061631
 20
158.4443731170516969
 30
0.0
 40
0.12
 50
7.0000000000985434
 51
23.1521565130974203
  0
ARC
  5
6E3D
  8
0
 10
4270.998798313907173
 20
157.9063608264517029
 30
0.0
 40
0.0600937499
 50
278.0529544585991744
 51
6.9975075388008818
  0
ARC
  5
6E3E
  8
0
 10
4271.2243405082190293
 20
157.3856745037612939
 30
0.0
 40
0.0907076344780913
 50
227.7133908773517987
 51
269.9573180979676863
  0
ARC
  5
6E3F
  8
0
 10
4272.6094219248061563
 20
157.6618975782517111
 30
0.0
 40
0.0600063242
 50
0.9680422423005456
 51
73.1104416249914237
  0
ARC
  5
6E40
  8
0
 10
4271.2242729365061678
 20
157.8349668944516964
 30
0.0
 40
0.1355
 50
99.7415716904763059
 51
159.0679660965932953
  0
ARC
  5
6E41
  8
0
 10
4271.1276102917581738
 20
157.8719425015341074
 30
0.0
 40
0.032006703614376
 50
159.0709668425531902
 51
186.9969991147071084
  0
ARC
  5
6E42
  8
0
 10
4286.6495915873047124
 20
-840.6759733448483303
 30
0.0
 40
999.9999986742000146
 50
90.9232568716961254
 51
91.7796239518152248
  0
ARC
  5
6E43
  8
0
 10
4274.2872853290709827
 20
148.396927195504702
 30
0.0
 40
4.9339219005156556
 50
2.004107068201844
 51
12.2098988237340507
  0
ARC
  5
6E44
  8
0
 10
4274.3222146902317036
 20
149.8725961583101878
 30
0.0
 40
2.5478331463698098
 50
316.1096697040114236
 51
322.0454202801909105
  0
ARC
  5
6E45
  8
0
 10
4274.3222194579047937
 20
149.8725918038516909
 30
0.0
 40
2.2879999999999998
 50
316.1096659437163225
 51
330.1565343883019068
  0
ARC
  5
6E46
  8
0
 10
4274.4846839806186836
 20
146.2949674884748106
 30
0.0
 40
2.2508998889230298
 50
270.000021861222308
 51
1.999984130219892
  0
ARC
  5
6E47
  8
0
 10
4275.0702729250051561
 20
149.1529668944517084
 30
0.0
 40
1.5098266916
 50
208.1807653480925921
 51
316.1096659438039751
  0
ARC
  5
6E48
  8
0
 10
4277.7979270495061428
 20
142.7950556931517099
 30
0.0
 40
1.3086534992000001
 50
334.0016382026968813
 51
350.6254980748979051
  0
ARC
  5
6E49
  8
0
 10
4275.0702729250051561
 20
149.1529668944517084
 30
0.0
 40
1.25
 50
208.1807653480925921
 51
316.1096659437163225
  0
ARC
  5
6E4A
  8
0
 10
4275.1182729250058401
 20
149.2249668944517111
 30
0.0
 40
1.140000000000007
 50
45.016239188241137
 51
145.9999999999859881
  0
ARC
  5
6E4B
  8
0
 10
4276.0623683885742139
 20
156.9869668958596947
 30
0.0
 40
5.3630000063130661
 50
320.7797710999931269
 51
356.0976449621246047
  0
ARC
  5
6E4C
  8
0
 10
4275.0682729250056582
 20
157.5449668944517043
 30
0.0
 40
0.25
 50
270.0
 51
0.0
  0
ARC
  5
6E4D
  8
0
 10
4275.4382729250046395
 20
157.6149668944516975
 30
0.0
 40
0.12
 50
90.0
 51
180.0
  0
ARC
  5
6E4E
  8
0
 10
4276.4577131509167884
 20
158.034967594873109
 30
0.0
 40
0.0199992995900482
 50
89.9980622211061956
 51
178.0019377797273137
  0
ARC
  5
6E4F
  8
0
 10
4281.2822976833303983
 20
158.4580712785912056
 30
0.0
 40
0.4040493831650737
 50
273.9194106429902718
 51
355.0805893570199032
  0
ARC
  5
6E50
  8
0
 10
4281.6629924496946842
 20
156.6048296172434107
 30
0.0
 40
0.2506457894595404
 50
159.6340859294768961
 51
176.0762598222218003
  0
ARC
  5
6E51
  8
0
 10
4281.2864051695050875
 20
156.7444751574516886
 30
0.0
 40
0.1509994393
 50
339.6878174869082727
 51
1.9249698248996641
  0
ARC
  5
6E52
  8
0
 10
4281.2821377387981556
 20
157.6099060687793099
 30
0.0
 40
0.1251562841001666
 50
4.2378966742068416
 51
87.7620723302551937
  0
ARC
  5
6E53
  8
0
 10
4280.1788333116073773
 20
158.0349682291480917
 30
0.0
 40
0.0199986653451331
 50
1.996307323332851
 51
90.0036926758683506
  0
ARC
  5
6E54
  8
0
 10
4281.7423774071094158
 20
170.3568567766893125
 30
0.0
 40
0.1510401962473438
 50
2.5080839456465358
 51
65.6603286912893935
  0
ARC
  5
6E55
  8
0
 10
4281.7729123087920016
 20
170.6235457549084913
 30
0.0
 40
0.1203606325484571
 50
307.7356605604301762
 51
359.962459721476705
  0
ARC
  5
6E56
  8
0
 10
4281.762759802581968
 20
171.9329537823601015
 30
0.0
 40
0.1309358551770819
 50
4.6053546655476891
 51
85.3946407985226443
  0
ARC
  5
6E57
  8
0
 10
4273.8143424617192068
 20
170.3773804561056977
 30
0.0
 40
0.1239711465168721
 50
183.7469443580895074
 51
268.253581583644177
  0
ARC
  5
6E58
  8
0
 10
4273.7557415111896262
 20
171.9434631239342082
 30
0.0
 40
0.1200037705272566
 50
90.000728246721323
 51
181.998135659721612
  0
ARC
  5
6E59
  8
0
 10
4281.0688547279505656
 20
171.4481591029571064
 30
0.0
 40
1.2045251434608379
 50
277.3260041830699834
 51
310.2156088473253135
  0
LINE
  5
6E5A
  8
0
 10
4255.0933559912991768
 20
157.5549668944516952
 30
0.0
 11
4268.8126362042903565
 21
157.5549668944516952
 31
0.0
  0
LINE
  5
6E5B
  8
0
 10
4255.3901417674378536
 20
158.1743379599517141
 30
0.0
 11
4269.1687918993666244
 21
158.1743379599517141
 31
0.0
  0
ARC
  5
6E5C
  8
0
 10
4255.1801361127354539
 20
157.0891037323661124
 30
0.0
 40
0.2059466606978658
 50
91.6316032294227654
 51
178.3686473540294912
  0
ARC
  5
6E5D
  8
0
 10
4255.0921591601745604
 20
157.6160298643615079
 30
0.0
 40
0.0610746976984003
 50
162.1562404471656862
 51
271.1228506134751797
  0
ARC
  5
6E5E
  8
0
 10
4255.4114343158144038
 20
157.8971653530255139
 30
0.0
 40
0.2779892563509367
 50
94.3928647369654641
 51
160.0454345904925049
  0
LINE
  5
6E5F
  8
0
 10
4255.1501345499045783
 20
157.9920361018517099
 30
0.0
 11
4255.0340224216715797
 21
157.6347445199876915
 31
0.0
  0
ARC
  5
6E60
  8
0
 10
4259.8707328888876873
 20
271.917357899736885
 30
0.0
 40
113.5753065980534018
 50
267.7273069941999211
 51
268.9199668108198011
  0
ARC
  5
6E61
  8
0
 10
4255.3751647129529374
 20
158.4954759327891907
 30
0.0
 40
0.064625808758455
 50
167.1709237436616888
 51
262.5978618895082946
  0
ARC
  5
6E62
  8
0
 10
2517.6840979560529377
 20
721.6692970061272945
 30
0.0
 40
1826.6088374251139612
 50
342.042663093189276
 51
342.0479061663111793
  0
ARC
  5
6E63
  8
0
 10
4255.6015321751419833
 20
158.5917718686673084
 30
0.0
 40
0.2500261649558681
 50
91.6602606142180605
 51
162.0476466376165945
  0
ARC
  5
6E64
  8
0
 10
4270.5373834299462033
 20
159.1342074872825947
 30
0.0
 40
0.0600000001470793
 50
2.9997787134383112
 51
90.9232059130222154
  0
ARC
  5
6E65
  8
0
 10
4262.4388854124408681
 20
426.9802275953479125
 30
0.0
 40
268.6592698653590219
 50
268.9956946072887831
 51
270.0803477921189142
  0
ARC
  5
6E66
  8
0
 10
4270.9587199982752281
 20
157.9375311907656965
 30
0.0
 40
0.0997496320658749
 50
277.1003093886391753
 51
7.2152927982212303
  0
ARC
  5
6E67
  8
0
 10
4270.2533903931453096
 20
158.4743653965815895
 30
0.0
 40
0.6905761181629076
 50
25.4234538326137987
 51
59.7996811579059724
  0
ARC
  5
6E68
  8
0
 10
4269.9132217337846669
 20
158.2371287935723103
 30
0.0
 40
1.1017640323865441
 50
8.9891095574931281
 51
28.9737520406252003
  0
ARC
  5
6E69
  8
0
 10
4271.2064237468212013
 20
157.9387779428543013
 30
0.0
 40
0.0301656552540132
 50
83.2408614273909535
 51
99.6911958574129073
  0
ARC
  5
6E6A
  8
0
 10
4270.1949382929742569
 20
148.0533980617638861
 30
0.0
 40
9.9671552238834167
 50
75.8776628949509302
 51
84.1549755865916751
  0
ARC
  5
6E6B
  8
0
 10
4272.5533199954779775
 20
157.6725911662261126
 30
0.0
 40
0.1165025162331396
 50
315.4783622136098984
 51
355.2339941639428957
  0
ARC
  5
6E6C
  8
0
 10
4272.7533732681131369
 20
157.3917735241290075
 30
0.0
 40
0.230951362670782
 50
120.4343656836306025
 51
148.7285695745331964
  0
ARC
  5
6E6D
  8
0
 10
4272.6624490250133022
 20
157.4249802799477891
 30
0.0
 40
0.1372948256199527
 50
140.8516118742197989
 51
177.3082724459295036
  0
ARC
  5
6E6E
  8
0
 10
4430.8409457608577213
 20
148.9737824834768105
 30
0.0
 40
158.5413941549745971
 50
176.9420129548936984
 51
176.9913982434497086
  0
ARC
  5
6E6F
  8
0
 10
4271.1262423290581864
 20
157.7445180420629072
 30
0.0
 40
0.0307485182833843
 50
194.1205530236854884
 51
247.546003616307587
  0
ARC
  5
6E70
  8
0
 10
4268.3577346778438368
 20
163.0145489337369895
 30
0.0
 40
4.9076935608631631
 50
279.5124782138012733
 51
286.0443168626229067
  0
ARC
  5
6E71
  8
0
 10
4269.5305881370250063
 20
158.0363778420241943
 30
0.0
 40
0.2075264019424629
 50
46.2605405459199375
 51
98.4747860124486891
  0
ARC
  5
6E72
  8
0
 10
4269.9940232641829425
 20
157.777131419885194
 30
0.0
 40
0.0631046656708136
 50
276.6892088761774176
 51
46.1379537444896286
  0
ARC
  5
6E73
  8
0
 10
4270.0054732774678996
 20
157.0854048965088055
 30
0.0
 40
0.7562466277635347
 50
76.9226789862274813
 51
88.9866821782831181
  0
ARC
  5
6E74
  8
0
 10
4270.6881221923040357
 20
159.9469497776352114
 30
0.0
 40
2.185615761056777
 50
256.4645633865508785
 51
261.2147052114423786
  0
ARC
  5
6E75
  8
0
 10
4257.4274969655707537
 20
158.1650405058927902
 30
0.0
 40
0.7607994025473392
 50
252.1623261271018919
 51
267.4971034379627781
  0
ARC
  5
6E76
  8
0
 10
4243.3034483505216485
 20
116.0123823630904951
 30
0.0
 40
43.6952494670659206
 50
71.4636398774753587
 51
71.9404036908029241
  0
ARC
  5
6E77
  8
0
 10
4257.3870521972467031
 20
157.4448758449887009
 30
0.0
 40
0.1101115128849385
 50
5.2947967360710466
 51
88.8953692686044548
  0
ARC
  5
6E78
  8
0
 10
4266.2589677174973986
 20
157.5417161956472967
 30
0.0
 40
0.1890041109674949
 50
278.8591012639967062
 51
337.8608353322914013
  0
ARC
  5
6E79
  8
0
 10
4266.5422682387916211
 20
157.4435809149100862
 30
0.0
 40
0.1115260896095201
 50
92.8722983050805624
 51
166.0386164498962955
  0
ARC
  5
6E7A
  8
0
 10
4268.2168628112412989
 20
159.2789374100011912
 30
0.0
 40
1.8883270804046
 50
277.069681145463619
 51
295.8317459743694826
  0
ARC
  5
6E7B
  8
0
 10
4258.7995822155107817
 20
158.2331720656171115
 30
0.0
 40
0.0743840443841466
 50
307.7255630981409809
 51
358.765043987110289
  0
ARC
  5
6E7C
  8
0
 10
4257.8577900627160489
 20
158.2334180108506132
 30
0.0
 40
0.0749402058702985
 50
181.421327743271604
 51
232.0327503658492105
  0
ARC
  5
6E7D
  8
0
 10
4257.7234868848336191
 20
158.3044680725732007
 30
0.0
 40
0.0581212971408917
 50
1.108375133095993
 51
83.615685382325907
  0
ARC
  5
6E7E
  8
0
 10
4264.7971292242191339
 20
158.3162308159216991
 30
0.0
 40
0.0774532609018998
 50
183.4456126502421967
 51
267.5320702392775161
  0
ARC
  5
6E7F
  8
0
 10
4265.9362971993868996
 20
158.3178586733953921
 30
0.0
 40
0.0791292916485149
 50
273.1560037346795866
 51
350.1597345806745238
  0
ARC
  5
6E80
  8
0
 10
4266.0475457528891639
 20
158.2896550051972895
 30
0.0
 40
0.0363771495667642
 50
119.7998238880999935
 51
156.1991581233166073
  0
ARC
  5
6E81
  8
0
 10
4263.3436739953576762
 20
156.9825545182515896
 30
0.0
 40
8.3703735208338887
 50
180.8733798408117082
 51
190.9324411747529098
  0
ARC
  5
6E82
  8
0
 10
4268.9702931239171448
 20
161.8032083257797922
 30
0.0
 40
15.2561512981981693
 50
204.8367532474414929
 51
222.8417435582313999
  0
ARC
  5
6E83
  8
0
 10
4256.0538197136793315
 20
149.6443049380089008
 30
0.0
 40
2.4859438493769921
 50
349.5864629448985852
 51
45.8956847313932386
  0
ARC
  5
6E84
  8
0
 10
4280.4286220856729415
 20
153.4287672672035967
 30
0.0
 40
0.2695219792355231
 50
141.6687648376816071
 51
164.110983536725513
  0
ARC
  5
6E85
  8
0
 10
4279.3573577634651883
 20
149.4932221414400999
 30
0.0
 40
0.2533229673093791
 50
165.181843744083011
 51
192.0307427140614038
  0
ARC
  5
6E86
  8
0
 10
4279.19886708202921
 20
142.1119418858172878
 30
0.0
 40
0.2499604716508575
 50
154.0265088994790119
 51
238.4690853763557072
  0
ARC
  5
6E87
  8
0
 10
4278.9372634118426504
 20
141.6858149565495921
 30
0.0
 40
0.2500601857849574
 50
9.9925532139215143
 51
58.4385436874243425
  0
ARC
  5
6E88
  8
0
 10
3485.0259257409770726
 20
274.0733243837477744
 30
0.0
 40
804.8765906622303419
 50
350.5975332002195728
 51
350.7174346624506143
  0
ARC
  5
6E89
  8
0
 10
4279.0734866932971272
 20
144.296255475189497
 30
0.0
 40
0.2937504243762541
 50
349.732517746630208
 51
2.254461143487922
  0
ARC
  5
6E8A
  8
0
 10
4271.0724640917433135
 20
142.0791470963673078
 30
0.0
 40
0.7228307449415937
 50
50.4525757263510073
 51
136.1778038971663136
  0
ARC
  5
6E8B
  8
0
 10
4270.7535123873049088
 20
141.9520717385921955
 30
0.0
 40
1.037114779365055
 50
1.554266016186111
 51
41.2964036576068807
  0
ARC
  5
6E8C
  8
0
 10
4271.5588497048966019
 20
141.9052142071213893
 30
0.0
 40
1.2127376621385071
 50
146.2115587365913996
 51
175.6330451050264969
  0
ARC
  5
6E8D
  8
0
 10
4267.4236936727666034
 20
142.5139896781215896
 30
0.0
 40
0.5007638418540039
 50
181.7653205848448863
 51
269.9365163520837996
  0
ARC
  5
6E8E
  8
0
 10
4267.1025903789068252
 20
145.0491058734382932
 30
0.0
 40
0.2510433185846346
 50
88.2595066461265958
 51
180.6857321113702142
  0
ARC
  5
6E8F
  8
0
 10
4267.3418165776793103
 20
151.6027098204573065
 30
0.0
 40
6.3069302834199528
 50
267.8955271309171735
 51
278.3503465829148809
  0
ARC
  5
6E90
  8
0
 10
4270.3599070286372807
 20
139.1145407052715939
 30
0.0
 40
6.5922573882720163
 50
96.2623327752751266
 51
108.5954195274167944
  0
ARC
  5
6E91
  8
0
 10
4268.2449246661553843
 20
145.1311858577450096
 30
0.0
 40
0.2318109943368336
 50
30.2090034585410301
 51
86.829717145273861
  0
ARC
  5
6E92
  8
0
 10
4269.7994493291380422
 20
145.4417867918087097
 30
0.0
 40
0.2758493656185975
 50
125.1041746116455045
 51
210.2982958171467942
  0
ARC
  5
6E93
  8
0
 10
4269.5415613352943183
 20
143.5168084057617079
 30
0.0
 40
0.273113668779298
 50
334.0400417195930913
 51
37.5065758399008331
  0
ARC
  5
6E94
  8
0
 10
4270.7293586841205979
 20
144.3277713586842026
 30
0.0
 40
0.2682066182743251
 50
219.2060834073986939
 51
275.0899435008522005
  0
ARC
  5
6E95
  8
0
 10
4331.1813568275074431
 20
5131.8334801232040263
 30
0.0
 40
4990.2067131200992662
 50
269.2867495053155835
 51
269.4016437870263871
  0
ARC
  5
6E96
  8
0
 10
4269.0561930925550769
 20
142.2613786786579908
 30
0.0
 40
0.24802687618078
 50
271.347576043263814
 51
354.8330277750740152
  0
ARC
  5
6E97
  8
0
 10
4271.4398319828196691
 20
142.0265493030036055
 30
0.0
 40
2.1471603430540092
 50
140.3288285675573093
 51
174.320460480142799
  0
ARC
  5
6E98
  8
0
 10
4267.1608413720914541
 20
148.2568813700040096
 30
0.0
 40
5.5238843576466143
 50
298.3880132702374226
 51
310.5660057359037864
  0
ARC
  5
6E99
  8
0
 10
4271.4391263698962575
 20
142.0232654994719041
 30
0.0
 40
2.1497398325715049
 50
90.022725099833977
 51
108.6082398420981008
  0
ARC
  5
6E9A
  8
0
 10
4262.8352375014792415
 20
4.9652492671604023
 30
0.0
 40
139.4733362825176926
 50
85.6894939791556851
 51
86.4636196147682767
  0
ARC
  5
6E9B
  8
0
 10
4274.3020802566388738
 20
148.3059289808537073
 30
0.0
 40
2.3681200963171878
 50
358.3101177270675066
 51
46.7675931986753213
  0
ARC
  5
6E9C
  8
0
 10
4267.8046161974625647
 20
151.5878102462089032
 30
0.0
 40
6.1985618265929512
 50
287.2313264534515156
 51
326.5231441187478936
  0
ARC
  5
6E9D
  8
0
 10
4277.5852074790273036
 20
146.1734455488407036
 30
0.0
 40
4.9464302857554312
 50
137.4587608194975132
 51
149.3459889984463018
  0
ARC
  5
6E9E
  8
0
 10
4275.5360276627834537
 20
149.153305789309286
 30
0.0
 40
0.8774422892151968
 50
331.4541450002770944
 51
25.8904384305618898
  0
ARC
  5
6E9F
  8
0
 10
4274.603973387300357
 20
149.0704694362021883
 30
0.0
 40
0.8000202419028504
 50
146.0004878297201003
 51
207.9700268384756043
  0
ARC
  5
6EA0
  8
0
 10
4276.3903698040639938
 20
147.7367760755462029
 30
0.0
 40
0.5718810384126721
 50
60.8226164533765612
 51
95.9410195355007573
  0
ARC
  5
6EA1
  8
0
 10
4273.4078461506333042
 20
148.3335625480299029
 30
0.0
 40
0.3701162770259921
 50
50.4514022478816315
 51
102.1443948234574037
  0
ARC
  5
6EA2
  8
0
 10
4280.9030770230092457
 20
148.5283141838791039
 30
0.0
 40
14.4765601912993098
 50
184.3453392908625119
 51
193.9184994412929939
  0
ARC
  5
6EA3
  8
0
 10
4265.8117595550538681
 20
144.864431578759195
 30
0.0
 40
2.6496116983823801
 50
75.6571759247037647
 51
88.9354453004487198
  0
ARC
  5
6EA4
  8
0
 10
4266.0545092208612914
 20
148.4917120584395889
 30
0.0
 40
0.9970866298217682
 50
156.9185889861144005
 51
258.808536031714425
  0
ARC
  5
6EA5
  8
0
 10
4307.703730315654866
 20
133.9654366587946868
 30
0.0
 40
45.1046345934728734
 50
160.2663170969794919
 51
160.6872926166118134
  0
ARC
  5
6EA6
  8
0
 10
4266.0629293396832509
 20
148.9694788199132063
 30
0.0
 40
0.8455556856881633
 50
103.7042464728259006
 51
164.5342583664445897
  0
ARC
  5
6EA7
  8
0
 10
4263.8881328251791274
 20
155.1498191065113872
 30
0.0
 40
5.7110327380548913
 50
290.2263687493788211
 51
306.0328744782988792
  0
ARC
  5
6EA8
  8
0
 10
4274.3803701553124483
 20
143.7793037262597977
 30
0.0
 40
9.8217565180348902
 50
121.7035039399209069
 51
136.5701781650379871
  0
ARC
  5
6EA9
  8
0
 10
4648.3443167682899002
 20
-221.4503097849164988
 30
0.0
 40
532.2616576456656503
 50
135.1533341149107059
 51
135.4216740912947898
  0
ARC
  5
6EAA
  8
0
 10
4271.160069658593784
 20
153.7782678616098906
 30
0.0
 40
0.2273718682842675
 50
96.1024945942295403
 51
145.5324672480689117
  0
ARC
  5
6EAB
  8
0
 10
4273.5499980278536896
 20
358.9508918183120727
 30
0.0
 40
204.9607580821289901
 50
269.3251346149465917
 51
269.5931134524878985
  0
ARC
  5
6EAC
  8
0
 10
4272.1549114886838652
 20
154.8756949778284024
 30
0.0
 40
0.8824646872667004
 50
266.0732529903988279
 51
295.3471237631637223
  0
ARC
  5
6EAD
  8
0
 10
4272.3028083666958992
 20
154.458031197612712
 30
0.0
 40
0.4439951922251485
 50
301.1827870262891906
 51
11.3056554052466396
  0
ARC
  5
6EAE
  8
0
 10
4281.1386907300893654
 20
156.5467735264518865
 30
0.0
 40
0.3237529047236739
 50
26.6635759192658597
 51
72.1645528353366643
  0
ARC
  5
6EAF
  8
0
 10
4272.6336727677880845
 20
156.365962410939602
 30
0.0
 40
0.4900374335145206
 50
0.2943845993118192
 51
86.2791773574703313
  0
ARC
  5
6EB0
  8
0
 10
4274.4760520870049731
 20
156.4077858130023913
 30
0.0
 40
1.3529194363663031
 50
181.6648164321414072
 51
270.6984348031257923
  0
ARC
  5
6EB1
  8
0
 10
4277.415277279127622
 20
156.3539244801443999
 30
0.0
 40
0.5031622497430007
 50
95.2612297998899322
 51
178.3422651440552897
  0
ARC
  5
6EB2
  8
0
 10
4275.5607303842607507
 20
156.4070076428210996
 30
0.0
 40
1.352144230744398
 50
269.2911373660725189
 51
358.3672253973098236
  0
ARC
  5
6EB3
  8
0
 10
4279.8094111736445484
 20
156.6112783745905119
 30
0.0
 40
0.2437579801187993
 50
91.3678444648164856
 51
179.9644045917320057
  0
ARC
  5
6EB4
  8
0
 10
4276.7668659728133207
 20
156.4715239304152874
 30
0.0
 40
2.802281896160534
 50
308.2895377019243028
 51
2.8617214859707221
  0
ARC
  5
6EB5
  8
0
 10
4280.1100336001209143
 20
156.6088167780218896
 30
0.0
 40
0.2501426423360855
 50
354.7366161807798903
 51
79.7494544318290366
  0
ARC
  5
6EB6
  8
0
 10
4276.0623683977246401
 20
156.9869668923687982
 30
0.0
 40
4.3154334688725129
 50
314.9999999921388962
 51
354.6669624865594983
  0
ARC
  5
6EB7
  8
0
 10
4277.3525921774880771
 20
152.3618933358274035
 30
0.0
 40
0.1327091234278064
 50
246.6803060905918983
 51
313.9446001715646162
  0
ARC
  5
6EB8
  8
0
 10
4281.2357311986652348
 20
151.6353902237167119
 30
0.0
 40
2.2093237466052269
 50
117.4526554509091056
 51
144.0716256599507119
  0
ARC
  5
6EB9
  8
0
 10
4278.2075284027696398
 20
151.5049959264356119
 30
0.0
 40
0.1345771181201468
 50
125.2404821931161933
 51
191.9934331263955869
  0
ARC
  5
6EBA
  8
0
 10
4273.2152129806327139
 20
147.7292852293813894
 30
0.0
 40
6.1377331157452737
 50
16.1879678157813984
 51
37.6334392537505167
  0
ARC
  5
6EBD
  8
0
 10
4279.9248722036691106
 20
154.1330610196042983
 30
0.0
 40
3.2362378520908401
 50
215.7994254320790048
 51
235.1564697612392081
  0
ARC
  5
6EBE
  8
0
 10
4275.0458982530435605
 20
149.0578522465688138
 30
0.0
 40
3.8996743116675829
 50
54.6873432748205417
 51
143.3688953293693089
  0
ARC
  5
6EBF
  8
0
 10
4267.213861787159658
 20
151.9893689849907901
 30
0.0
 40
4.2371171498064424
 50
304.5362088381306762
 51
326.7306899968946823
  0
ARC
  5
6EC0
  8
0
 10
4269.035291020333716
 20
149.3489959710562118
 30
0.0
 40
1.029450923007005
 50
280.8754507604924129
 51
304.3393699446876894
  0
ARC
  5
6EC1
  8
0
 10
4269.1937581667652921
 20
148.5389512702049046
 30
0.0
 40
0.2040751931246874
 50
188.8550703422010031
 51
280.0932098551277249
  0
ARC
  5
6EC2
  8
0
 10
4270.1261730028318198
 20
148.6011732766851026
 30
0.0
 40
1.1379167361294671
 50
170.8309230179380904
 51
184.7200696695269073
  0
ARC
  5
6EC3
  8
0
 10
4286.5102697963893661
 20
145.6078768293886014
 30
0.0
 40
17.79297214937489
 50
167.5196616271038863
 51
169.7222586348810864
  0
ARC
  5
6EC4
  8
0
 10
4270.7762981113146452
 20
145.7035385632491113
 30
0.0
 40
4.091879134583519
 50
113.6057554402109986
 51
133.2057521186995928
  0
ARC
  5
6EC5
  8
0
 10
4251.3300062332118614
 20
167.792703837238605
 30
0.0
 40
25.3399871342630689
 50
307.3664768451313876
 51
311.0610892146797823
  0
ARC
  5
6EC6
  8
0
 10
4266.8690114588998767
 20
147.2376896028401916
 30
0.0
 40
0.4452548816909382
 50
111.0447941873117941
 51
154.2030365898735909
  0
ARC
  5
6EC7
  8
0
 10
4262.4829487438782962
 20
156.2247610814513905
 30
0.0
 40
9.4943536833845563
 50
314.5009510990209947
 51
326.240726495896979
  0
ARC
  5
6EC8
  8
0
 10
4279.8833185981848146
 20
145.8469833214981008
 30
0.0
 40
10.7893363521447796
 50
141.0179365860439873
 51
151.7806518614603988
  0
ARC
  5
6EC9
  8
0
 10
4274.1566456918562835
 20
150.0350599332689114
 30
0.0
 40
3.7193419274994448
 50
90.5911359152782723
 51
135.6655021911795984
  0
ARC
  5
6ECA
  8
0
 10
4276.5805306125512288
 20
157.5821626862318965
 30
0.0
 40
3.8280263334419109
 50
269.6546761948189896
 51
300.1507552631895237
  0
ARC
  5
6ECB
  8
0
 10
4265.5198627415120427
 20
240.7602041509591118
 30
0.0
 40
83.9341158458487939
 50
268.496968448035318
 51
271.5030340199717216
  0
ARC
  5
6ECC
  8
0
 10
4265.945068529654236
 20
180.417932127790607
 30
0.0
 40
23.7089293451012608
 50
263.6389673400065021
 51
269.9015470963207122
  0
ARC
  5
6ECD
  8
0
 10
4266.6454077327152845
 20
3078.9205121015947952
 30
0.0
 40
2922.2115682864118753
 50
269.9854696719115168
 51
270.0531646291619836
  0
ARC
  5
6ECE
  8
0
 10
4276.2265577439966364
 20
154.8238788944196926
 30
0.0
 40
3.4994937092858689
 50
167.4043751753252138
 51
184.5696125738936928
  0
ARC
  5
6ECF
  8
0
 10
4262.7171084261872238
 20
156.1256925998191036
 30
0.0
 40
10.1085398810192704
 50
356.9452637266966235
 51
1.3798801177614051
  0
ARC
  5
6ED0
  8
0
 10
4272.4968199710456247
 20
156.391271683620289
 30
0.0
 40
0.3266490739161552
 50
356.1110836385302036
 51
77.5194231317004636
  0
ARC
  5
6ED1
  8
0
 10
4275.1497643419443193
 20
158.4497871165634137
 30
0.0
 40
0.3952580148364959
 50
186.3636630335304858
 51
267.3030577198942979
  0
ARC
  5
6ED2
  8
0
 10
6254.9426353582539377
 20
246.8509625271834977
 30
0.0
 40
1982.1599069239020992
 50
182.2146579747441137
 51
182.557415994184197
  0
ARC
  5
6ED3
  8
0
 10
4275.6220599988218964
 20
168.5187029720325995
 30
0.0
 40
1.3699693755540341
 50
162.5769941220866883
 51
201.9556389704908099
  0
ARC
  5
6ED4
  8
0
 10
4276.1327460737247748
 20
158.358599959221408
 30
0.0
 40
0.3048978850371141
 50
191.954902060066587
 51
264.7793439692346738
  0
ARC
  5
6ED5
  8
0
 10
4222.6648895969046862
 20
171.8717210764521042
 30
0.0
 40
54.8754832966386701
 50
345.6761991374972922
 51
358.3101273442117076
  0
ARC
  5
6ED6
  8
0
 10
4277.3712866676660269
 20
171.9330495524953903
 30
0.0
 40
0.179257142134477
 50
133.3191620372637942
 51
178.0084909117049961
  0
ARC
  5
6ED7
  8
0
 10
4277.4083141702603825
 20
170.3809453642477081
 30
0.0
 40
0.1940786056702562
 50
183.4462010548091939
 51
221.0592685962201074
  0
LINE
  5
6ED8
  8
0
 10
4276.9808116884059928
 20
157.734966894451702
 30
0.0
 11
4276.9872462400790027
 21
158.0356648843516894
 31
0.0
  0
ARC
  5
6ED9
  8
0
 10
4277.0072333801908826
 20
158.034967594873109
 30
0.0
 40
0.0199992995900482
 50
89.9980622211061956
 51
178.0019377797273137
  0
LINE
  5
6EDA
  8
0
 10
4279.6463549050258734
 20
158.0356648843516894
 30
0.0
 11
4279.6557341616071426
 21
157.734966894451702
 31
0.0
  0
ARC
  5
6EDB
  8
0
 10
4279.626368377327708
 20
158.0349682291480917
 30
0.0
 40
0.0199986653451331
 50
1.996307323332851
 51
90.0036926758683506
  0
ENDSEC
  0
EOF
