  0
SECTION
  2
HEADER
  9
$ACADVER
  1
AC1009
  9
$INSBASE
 10
39.465131882475447
 20
17.336607905268991
 30
0.0
  9
$EXTMIN
 10
23.71513188247544
 20
7.5509893139689881
 30
0.0
  9
$EXTMAX
 10
55.215131882475447
 20
17.346557727244988
 30
0.0
  9
$LIMMIN
 10
0.0
 20
0.0
  9
$LIMMAX
 10
12.0
 20
9.0
  9
$ORTHOMODE
 70
     0
  9
$REGENMODE
 70
     1
  9
$FILLMODE
 70
     1
  9
$QTEXTMODE
 70
     0
  9
$MIRRTEXT
 70
     0
  9
$DRAGMODE
 70
     2
  9
$LTSCALE
 40
1.0
  9
$OSMODE
 70
  3071
  9
$ATTMODE
 70
     1
  9
$TEXTSIZE
 40
0.2
  9
$TRACEWID
 40
0.05
  9
$TEXTSTYLE
  7
STANDARD
  9
$CLAYER
  8
0
  9
$CELTYPE
  6
BYLAYER
  9
$CECOLOR
 62
   256
  9
$DIMSCALE
 40
1.0
  9
$DIMASZ
 40
0.18
  9
$DIMEXO
 40
0.0625
  9
$DIMDLI
 40
0.38
  9
$DIMRND
 40
0.0
  9
$DIMDLE
 40
0.0
  9
$DIMEXE
 40
0.18
  9
$DIMTP
 40
0.0
  9
$DIMTM
 40
0.0
  9
$DIMTXT
 40
0.18
  9
$DIMCEN
 40
0.09
  9
$DIMTSZ
 40
0.0
  9
$DIMTOL
 70
     0
  9
$DIMLIM
 70
     0
  9
$DIMTIH
 70
     1
  9
$DIMTOH
 70
     1
  9
$DIMSE1
 70
     0
  9
$DIMSE2
 70
     0
  9
$DIMTAD
 70
     0
  9
$DIMZIN
 70
     0
  9
$DIMBLK
  1

  9
$DIMASO
 70
     1
  9
$DIMSHO
 70
     1
  9
$DIMPOST
  1

  9
$DIMAPOST
  1

  9
$DIMALT
 70
     0
  9
$DIMALTD
 70
     2
  9
$DIMALTF
 40
25.399999999999999
  9
$DIMLFAC
 40
1.0
  9
$DIMTOFL
 70
     0
  9
$DIMTVP
 40
0.0
  9
$DIMTIX
 70
     0
  9
$DIMSOXD
 70
     0
  9
$DIMSAH
 70
     0
  9
$DIMBLK1
  1

  9
$DIMBLK2
  1

  9
$DIMSTYLE
  2
STANDARD
  9
$DIMCLRD
 70
     0
  9
$DIMCLRE
 70
     0
  9
$DIMCLRT
 70
     0
  9
$DIMTFAC
 40
1.0
  9
$DIMGAP
 40
0.09
  9
$LUNITS
 70
     2
  9
$LUPREC
 70
     4
  9
$SKETCHINC
 40
0.1
  9
$FILLETRAD
 40
0.0
  9
$AUNITS
 70
     0
  9
$AUPREC
 70
     0
  9
$MENU
  1
.
  9
$ELEVATION
 40
0.0
  9
$PELEVATION
 40
0.0
  9
$THICKNESS
 40
0.0
  9
$LIMCHECK
 70
     0
  9
$BLIPMODE
 70
     0
  9
$CHAMFERA
 40
0.0
  9
$CHAMFERB
 40
0.0
  9
$SKPOLY
 70
     0
  9
$TDCREATE
 40
2458437.6382323848
  9
$TDUPDATE
 40
2458437.6478055902
  9
$TDINDWG
 40
0.0095744329
  9
$TDUSRTIMER
 40
0.0095742593
  9
$USRTIMER
 70
     1
  9
$ANGBASE
 50
0.0
  9
$ANGDIR
 70
     0
  9
$PDMODE
 70
     0
  9
$PDSIZE
 40
0.0
  9
$PLINEWID
 40
0.0
  9
$COORDS
 70
     2
  9
$SPLFRAME
 70
     0
  9
$SPLINETYPE
 70
     6
  9
$SPLINESEGS
 70
     8
  9
$ATTDIA
 70
     1
  9
$ATTREQ
 70
     1
  9
$HANDLING
 70
     1
  9
$HANDSEED
  5
C35
  9
$SURFTAB1
 70
     6
  9
$SURFTAB2
 70
     6
  9
$SURFTYPE
 70
     6
  9
$SURFU
 70
     6
  9
$SURFV
 70
     6
  9
$UCSNAME
  2

  9
$UCSORG
 10
0.0
 20
0.0
 30
0.0
  9
$UCSXDIR
 10
1.0
 20
0.0
 30
0.0
  9
$UCSYDIR
 10
0.0
 20
1.0
 30
0.0
  9
$PUCSNAME
  2

  9
$PUCSORG
 10
0.0
 20
0.0
 30
0.0
  9
$PUCSXDIR
 10
1.0
 20
0.0
 30
0.0
  9
$PUCSYDIR
 10
0.0
 20
1.0
 30
0.0
  9
$USERI1
 70
     0
  9
$USERI2
 70
     0
  9
$USERI3
 70
     0
  9
$USERI4
 70
     0
  9
$USERI5
 70
     0
  9
$USERR1
 40
0.0
  9
$USERR2
 40
0.0
  9
$USERR3
 40
0.0
  9
$USERR4
 40
0.0
  9
$USERR5
 40
0.0
  9
$WORLDVIEW
 70
     1
  9
$SHADEDGE
 70
     3
  9
$SHADEDIF
 70
    70
  9
$TILEMODE
 70
     1
  9
$MAXACTVP
 70
    64
  9
$PLIMCHECK
 70
     0
  9
$PEXTMIN
 10
0.0
 20
0.0
 30
0.0
  9
$PEXTMAX
 10
0.0
 20
0.0
 30
0.0
  9
$PLIMMIN
 10
0.0
 20
0.0
  9
$PLIMMAX
 10
12.0
 20
9.0
  9
$UNITMODE
 70
     0
  9
$VISRETAIN
 70
     1
  9
$PLINEGEN
 70
     0
  9
$PSLTSCALE
 70
     1
  0
ENDSEC
  0
SECTION
  2
TABLES
  0
TABLE
  2
VPORT
 70
     1
  0
VPORT
  2
*ACTIVE
 70
     0
 10
0.0
 20
0.0
 11
1.0
 21
1.0
 12
0.0
 22
0.0
 13
0.0
 23
0.0
 14
0.5
 24
0.5
 15
0.5
 25
0.5
 16
-0.0000000000000213
 26
0.0
 36
95.822461441565835
 17
39.465131882475447
 27
12.44865312491704
 37
0.0
 40
33.000427920261053
 41
2.1856978085351781
 42
50.0
 43
0.0
 44
0.0
 50
0.0
 51
0.0
 71
     0
 72
  1000
 73
     1
 74
     3
 75
     0
 76
     1
 77
     0
 78
     0
  0
ENDTAB
  0
TABLE
  2
LTYPE
 70
     1
  0
LTYPE
  2
CONTINUOUS
 70
     0
  3
Solid line
 72
    65
 73
     0
 40
0.0
  0
ENDTAB
  0
TABLE
  2
LAYER
 70
     2
  0
LAYER
  2
0
 70
     0
 62
     7
  6
CONTINUOUS
  0
LAYER
  2
DEFPOINTS
 70
     0
 62
     7
  6
CONTINUOUS
  0
ENDTAB
  0
TABLE
  2
STYLE
 70
     2
  0
STYLE
  2
STANDARD
 70
     0
 40
0.0
 41
1.0
 50
0.0
 71
     0
 42
0.2
  3
txt
  4

  0
STYLE
  2
ANNOTATIVE
 70
     0
 40
0.0
 41
1.0
 50
0.0
 71
     0
 42
0.2
  3
txt
  4

  0
ENDTAB
  0
TABLE
  2
VIEW
 70
     0
  0
ENDTAB
  0
TABLE
  2
UCS
 70
     0
  0
ENDTAB
  0
TABLE
  2
APPID
 70
     8
  0
APPID
  2
ACAD
 70
     0
  0
APPID
  2
ACADANNOPO
 70
     0
  0
APPID
  2
ACADANNOTATIVE
 70
     0
  0
APPID
  2
ACAD_DSTYLE_DIMJAG
 70
     0
  0
APPID
  2
ACAD_DSTYLE_DIMTALN
 70
     0
  0
APPID
  2
ACAD_MLEADERVER
 70
     0
  0
APPID
  2
ACAD_NAV_VCDISPLAY
 70
     0
  0
APPID
  2
ACDBATTR
 70
     0
  0
ENDTAB
  0
TABLE
  2
DIMSTYLE
 70
     2
  0
DIMSTYLE
  2
STANDARD
 70
     0
  3

  4

  5

  6

  7

 40
1.0
 41
0.18
 42
0.0625
 43
0.38
 44
0.18
 45
0.0
 46
0.0
 47
0.0
 48
0.0
140
0.18
141
0.09
142
0.0
143
25.399999999999999
144
1.0
145
0.0
146
1.0
147
0.09
 71
     0
 72
     0
 73
     1
 74
     1
 75
     0
 76
     0
 77
     0
 78
     0
170
     0
171
     2
172
     0
173
     0
174
     0
175
     0
176
     0
177
     0
178
     0
  0
DIMSTYLE
  2
ANNOTATIVE
 70
     0
  3

  4

  5

  6

  7

 40
0.0
 41
0.18
 42
0.0625
 43
0.38
 44
0.18
 45
0.0
 46
0.0
 47
0.0
 48
0.0
140
0.18
141
0.09
142
0.0
143
25.399999999999999
144
1.0
145
0.0
146
1.0
147
0.09
 71
     0
 72
     0
 73
     1
 74
     1
 75
     0
 76
     0
 77
     0
 78
     0
170
     0
171
     2
172
     0
173
     0
174
     0
175
     0
176
     0
177
     0
178
     0
  0
ENDTAB
  0
ENDSEC
  0
SECTION
  2
BLOCKS
  0
BLOCK
  8
0
  2
$MODEL_SPACE
 70
     0
 10
0.0
 20
0.0
 30
0.0
  3
$MODEL_SPACE
  1

  0
ENDBLK
  5
21
  8
0
  0
BLOCK
 67
     1
  8
0
  2
$PAPER_SPACE
 70
     0
 10
0.0
 20
0.0
 30
0.0
  3
$PAPER_SPACE
  1

  0
ENDBLK
  5
5B
 67
     1
  8
0
  0
ENDSEC
  0
SECTION
  2
ENTITIES
  0
ATTDEF
  5
A42
  8
DEFPOINTS
 10
39.462300149158182
 20
17.34529306148783
 30
0.0
 40
0.001
  1
K-3171
  3

  2
MODELNUMBER
 70
     0
1001
ACDBATTR
1070
     0
1070
     1
  0
ATTDEF
  5
A43
  8
DEFPOINTS
 10
39.462300149158182
 20
17.343626394821161
 30
0.0
 40
0.001
  1
UNDERTONE
  3

  2
TRADENAME
 70
     0
1001
ACDBATTR
1070
     0
1070
     1
  0
ATTDEF
  5
A44
  8
DEFPOINTS
 10
39.462300149158182
 20
17.341959728154499
 30
0.0
 40
0.001
  1
KITCHEN SINK
  3

  2
PRODUCT
 70
     0
1001
ACDBATTR
1070
     0
1070
     1
  0
ATTDEF
  5
A45
  8
DEFPOINTS
 10
39.462300149158182
 20
17.340293061487831
 30
0.0
 40
0.001
  1
STAINLESS STEEL
  3

  2
MATERIAL
 70
     0
1001
ACDBATTR
1070
     0
1070
     1
  0
LINE
  5
B21
  8
0
 10
55.215131882475447
 20
17.336607905268991
 30
0.0
 11
23.71513188247544
 21
17.336607905268991
 31
0.0
  0
LINE
  5
B22
  8
0
 10
23.71513188247544
 20
17.336607905268991
 30
0.0
 11
23.71513188247544
 21
17.288607905268989
 31
0.0
  0
LINE
  5
B23
  8
0
 10
23.71513188247544
 20
17.288607905268989
 30
0.0
 11
55.215131882475447
 21
17.288607905268989
 31
0.0
  0
ARC
  5
B24
  8
0
 10
24.519561351409799
 20
17.172892583689009
 30
0.0
 40
0.117671650022374
 50
45.603844394892597
 51
79.53772513153838
  0
LINE
  5
B25
  8
0
 10
24.601886249875442
 20
17.25697128676898
 30
0.0
 11
24.760426610212861
 21
17.09829237616335
 31
0.0
  0
ARC
  5
B26
  8
0
 10
24.68376807298359
 20
17.021700773228339
 30
0.0
 40
0.1083642236639346
 50
0.1584109570759653
 51
44.974975211654929
  0
LINE
  5
B27
  8
0
 10
24.792131882475442
 20
17.022000377468991
 30
0.0
 11
24.792131882475442
 21
9.5853813645114023
 31
0.0
  0
ARC
  5
B28
  8
0
 10
26.345074636009311
 20
9.4628106056474302
 30
0.0
 40
1.557772379611936
 50
175.4871109809051
 51
268.32754536349182
  0
ARC
  5
B29
  8
0
 10
25.115730072073308
 20
-68.074343981291776
 30
0.0
 40
75.989268535357013
 50
86.722990276862745
 51
89.10732045402257
  0
ARC
  5
B2A
  8
0
 10
29.457862680694308
 20
7.7587133526359171
 30
0.0
 40
0.0319999999321746
 50
36.027373308058309
 51
87.000000027065084
  0
LINE
  5
B2B
  8
0
 10
29.48374223536247
 20
7.7775348468868257
 30
0.0
 11
29.535304130425541
 21
7.7066372411751027
 31
0.0
  0
ARC
  5
B2C
  8
0
 10
29.598671999035499
 20
7.752142896385922
 30
0.0
 40
0.0780144308979707
 50
215.68283660113201
 51
251.9983225081649
  0
LINE
  5
B2D
  8
0
 10
29.574562041795609
 20
7.6779474693689878
 30
0.0
 11
29.965299066675438
 21
7.5509893139689881
 31
0.0
  0
LINE
  5
B2E
  8
0
 10
29.965299066675438
 20
7.5509893139689881
 30
0.0
 11
33.714964698175443
 21
7.5509893139689881
 31
0.0
  0
ARC
  5
B2F
  8
0
 10
39.160702413441079
 20
17.172892583689009
 30
0.0
 40
0.117671650022374
 50
100.46227486846161
 51
134.3961556051074
  0
LINE
  5
B30
  8
0
 10
39.078377514975443
 20
17.25697128676898
 30
0.0
 11
38.919837154638032
 21
17.09829237616335
 31
0.0
  0
ARC
  5
B31
  8
0
 10
38.996495691867302
 20
17.021700773228339
 30
0.0
 40
0.1083642236639346
 50
135.02502478834489
 51
179.841589042924
  0
LINE
  5
B32
  8
0
 10
38.888131882375447
 20
17.022000377468991
 30
0.0
 11
38.888131882375447
 21
9.5853813645114023
 31
0.0
  0
ARC
  5
B33
  8
0
 10
37.335189128841577
 20
9.4628106056474302
 30
0.0
 40
1.557772379611936
 50
271.67245463650818
 51
4.5128890190948452
  0
ARC
  5
B34
  8
0
 10
38.564533692777573
 20
-68.074343981291776
 30
0.0
 40
75.989268535357013
 50
90.892679545977444
 51
93.277009723137056
  0
ARC
  5
B35
  8
0
 10
34.222401084156573
 20
7.7587133526359171
 30
0.0
 40
0.0319999999321746
 50
92.999999972934702
 51
143.97262669194171
  0
LINE
  5
B36
  8
0
 10
34.196521529488422
 20
7.7775348468868257
 30
0.0
 11
34.144959634425348
 21
7.7066372411751027
 31
0.0
  0
ARC
  5
B37
  8
0
 10
34.081591765815389
 20
7.752142896385922
 30
0.0
 40
0.0780144308979707
 50
288.00167749183521
 51
324.31716339886799
  0
LINE
  5
B38
  8
0
 10
34.105701723055283
 20
7.6779474693689878
 30
0.0
 11
33.714964698175443
 21
7.5509893139689881
 31
0.0
  0
LINE
  5
B39
  8
0
 10
29.459537431275439
 20
7.7906694976811233
 30
0.0
 11
34.220726333576792
 21
7.7906694976811934
 31
0.0
  0
ARC
  5
B3A
  8
0
 10
54.410702413541081
 20
17.172892583689009
 30
0.0
 40
0.117671650022374
 50
100.46227486846161
 51
134.3961556051074
  0
LINE
  5
B3B
  8
0
 10
54.328377515075452
 20
17.25697128676898
 30
0.0
 11
54.169837154738019
 21
17.09829237616335
 31
0.0
  0
ARC
  5
B3C
  8
0
 10
54.246495691967297
 20
17.021700773228339
 30
0.0
 40
0.1083642236639346
 50
135.02502478834489
 51
179.841589042924
  0
LINE
  5
B3D
  8
0
 10
54.138131882475442
 20
17.022000377468991
 30
0.0
 11
54.138131882475442
 21
9.5853813645114023
 31
0.0
  0
ARC
  5
B3E
  8
0
 10
52.585189128941579
 20
9.4628106056474302
 30
0.0
 40
1.557772379611936
 50
271.67245463650818
 51
4.5128890190948452
  0
ARC
  5
B3F
  8
0
 10
53.814533692877582
 20
-68.074343981291776
 30
0.0
 40
75.989268535357013
 50
90.892679545977444
 51
93.277009723137255
  0
ARC
  5
B40
  8
0
 10
49.472401084256568
 20
7.7587133526359171
 30
0.0
 40
0.0319999999321746
 50
92.999999972934901
 51
143.97262669194171
  0
LINE
  5
B41
  8
0
 10
49.446521529588409
 20
7.7775348468868257
 30
0.0
 11
49.39495963452535
 21
7.7066372411751027
 31
0.0
  0
ARC
  5
B42
  8
0
 10
49.331591765915391
 20
7.752142896385922
 30
0.0
 40
0.0780144308979707
 50
288.00167749183521
 51
324.31716339886799
  0
LINE
  5
B43
  8
0
 10
49.355701723155278
 20
7.6779474693689878
 30
0.0
 11
48.964964698275438
 21
7.5509893139689881
 31
0.0
  0
LINE
  5
B44
  8
0
 10
48.964964698275438
 20
7.5509893139689881
 30
0.0
 11
45.215299066775437
 21
7.5509893139689881
 31
0.0
  0
ARC
  5
B45
  8
0
 10
39.7695613515098
 20
17.172892583689009
 30
0.0
 40
0.117671650022374
 50
45.603844394892597
 51
79.53772513153838
  0
LINE
  5
B46
  8
0
 10
39.851886249975443
 20
17.25697128676898
 30
0.0
 11
40.010426610312862
 21
17.09829237616335
 31
0.0
  0
ARC
  5
B47
  8
0
 10
39.933768073083591
 20
17.021700773228339
 30
0.0
 40
0.1083642236639346
 50
0.1584109570759653
 51
44.974975211654929
  0
LINE
  5
B48
  8
0
 10
40.04213188257544
 20
17.022000377468991
 30
0.0
 11
40.04213188257544
 21
9.5853813645114023
 31
0.0
  0
ARC
  5
B49
  8
0
 10
41.59507463610931
 20
9.4628106056474302
 30
0.0
 40
1.557772379611936
 50
175.4871109809051
 51
268.32754536349182
  0
ARC
  5
B4A
  8
0
 10
40.365730072173307
 20
-68.074343981291776
 30
0.0
 40
75.989268535357013
 50
86.722990276862944
 51
89.10732045402257
  0
ARC
  5
B4B
  8
0
 10
44.707862680794307
 20
7.7587133526359171
 30
0.0
 40
0.0319999999321746
 50
36.027373308058309
 51
87.000000027065283
  0
LINE
  5
B4C
  8
0
 10
44.733742235462472
 20
7.7775348468868257
 30
0.0
 11
44.785304130525539
 21
7.7066372411751027
 31
0.0
  0
ARC
  5
B4D
  8
0
 10
44.848671999135497
 20
7.752142896385922
 30
0.0
 40
0.0780144308979707
 50
215.68283660113201
 51
251.9983225081649
  0
LINE
  5
B4E
  8
0
 10
44.824562041895618
 20
7.6779474693689878
 30
0.0
 11
45.215299066775437
 21
7.5509893139689881
 31
0.0
  0
LINE
  5
B4F
  8
0
 10
49.470726333675437
 20
7.7906694976811233
 30
0.0
 11
44.709537431374102
 21
7.7906694976811934
 31
0.0
  0
LINE
  5
B50
  8
0
 10
55.215131882475447
 20
17.336607905268991
 30
0.0
 11
55.215131882475447
 21
17.288607905268989
 31
0.0
  0
LINE
  5
B51
  8
0
 10
24.96868527307544
 20
17.288607905268989
 30
0.0
 11
24.96868527307544
 21
17.336607905268991
 31
0.0
  0
LINE
  5
B52
  8
0
 10
53.961578491875443
 20
17.288607905268989
 30
0.0
 11
53.961578491875443
 21
17.336607905268991
 31
0.0
  0
ENDSEC
  0
EOF
