  0
SECTION
  2
HEADER
  9
$ACADVER
  1
AC1009
  9
$INSBASE
 10
42.760402993770533
 20
16.88294188069305
 30
0.0
  9
$EXTMIN
 10
27.010402993770541
 20
7.8829418806931661
 30
0.0
  9
$EXTMAX
 10
58.510402993770541
 20
25.882941880693171
 30
0.0
  9
$LIMMIN
 10
0.0
 20
0.0
  9
$LIMMAX
 10
12.0
 20
9.0
  9
$ORTHOMODE
 70
     0
  9
$REGENMODE
 70
     1
  9
$FILLMODE
 70
     1
  9
$QTEXTMODE
 70
     0
  9
$MIRRTEXT
 70
     0
  9
$DRAGMODE
 70
     2
  9
$LTSCALE
 40
1.0
  9
$OSMODE
 70
  3071
  9
$ATTMODE
 70
     1
  9
$TEXTSIZE
 40
0.2
  9
$TRACEWID
 40
0.05
  9
$TEXTSTYLE
  7
STANDARD
  9
$CLAYER
  8
0
  9
$CELTYPE
  6
BYLAYER
  9
$CECOLOR
 62
   256
  9
$DIMSCALE
 40
1.0
  9
$DIMASZ
 40
0.18
  9
$DIMEXO
 40
0.0625
  9
$DIMDLI
 40
0.38
  9
$DIMRND
 40
0.0
  9
$DIMDLE
 40
0.0
  9
$DIMEXE
 40
0.18
  9
$DIMTP
 40
0.0
  9
$DIMTM
 40
0.0
  9
$DIMTXT
 40
0.18
  9
$DIMCEN
 40
0.09
  9
$DIMTSZ
 40
0.0
  9
$DIMTOL
 70
     0
  9
$DIMLIM
 70
     0
  9
$DIMTIH
 70
     1
  9
$DIMTOH
 70
     1
  9
$DIMSE1
 70
     0
  9
$DIMSE2
 70
     0
  9
$DIMTAD
 70
     0
  9
$DIMZIN
 70
     0
  9
$DIMBLK
  1

  9
$DIMASO
 70
     1
  9
$DIMSHO
 70
     1
  9
$DIMPOST
  1

  9
$DIMAPOST
  1

  9
$DIMALT
 70
     0
  9
$DIMALTD
 70
     2
  9
$DIMALTF
 40
25.399999999999999
  9
$DIMLFAC
 40
1.0
  9
$DIMTOFL
 70
     0
  9
$DIMTVP
 40
0.0
  9
$DIMTIX
 70
     0
  9
$DIMSOXD
 70
     0
  9
$DIMSAH
 70
     0
  9
$DIMBLK1
  1

  9
$DIMBLK2
  1

  9
$DIMSTYLE
  2
STANDARD
  9
$DIMCLRD
 70
     0
  9
$DIMCLRE
 70
     0
  9
$DIMCLRT
 70
     0
  9
$DIMTFAC
 40
1.0
  9
$DIMGAP
 40
0.09
  9
$LUNITS
 70
     2
  9
$LUPREC
 70
     4
  9
$SKETCHINC
 40
0.1
  9
$FILLETRAD
 40
0.0
  9
$AUNITS
 70
     0
  9
$AUPREC
 70
     0
  9
$MENU
  1
.
  9
$ELEVATION
 40
0.0
  9
$PELEVATION
 40
0.0
  9
$THICKNESS
 40
0.0
  9
$LIMCHECK
 70
     0
  9
$BLIPMODE
 70
     0
  9
$CHAMFERA
 40
0.0
  9
$CHAMFERB
 40
0.0
  9
$SKPOLY
 70
     0
  9
$TDCREATE
 40
2458437.623888033
  9
$TDUPDATE
 40
2458437.6478719441
  9
$TDINDWG
 40
0.0239851852
  9
$TDUSRTIMER
 40
0.023985
  9
$USRTIMER
 70
     1
  9
$ANGBASE
 50
0.0
  9
$ANGDIR
 70
     0
  9
$PDMODE
 70
     0
  9
$PDSIZE
 40
0.0
  9
$PLINEWID
 40
0.0
  9
$COORDS
 70
     2
  9
$SPLFRAME
 70
     0
  9
$SPLINETYPE
 70
     6
  9
$SPLINESEGS
 70
     8
  9
$ATTDIA
 70
     1
  9
$ATTREQ
 70
     1
  9
$HANDLING
 70
     1
  9
$HANDSEED
  5
C8A
  9
$SURFTAB1
 70
     6
  9
$SURFTAB2
 70
     6
  9
$SURFTYPE
 70
     6
  9
$SURFU
 70
     6
  9
$SURFV
 70
     6
  9
$UCSNAME
  2

  9
$UCSORG
 10
0.0
 20
0.0
 30
0.0
  9
$UCSXDIR
 10
1.0
 20
0.0
 30
0.0
  9
$UCSYDIR
 10
0.0
 20
1.0
 30
0.0
  9
$PUCSNAME
  2

  9
$PUCSORG
 10
0.0
 20
0.0
 30
0.0
  9
$PUCSXDIR
 10
1.0
 20
0.0
 30
0.0
  9
$PUCSYDIR
 10
0.0
 20
1.0
 30
0.0
  9
$USERI1
 70
     0
  9
$USERI2
 70
     0
  9
$USERI3
 70
     0
  9
$USERI4
 70
     0
  9
$USERI5
 70
     0
  9
$USERR1
 40
0.0
  9
$USERR2
 40
0.0
  9
$USERR3
 40
0.0
  9
$USERR4
 40
0.0
  9
$USERR5
 40
0.0
  9
$WORLDVIEW
 70
     1
  9
$SHADEDGE
 70
     3
  9
$SHADEDIF
 70
    70
  9
$TILEMODE
 70
     1
  9
$MAXACTVP
 70
    64
  9
$PLIMCHECK
 70
     0
  9
$PEXTMIN
 10
0.0
 20
0.0
 30
0.0
  9
$PEXTMAX
 10
0.0
 20
0.0
 30
0.0
  9
$PLIMMIN
 10
0.0
 20
0.0
  9
$PLIMMAX
 10
12.0
 20
9.0
  9
$UNITMODE
 70
     0
  9
$VISRETAIN
 70
     1
  9
$PLINEGEN
 70
     0
  9
$PSLTSCALE
 70
     1
  0
ENDSEC
  0
SECTION
  2
TABLES
  0
TABLE
  2
VPORT
 70
     1
  0
VPORT
  2
*ACTIVE
 70
     0
 10
0.0
 20
0.0
 11
1.0
 21
1.0
 12
0.0
 22
0.0
 13
0.0
 23
0.0
 14
0.5
 24
0.5
 15
0.5
 25
0.5
 16
-0.0000000000000213
 26
0.0
 36
105.3858892757617
 17
42.760402993770533
 27
16.88294188069316
 37
0.0
 40
36.28617838431726
 41
2.1856978085351781
 42
50.0
 43
0.0
 44
0.0
 50
0.0
 51
0.0
 71
     0
 72
  1000
 73
     1
 74
     3
 75
     0
 76
     1
 77
     0
 78
     0
  0
ENDTAB
  0
TABLE
  2
LTYPE
 70
     1
  0
LTYPE
  2
CONTINUOUS
 70
     0
  3
Solid line
 72
    65
 73
     0
 40
0.0
  0
ENDTAB
  0
TABLE
  2
LAYER
 70
     2
  0
LAYER
  2
0
 70
     0
 62
     7
  6
CONTINUOUS
  0
LAYER
  2
DEFPOINTS
 70
     0
 62
     7
  6
CONTINUOUS
  0
ENDTAB
  0
TABLE
  2
STYLE
 70
     2
  0
STYLE
  2
STANDARD
 70
     0
 40
0.0
 41
1.0
 50
0.0
 71
     0
 42
0.2
  3
txt
  4

  0
STYLE
  2
ANNOTATIVE
 70
     0
 40
0.0
 41
1.0
 50
0.0
 71
     0
 42
0.2
  3
txt
  4

  0
ENDTAB
  0
TABLE
  2
VIEW
 70
     0
  0
ENDTAB
  0
TABLE
  2
UCS
 70
     0
  0
ENDTAB
  0
TABLE
  2
APPID
 70
     8
  0
APPID
  2
ACAD
 70
     0
  0
APPID
  2
ACADANNOPO
 70
     0
  0
APPID
  2
ACADANNOTATIVE
 70
     0
  0
APPID
  2
ACAD_DSTYLE_DIMJAG
 70
     0
  0
APPID
  2
ACAD_DSTYLE_DIMTALN
 70
     0
  0
APPID
  2
ACAD_MLEADERVER
 70
     0
  0
APPID
  2
ACAD_NAV_VCDISPLAY
 70
     0
  0
APPID
  2
ACDBATTR
 70
     0
  0
ENDTAB
  0
TABLE
  2
DIMSTYLE
 70
     2
  0
DIMSTYLE
  2
STANDARD
 70
     0
  3

  4

  5

  6

  7

 40
1.0
 41
0.18
 42
0.0625
 43
0.38
 44
0.18
 45
0.0
 46
0.0
 47
0.0
 48
0.0
140
0.18
141
0.09
142
0.0
143
25.399999999999999
144
1.0
145
0.0
146
1.0
147
0.09
 71
     0
 72
     0
 73
     1
 74
     1
 75
     0
 76
     0
 77
     0
 78
     0
170
     0
171
     2
172
     0
173
     0
174
     0
175
     0
176
     0
177
     0
178
     0
  0
DIMSTYLE
  2
ANNOTATIVE
 70
     0
  3

  4

  5

  6

  7

 40
0.0
 41
0.18
 42
0.0625
 43
0.38
 44
0.18
 45
0.0
 46
0.0
 47
0.0
 48
0.0
140
0.18
141
0.09
142
0.0
143
25.399999999999999
144
1.0
145
0.0
146
1.0
147
0.09
 71
     0
 72
     0
 73
     1
 74
     1
 75
     0
 76
     0
 77
     0
 78
     0
170
     0
171
     2
172
     0
173
     0
174
     0
175
     0
176
     0
177
     0
178
     0
  0
ENDTAB
  0
ENDSEC
  0
SECTION
  2
BLOCKS
  0
BLOCK
  8
0
  2
$MODEL_SPACE
 70
     0
 10
0.0
 20
0.0
 30
0.0
  3
$MODEL_SPACE
  1

  0
ENDBLK
  5
21
  8
0
  0
BLOCK
 67
     1
  8
0
  2
$PAPER_SPACE
 70
     0
 10
0.0
 20
0.0
 30
0.0
  3
$PAPER_SPACE
  1

  0
ENDBLK
  5
5B
 67
     1
  8
0
  0
ENDSEC
  0
SECTION
  2
ENTITIES
  0
ATTDEF
  5
A42
  8
DEFPOINTS
 10
42.75720818641129
 20
16.89530736035514
 30
0.0
 40
0.001
  1
K-3171
  3

  2
MODELNUMBER
 70
     0
1001
ACDBATTR
1070
     0
1070
     1
  0
ATTDEF
  5
A43
  8
DEFPOINTS
 10
42.75720818641129
 20
16.893640693688479
 30
0.0
 40
0.001
  1
UNDERTONE
  3

  2
TRADENAME
 70
     0
1001
ACDBATTR
1070
     0
1070
     1
  0
ATTDEF
  5
A44
  8
DEFPOINTS
 10
42.75720818641129
 20
16.891974027021821
 30
0.0
 40
0.001
  1
KITCHEN SINK
  3

  2
PRODUCT
 70
     0
1001
ACDBATTR
1070
     0
1070
     1
  0
ATTDEF
  5
A45
  8
DEFPOINTS
 10
42.75720818641129
 20
16.890307360355148
 30
0.0
 40
0.001
  1
STAINLESS STEEL
  3

  2
MATERIAL
 70
     0
1001
ACDBATTR
1070
     0
1070
     1
  0
LINE
  5
B27
  8
0
 10
56.903296212570531
 20
25.882941880693171
 30
0.0
 11
28.61750977497055
 21
25.882941880693171
 31
0.0
  0
ARC
  5
B28
  8
0
 10
28.61750977497055
 20
25.382941880693171
 30
0.0
 40
0.5000000000000071
 50
89.999999999999801
 51
135.0000000077994
  0
LINE
  5
B29
  8
0
 10
28.263956384329141
 20
25.736495271238319
 30
0.0
 11
27.156849603403881
 21
24.62938849001166
 31
0.0
  0
ARC
  5
B2A
  8
0
 10
27.510402994708581
 20
24.275835098803231
 30
0.0
 40
0.5000000009380327
 50
135.0000000077994
 51
179.99999990947879
  0
LINE
  5
B2B
  8
0
 10
27.010402993770541
 20
24.27583509959317
 30
0.0
 11
27.010402993770551
 21
9.4900486618931659
 31
0.0
  0
ARC
  5
B2C
  8
0
 10
27.510402782059469
 20
9.4900485741861171
 30
0.0
 40
0.4999997882889307
 50
179.99998994950849
 51
225.00001004786071
  0
LINE
  5
B2D
  8
0
 10
27.156849603170539
 20
9.1364952712931675
 30
0.0
 11
28.263956510891362
 21
8.0293886167139981
 31
0.0
  0
ARC
  5
B2E
  8
0
 10
28.617510264321641
 20
8.3829424509848849
 30
0.0
 40
0.5000005702919584
 50
225.0000065503834
 51
269.99994392455892
  0
LINE
  5
B2F
  8
0
 10
28.61750977497055
 20
7.882941880693167
 30
0.0
 11
56.903296212570531
 21
7.882941880693167
 31
0.0
  0
CIRCLE
  5
B30
  8
0
 10
35.135402993770541
 20
19.757941880693171
 30
0.0
 40
2.25
  0
CIRCLE
  5
B31
  8
0
 10
35.135402993770541
 20
19.757941880693171
 30
0.0
 40
1.678089546700001
  0
CIRCLE
  5
B32
  8
0
 10
35.135402993770541
 20
19.757941880693171
 30
0.0
 40
0.31
  0
CIRCLE
  5
B33
  8
0
 10
35.135402993770541
 20
19.757941880693171
 30
0.0
 40
0.2760924414999999
  0
LINE
  5
B34
  8
0
 10
40.385402980570539
 20
24.757941880693171
 30
0.0
 11
29.88540311384293
 21
24.757941880693171
 31
0.0
  0
ARC
  5
B35
  8
0
 10
29.88540311384293
 20
23.007941760620781
 30
0.0
 40
1.750000120072392
 50
90.0
 51
179.9999960687768
  0
LINE
  5
B36
  8
0
 10
28.135402993770541
 20
23.007941880693171
 30
0.0
 11
28.13540215326389
 21
10.757942106428461
 31
0.0
  0
ARC
  5
B37
  8
0
 10
29.885402095109662
 20
10.75794198635608
 30
0.0
 40
1.749999941845773
 50
179.9999960687768
 51
269.99944246165552
  0
LINE
  5
B38
  8
0
 10
29.885385066070551
 20
9.0079420445931682
 30
0.0
 11
40.385402965956793
 21
9.0078398701808986
 31
0.0
  0
ARC
  5
B39
  8
0
 10
40.38541999483126
 20
10.757822892002631
 30
0.0
 40
1.7499830219045831
 50
269.99944246165552
 51
0.0038957805289896
  0
LINE
  5
B3A
  8
0
 10
42.135403012690581
 20
10.75794188069316
 30
0.0
 11
42.134570083792497
 21
23.007941608677779
 31
0.0
  0
ARC
  5
B3B
  8
0
 10
40.384450558694589
 20
23.007822610705549
 30
0.0
 40
1.7501195291434981
 50
0.0038957805289896
 51
89.968819411707301
  0
LINE
  5
B3C
  8
0
 10
40.385402993770541
 20
25.07255919649317
 30
0.0
 11
29.885402993770551
 21
25.07255919649317
 31
0.0
  0
ARC
  5
B3D
  8
0
 10
29.88539922509332
 20
23.007956301923478
 30
0.0
 40
2.0646028945731341
 50
89.999895413641056
 51
180.0004002076646
  0
LINE
  5
B3E
  8
0
 10
27.820796330570548
 20
23.007941880793162
 30
0.0
 11
27.820785677970541
 21
10.75794188069316
 31
0.0
  0
ARC
  5
B3F
  8
0
 10
29.88678192070395
 20
10.75932080772664
 30
0.0
 40
2.0659967029083859
 50
180.03824144783451
 51
269.9617585549405
  0
LINE
  5
B40
  8
0
 10
29.885402993770551
 20
8.6933245649931656
 30
0.0
 11
40.385295028770543
 21
8.6933298912931676
 31
0.0
  0
ARC
  5
B41
  8
0
 10
40.3853938973431
 20
10.75794564855677
 30
0.0
 40
2.0646157596308661
 50
269.9972562681894
 51
359.99989543687178
  0
LINE
  5
B42
  8
0
 10
42.450009656970543
 20
10.75794188069316
 30
0.0
 11
42.45001498317054
 21
23.007833915093158
 31
0.0
  0
ARC
  5
B43
  8
0
 10
40.385381040912392
 20
23.0079252523314
 30
0.0
 40
2.0646339442784831
 50
359.99746529486288
 51
89.999390784926348
  0
ARC
  5
B44
  8
0
 10
56.903296212570531
 20
25.382941880693171
 30
0.0
 40
0.5000000000000071
 50
44.999999992200557
 51
90.0
  0
LINE
  5
B45
  8
0
 10
57.256849603211947
 20
25.736495271238319
 30
0.0
 11
58.36395638413719
 21
24.62938849001166
 31
0.0
  0
ARC
  5
B46
  8
0
 10
58.01040299283251
 20
24.275835098803231
 30
0.0
 40
0.5000000009380327
 50
0.0000000905211307
 51
44.999999992200557
  0
LINE
  5
B47
  8
0
 10
58.510402993770541
 20
24.27583509959317
 30
0.0
 11
58.510402993770541
 21
9.4900486618931659
 31
0.0
  0
ARC
  5
B48
  8
0
 10
58.01040320548158
 20
9.4900485741861438
 30
0.0
 40
0.4999997882889733
 50
314.99998995213991
 51
0.0000100504886734
  0
LINE
  5
B49
  8
0
 10
58.363956384370532
 20
9.1364952712931675
 30
0.0
 11
57.25684947664972
 21
8.0293886167139981
 31
0.0
  0
ARC
  5
B4A
  8
0
 10
56.903295723219443
 20
8.3829424509848849
 30
0.0
 40
0.5000005702919584
 50
270.00005607544102
 51
314.99999344961662
  0
CIRCLE
  5
B4B
  8
0
 10
50.385402993770541
 20
19.757941880693171
 30
0.0
 40
2.25
  0
CIRCLE
  5
B4C
  8
0
 10
50.385402993770541
 20
19.757941880693171
 30
0.0
 40
1.678089546700001
  0
CIRCLE
  5
B4D
  8
0
 10
50.385402993770541
 20
19.757941880693171
 30
0.0
 40
0.31
  0
CIRCLE
  5
B4E
  8
0
 10
50.385402993770541
 20
19.757941880693171
 30
0.0
 40
0.2760924414999999
  0
LINE
  5
B4F
  8
0
 10
45.135403006970527
 20
24.757941880693171
 30
0.0
 11
55.635402873698141
 21
24.757941880693171
 31
0.0
  0
ARC
  5
B50
  8
0
 10
55.635402873698141
 20
23.007941760620781
 30
0.0
 40
1.750000120072392
 50
0.0000039312231925
 51
90.0
  0
LINE
  5
B51
  8
0
 10
57.385402993770541
 20
23.007941880693171
 30
0.0
 11
57.385403834277191
 21
10.757942106428461
 31
0.0
  0
ARC
  5
B52
  8
0
 10
55.635403892431427
 20
10.75794198635608
 30
0.0
 40
1.749999941845773
 50
270.00055753834448
 51
0.0000039312231925
  0
LINE
  5
B53
  8
0
 10
55.635420921470541
 20
9.0079420445931682
 30
0.0
 11
45.135403021584267
 21
9.0078398701808986
 31
0.0
  0
ARC
  5
B54
  8
0
 10
45.135385992709807
 20
10.757822892002631
 30
0.0
 40
1.7499830219045831
 50
179.99610421947099
 51
270.00055753834448
  0
LINE
  5
B55
  8
0
 10
43.385402974850493
 20
10.75794188069316
 30
0.0
 11
43.38623590374857
 21
23.007941608677779
 31
0.0
  0
ARC
  5
B56
  8
0
 10
45.136355428846493
 20
23.007822610705549
 30
0.0
 40
1.7501195291434981
 50
90.031180588292699
 51
179.99610421947099
  0
LINE
  5
B57
  8
0
 10
45.135402993770541
 20
25.07255919649317
 30
0.0
 11
55.635402993770541
 21
25.07255919649317
 31
0.0
  0
ARC
  5
B58
  8
0
 10
55.635406762447772
 20
23.007956301923478
 30
0.0
 40
2.0646028945731341
 50
359.9995997923354
 51
90.000104586358916
  0
LINE
  5
B59
  8
0
 10
57.700009656970543
 20
23.007941880793162
 30
0.0
 11
57.700020309570533
 21
10.75794188069316
 31
0.0
  0
ARC
  5
B5A
  8
0
 10
55.634024066837128
 20
10.75932080772664
 30
0.0
 40
2.0659967029083859
 50
270.0382414450595
 51
359.96175855216541
  0
LINE
  5
B5B
  8
0
 10
55.635402993770541
 20
8.6933245649931656
 30
0.0
 11
45.135510958770539
 21
8.6933298912931676
 31
0.0
  0
ARC
  5
B5C
  8
0
 10
45.135412090197967
 20
10.75794564855677
 30
0.0
 40
2.0646157596308661
 50
180.0001045631281
 51
270.0027437318106
  0
LINE
  5
B5D
  8
0
 10
43.070796330570531
 20
10.75794188069316
 30
0.0
 11
43.070791004370527
 21
23.007833915093158
 31
0.0
  0
ARC
  5
B5E
  8
0
 10
45.135424946628689
 20
23.0079252523314
 30
0.0
 40
2.0646339442784831
 50
90.000609215073652
 51
180.00253470513709
  0
ENDSEC
  0
EOF
