  0
SECTION
  2
HEADER
  9
$ACADVER
  1
AC1009
  9
$INSBASE
 10
34.881342226808563
 20
17.68839706603395
 30
0.0
  9
$EXTMIN
 10
25.881342226808549
 20
7.9027784747339513
 30
0.0
  9
$EXTMAX
 10
43.881342226808549
 20
17.698144036209651
 30
0.0
  9
$LIMMIN
 10
0.0
 20
0.0
  9
$LIMMAX
 10
12.0
 20
9.0
  9
$ORTHOMODE
 70
     0
  9
$REGENMODE
 70
     1
  9
$FILLMODE
 70
     1
  9
$QTEXTMODE
 70
     0
  9
$MIRRTEXT
 70
     0
  9
$DRAGMODE
 70
     2
  9
$LTSCALE
 40
1.0
  9
$OSMODE
 70
  3071
  9
$ATTMODE
 70
     1
  9
$TEXTSIZE
 40
0.2
  9
$TRACEWID
 40
0.05
  9
$TEXTSTYLE
  7
STANDARD
  9
$CLAYER
  8
0
  9
$CELTYPE
  6
BYLAYER
  9
$CECOLOR
 62
   256
  9
$DIMSCALE
 40
1.0
  9
$DIMASZ
 40
0.18
  9
$DIMEXO
 40
0.0625
  9
$DIMDLI
 40
0.38
  9
$DIMRND
 40
0.0
  9
$DIMDLE
 40
0.0
  9
$DIMEXE
 40
0.18
  9
$DIMTP
 40
0.0
  9
$DIMTM
 40
0.0
  9
$DIMTXT
 40
0.18
  9
$DIMCEN
 40
0.09
  9
$DIMTSZ
 40
0.0
  9
$DIMTOL
 70
     0
  9
$DIMLIM
 70
     0
  9
$DIMTIH
 70
     1
  9
$DIMTOH
 70
     1
  9
$DIMSE1
 70
     0
  9
$DIMSE2
 70
     0
  9
$DIMTAD
 70
     0
  9
$DIMZIN
 70
     0
  9
$DIMBLK
  1

  9
$DIMASO
 70
     1
  9
$DIMSHO
 70
     1
  9
$DIMPOST
  1

  9
$DIMAPOST
  1

  9
$DIMALT
 70
     0
  9
$DIMALTD
 70
     2
  9
$DIMALTF
 40
25.399999999999999
  9
$DIMLFAC
 40
1.0
  9
$DIMTOFL
 70
     0
  9
$DIMTVP
 40
0.0
  9
$DIMTIX
 70
     0
  9
$DIMSOXD
 70
     0
  9
$DIMSAH
 70
     0
  9
$DIMBLK1
  1

  9
$DIMBLK2
  1

  9
$DIMSTYLE
  2
STANDARD
  9
$DIMCLRD
 70
     0
  9
$DIMCLRE
 70
     0
  9
$DIMCLRT
 70
     0
  9
$DIMTFAC
 40
1.0
  9
$DIMGAP
 40
0.09
  9
$LUNITS
 70
     2
  9
$LUPREC
 70
     4
  9
$SKETCHINC
 40
0.1
  9
$FILLETRAD
 40
0.0
  9
$AUNITS
 70
     0
  9
$AUPREC
 70
     0
  9
$MENU
  1
.
  9
$ELEVATION
 40
0.0
  9
$PELEVATION
 40
0.0
  9
$THICKNESS
 40
0.0
  9
$LIMCHECK
 70
     0
  9
$BLIPMODE
 70
     0
  9
$CHAMFERA
 40
0.0
  9
$CHAMFERB
 40
0.0
  9
$SKPOLY
 70
     0
  9
$TDCREATE
 40
2458437.6398934601
  9
$TDUPDATE
 40
2458437.6477361228
  9
$TDINDWG
 40
0.0078439583
  9
$TDUSRTIMER
 40
0.0078439236
  9
$USRTIMER
 70
     1
  9
$ANGBASE
 50
0.0
  9
$ANGDIR
 70
     0
  9
$PDMODE
 70
     0
  9
$PDSIZE
 40
0.0
  9
$PLINEWID
 40
0.0
  9
$COORDS
 70
     2
  9
$SPLFRAME
 70
     0
  9
$SPLINETYPE
 70
     6
  9
$SPLINESEGS
 70
     8
  9
$ATTDIA
 70
     1
  9
$ATTREQ
 70
     1
  9
$HANDLING
 70
     1
  9
$HANDSEED
  5
C52
  9
$SURFTAB1
 70
     6
  9
$SURFTAB2
 70
     6
  9
$SURFTYPE
 70
     6
  9
$SURFU
 70
     6
  9
$SURFV
 70
     6
  9
$UCSNAME
  2

  9
$UCSORG
 10
0.0
 20
0.0
 30
0.0
  9
$UCSXDIR
 10
1.0
 20
0.0
 30
0.0
  9
$UCSYDIR
 10
0.0
 20
1.0
 30
0.0
  9
$PUCSNAME
  2

  9
$PUCSORG
 10
0.0
 20
0.0
 30
0.0
  9
$PUCSXDIR
 10
1.0
 20
0.0
 30
0.0
  9
$PUCSYDIR
 10
0.0
 20
1.0
 30
0.0
  9
$USERI1
 70
     0
  9
$USERI2
 70
     0
  9
$USERI3
 70
     0
  9
$USERI4
 70
     0
  9
$USERI5
 70
     0
  9
$USERR1
 40
0.0
  9
$USERR2
 40
0.0
  9
$USERR3
 40
0.0
  9
$USERR4
 40
0.0
  9
$USERR5
 40
0.0
  9
$WORLDVIEW
 70
     1
  9
$SHADEDGE
 70
     3
  9
$SHADEDIF
 70
    70
  9
$TILEMODE
 70
     1
  9
$MAXACTVP
 70
    64
  9
$PLIMCHECK
 70
     0
  9
$PEXTMIN
 10
0.0
 20
0.0
 30
0.0
  9
$PEXTMAX
 10
0.0
 20
0.0
 30
0.0
  9
$PLIMMIN
 10
0.0
 20
0.0
  9
$PLIMMAX
 10
12.0
 20
9.0
  9
$UNITMODE
 70
     0
  9
$VISRETAIN
 70
     1
  9
$PLINEGEN
 70
     0
  9
$PSLTSCALE
 70
     1
  0
ENDSEC
  0
SECTION
  2
TABLES
  0
TABLE
  2
VPORT
 70
     1
  0
VPORT
  2
*ACTIVE
 70
     0
 10
0.0
 20
0.0
 11
1.0
 21
1.0
 12
0.0
 22
0.0
 13
0.0
 23
0.0
 14
0.5
 24
0.5
 15
0.5
 25
0.5
 16
-0.0000000000000142
 26
0.0
 36
59.530000848832699
 17
34.881342226808563
 27
12.80165782897301
 37
0.0
 40
20.493805788812359
 41
2.1856978085351781
 42
50.0
 43
0.0
 44
0.0
 50
0.0
 51
0.0
 71
     0
 72
  1000
 73
     1
 74
     3
 75
     0
 76
     1
 77
     0
 78
     0
  0
ENDTAB
  0
TABLE
  2
LTYPE
 70
     1
  0
LTYPE
  2
CONTINUOUS
 70
     0
  3
Solid line
 72
    65
 73
     0
 40
0.0
  0
ENDTAB
  0
TABLE
  2
LAYER
 70
     2
  0
LAYER
  2
0
 70
     0
 62
     7
  6
CONTINUOUS
  0
LAYER
  2
DEFPOINTS
 70
     0
 62
     7
  6
CONTINUOUS
  0
ENDTAB
  0
TABLE
  2
STYLE
 70
     2
  0
STYLE
  2
STANDARD
 70
     0
 40
0.0
 41
1.0
 50
0.0
 71
     0
 42
0.2
  3
txt
  4

  0
STYLE
  2
ANNOTATIVE
 70
     0
 40
0.0
 41
1.0
 50
0.0
 71
     0
 42
0.2
  3
txt
  4

  0
ENDTAB
  0
TABLE
  2
VIEW
 70
     0
  0
ENDTAB
  0
TABLE
  2
UCS
 70
     0
  0
ENDTAB
  0
TABLE
  2
APPID
 70
     8
  0
APPID
  2
ACAD
 70
     0
  0
APPID
  2
ACADANNOPO
 70
     0
  0
APPID
  2
ACADANNOTATIVE
 70
     0
  0
APPID
  2
ACAD_DSTYLE_DIMJAG
 70
     0
  0
APPID
  2
ACAD_DSTYLE_DIMTALN
 70
     0
  0
APPID
  2
ACAD_MLEADERVER
 70
     0
  0
APPID
  2
ACAD_NAV_VCDISPLAY
 70
     0
  0
APPID
  2
ACDBATTR
 70
     0
  0
ENDTAB
  0
TABLE
  2
DIMSTYLE
 70
     2
  0
DIMSTYLE
  2
STANDARD
 70
     0
  3

  4

  5

  6

  7

 40
1.0
 41
0.18
 42
0.0625
 43
0.38
 44
0.18
 45
0.0
 46
0.0
 47
0.0
 48
0.0
140
0.18
141
0.09
142
0.0
143
25.399999999999999
144
1.0
145
0.0
146
1.0
147
0.09
 71
     0
 72
     0
 73
     1
 74
     1
 75
     0
 76
     0
 77
     0
 78
     0
170
     0
171
     2
172
     0
173
     0
174
     0
175
     0
176
     0
177
     0
178
     0
  0
DIMSTYLE
  2
ANNOTATIVE
 70
     0
  3

  4

  5

  6

  7

 40
0.0
 41
0.18
 42
0.0625
 43
0.38
 44
0.18
 45
0.0
 46
0.0
 47
0.0
 48
0.0
140
0.18
141
0.09
142
0.0
143
25.399999999999999
144
1.0
145
0.0
146
1.0
147
0.09
 71
     0
 72
     0
 73
     1
 74
     1
 75
     0
 76
     0
 77
     0
 78
     0
170
     0
171
     2
172
     0
173
     0
174
     0
175
     0
176
     0
177
     0
178
     0
  0
ENDTAB
  0
ENDSEC
  0
SECTION
  2
BLOCKS
  0
BLOCK
  8
0
  2
$MODEL_SPACE
 70
     0
 10
0.0
 20
0.0
 30
0.0
  3
$MODEL_SPACE
  1

  0
ENDBLK
  5
21
  8
0
  0
BLOCK
 67
     1
  8
0
  2
$PAPER_SPACE
 70
     0
 10
0.0
 20
0.0
 30
0.0
  3
$PAPER_SPACE
  1

  0
ENDBLK
  5
5B
 67
     1
  8
0
  0
ENDSEC
  0
SECTION
  2
ENTITIES
  0
ATTDEF
  5
A42
  8
DEFPOINTS
 10
34.878094359089467
 20
17.696879370452489
 30
0.0
 40
0.001
  1
K-3171
  3

  2
MODELNUMBER
 70
     0
1001
ACDBATTR
1070
     0
1070
     1
  0
ATTDEF
  5
A43
  8
DEFPOINTS
 10
34.878094359089467
 20
17.69521270378582
 30
0.0
 40
0.001
  1
UNDERTONE
  3

  2
TRADENAME
 70
     0
1001
ACDBATTR
1070
     0
1070
     1
  0
ATTDEF
  5
A44
  8
DEFPOINTS
 10
34.878094359089467
 20
17.693546037119159
 30
0.0
 40
0.001
  1
KITCHEN SINK
  3

  2
PRODUCT
 70
     0
1001
ACDBATTR
1070
     0
1070
     1
  0
ATTDEF
  5
A45
  8
DEFPOINTS
 10
34.878094359089467
 20
17.691879370452501
 30
0.0
 40
0.001
  1
STAINLESS STEEL
  3

  2
MATERIAL
 70
     0
1001
ACDBATTR
1070
     0
1070
     1
  0
ARC
  5
B0B
  8
0
 10
40.138611428489689
 20
8.1105025134008812
 30
0.0
 40
0.0319999999321746
 50
92.999999972934702
 51
143.97262669194151
  0
LINE
  5
B0C
  8
0
 10
40.112731873821531
 20
8.1293240076517872
 30
0.0
 11
40.06116997875845
 21
8.0584264019400642
 31
0.0
  0
ARC
  5
B0D
  8
0
 10
39.997802110148513
 20
8.1039320571508853
 30
0.0
 40
0.0780144308979707
 50
288.00167749183521
 51
324.31716339886799
  0
LINE
  5
B0E
  8
0
 10
40.021912067388378
 20
8.0297366301339501
 30
0.0
 11
39.631175042508559
 21
7.9027784747339513
 31
0.0
  0
LINE
  5
B0F
  8
0
 10
39.631175042508559
 20
7.9027784747339513
 30
0.0
 11
35.881509411008558
 21
7.9027784747339513
 31
0.0
  0
ARC
  5
B10
  8
0
 10
35.374073025027428
 20
8.1105025134008812
 30
0.0
 40
0.0319999999321746
 50
36.027373308058507
 51
87.000000027065283
  0
LINE
  5
B11
  8
0
 10
35.399952579695587
 20
8.1293240076517872
 30
0.0
 11
35.451514474758653
 21
8.0584264019400642
 31
0.0
  0
ARC
  5
B12
  8
0
 10
35.514882343368612
 20
8.1039320571508853
 30
0.0
 40
0.0780144308979707
 50
215.6828366011319
 51
251.9983225081649
  0
LINE
  5
B13
  8
0
 10
35.490772386128732
 20
8.0297366301339501
 30
0.0
 11
35.881509411008558
 21
7.9027784747339513
 31
0.0
  0
LINE
  5
B14
  8
0
 10
43.881342226808549
 20
17.640397066033952
 30
0.0
 11
43.881342226808549
 21
17.68839706603395
 31
0.0
  0
LINE
  5
B15
  8
0
 10
43.881342226808549
 20
17.68839706603395
 30
0.0
 11
25.881342226808549
 21
17.68839706603395
 31
0.0
  0
LINE
  5
B16
  8
0
 10
25.881342226808549
 20
17.68839706603395
 30
0.0
 11
25.881342226808549
 21
17.640397066033952
 31
0.0
  0
LINE
  5
B17
  8
0
 10
25.881342226808549
 20
17.640397066033952
 30
0.0
 11
43.881342226808549
 21
17.640397066033952
 31
0.0
  0
ARC
  5
B18
  8
0
 10
43.089425719339793
 20
17.50831613375944
 30
0.0
 40
0.1381497744881513
 50
107.0458351562511
 51
133.3556079755673
  0
LINE
  5
B19
  8
0
 10
42.994582533268101
 20
17.608765774111689
 30
0.0
 11
42.835970440449138
 21
17.450158565052089
 31
0.0
  0
ARC
  5
B1A
  8
0
 10
42.912323694228427
 20
17.37380296023894
 30
0.0
 40
0.1079814694707666
 50
134.99911790109221
 51
180.012315406055
  0
LINE
  5
B1B
  8
0
 10
42.8043422272521
 20
17.373779750228639
 30
0.0
 11
42.804342062272532
 21
9.8261660674071098
 31
0.0
  0
ARC
  5
B1C
  8
0
 10
41.252567900375773
 20
9.7563831429284331
 30
0.0
 40
1.553342430399425
 50
273.27119437023742
 51
2.5748431783005059
  0
ARC
  5
B1D
  8
0
 10
-1266.083162383605
 20
24943.82768569027
 30
0.0
 40
24969.87402228545
 50
272.99861644767691
 51
273.00138354920909
  0
ARC
  5
B1E
  8
0
 10
26.676644218719069
 20
17.512790466827461
 30
0.0
 40
0.1325661124853303
 50
46.380782990936972
 51
74.278128081699208
  0
LINE
  5
B1F
  8
0
 10
26.768096594208561
 20
17.60876044753395
 30
0.0
 11
26.92664002467372
 21
17.450086946414981
 31
0.0
  0
ARC
  5
B20
  8
0
 10
26.84999600901498
 20
17.373505758746781
 30
0.0
 40
0.1083465894293393
 50
0.1500682725971086
 51
44.976506616319597
  0
LINE
  5
B21
  8
0
 10
26.958342226808561
 20
17.37378953823395
 30
0.0
 11
26.958369038619669
 21
9.9395168696849492
 31
0.0
  0
ARC
  5
B22
  8
0
 10
28.50670508111353
 20
9.9038938215791887
 30
0.0
 40
1.5487457835428891
 50
178.6820107301323
 51
268.45642583927821
  0
ARC
  5
B23
  8
0
 10
20.498954005862
 20
-361.88058741201303
 30
0.0
 40
370.32198640659539
 50
87.69766052229059
 51
88.767409851554774
  0
LINE
  5
B24
  8
0
 10
40.136936677908558
 20
8.1424586584460847
 30
0.0
 11
35.375747775840047
 21
8.142458658433938
 31
0.0
  0
LINE
  5
B25
  8
0
 10
27.134895617308558
 20
17.68839706603395
 30
0.0
 11
27.134895617308558
 21
17.640397066033952
 31
0.0
  0
LINE
  5
B26
  8
0
 10
42.627788836208559
 20
17.68839706603395
 30
0.0
 11
42.627788836208559
 21
17.640397066033952
 31
0.0
  0
ENDSEC
  0
EOF
