  0
SECTION
  2
HEADER
  9
$ACADVER
  1
AC1009
  9
$INSBASE
 10
4474.5244689219998691
 20
162.6865528188488952
 30
0.0
  9
$EXTMIN
 10
4470.2968910182153195
 20
141.3734850140853041
 30
-0.0015258207003583
  9
$EXTMAX
 10
4478.8094021621582215
 20
162.694512601458996
 30
0.0000000349246037
  9
$LIMMIN
 10
0.0
 20
0.0
  9
$LIMMAX
 10
11.6929133858000007
 20
8.2677165353999982
  9
$ORTHOMODE
 70
     0
  9
$REGENMODE
 70
     1
  9
$FILLMODE
 70
     1
  9
$QTEXTMODE
 70
     0
  9
$MIRRTEXT
 70
     0
  9
$DRAGMODE
 70
     2
  9
$LTSCALE
 40
0.6431102362
  9
$OSMODE
 70
  4095
  9
$ATTMODE
 70
     1
  9
$TEXTSIZE
 40
0.2
  9
$TRACEWID
 40
0.05
  9
$TEXTSTYLE
  7
STANDARD
  9
$CLAYER
  8
0
  9
$CELTYPE
  6
BYLAYER
  9
$CECOLOR
 62
   256
  9
$DIMSCALE
 40
1.0
  9
$DIMASZ
 40
0.1875
  9
$DIMEXO
 40
0.0625
  9
$DIMDLI
 40
0.4443307087
  9
$DIMRND
 40
0.0
  9
$DIMDLE
 40
0.0
  9
$DIMEXE
 40
0.125
  9
$DIMTP
 40
0.01
  9
$DIMTM
 40
0.01
  9
$DIMTXT
 40
2.0
  9
$DIMCEN
 40
0.1052362205
  9
$DIMTSZ
 40
0.0
  9
$DIMTOL
 70
     1
  9
$DIMLIM
 70
     0
  9
$DIMTIH
 70
     1
  9
$DIMTOH
 70
     1
  9
$DIMSE1
 70
     0
  9
$DIMSE2
 70
     0
  9
$DIMTAD
 70
     0
  9
$DIMZIN
 70
     0
  9
$DIMBLK
  1

  9
$DIMASO
 70
     1
  9
$DIMSHO
 70
     1
  9
$DIMPOST
  1
\X
  9
$DIMAPOST
  1

  9
$DIMALT
 70
     1
  9
$DIMALTD
 70
     2
  9
$DIMALTF
 40
25.3999999999999986
  9
$DIMLFAC
 40
1.0
  9
$DIMTOFL
 70
     0
  9
$DIMTVP
 40
0.0
  9
$DIMTIX
 70
     0
  9
$DIMSOXD
 70
     0
  9
$DIMSAH
 70
     0
  9
$DIMBLK1
  1

  9
$DIMBLK2
  1

  9
$DIMSTYLE
  2
STANDARD
  9
$DIMCLRD
 70
     0
  9
$DIMCLRE
 70
     0
  9
$DIMCLRT
 70
     0
  9
$DIMTFAC
 40
1.0
  9
$DIMGAP
 40
0.09
  9
$LUNITS
 70
     2
  9
$LUPREC
 70
     4
  9
$SKETCHINC
 40
0.1
  9
$FILLETRAD
 40
0.0
  9
$AUNITS
 70
     0
  9
$AUPREC
 70
     0
  9
$MENU
  1
.
  9
$ELEVATION
 40
0.0
  9
$PELEVATION
 40
0.0
  9
$THICKNESS
 40
0.0
  9
$LIMCHECK
 70
     0
  9
$BLIPMODE
 70
     0
  9
$CHAMFERA
 40
0.0
  9
$CHAMFERB
 40
0.0
  9
$SKPOLY
 70
     0
  9
$TDCREATE
 40
2458060.468368056230247
  9
$TDUPDATE
 40
2459388.7292824070900679
  9
$TDINDWG
 40
0.4495672454
  9
$TDUSRTIMER
 40
0.4495672454
  9
$USRTIMER
 70
     1
  9
$ANGBASE
 50
0.0
  9
$ANGDIR
 70
     0
  9
$PDMODE
 70
     0
  9
$PDSIZE
 40
0.3125
  9
$PLINEWID
 40
0.0
  9
$COORDS
 70
     1
  9
$SPLFRAME
 70
     0
  9
$SPLINETYPE
 70
     6
  9
$SPLINESEGS
 70
     8
  9
$ATTDIA
 70
     1
  9
$ATTREQ
 70
     1
  9
$HANDLING
 70
     1
  9
$HANDSEED
  5
C71A
  9
$SURFTAB1
 70
     6
  9
$SURFTAB2
 70
     6
  9
$SURFTYPE
 70
     6
  9
$SURFU
 70
     6
  9
$SURFV
 70
     6
  9
$UCSNAME
  2

  9
$UCSORG
 10
0.0
 20
0.0
 30
0.0
  9
$UCSXDIR
 10
1.0
 20
0.0
 30
0.0
  9
$UCSYDIR
 10
0.0
 20
1.0
 30
0.0
  9
$PUCSNAME
  2

  9
$PUCSORG
 10
0.0
 20
0.0
 30
0.0
  9
$PUCSXDIR
 10
1.0
 20
0.0
 30
0.0
  9
$PUCSYDIR
 10
0.0
 20
1.0
 30
0.0
  9
$USERI1
 70
     0
  9
$USERI2
 70
     0
  9
$USERI3
 70
     0
  9
$USERI4
 70
     0
  9
$USERI5
 70
     0
  9
$USERR1
 40
0.0
  9
$USERR2
 40
0.0
  9
$USERR3
 40
0.0
  9
$USERR4
 40
0.0
  9
$USERR5
 40
0.0
  9
$WORLDVIEW
 70
     1
  9
$SHADEDGE
 70
     3
  9
$SHADEDIF
 70
    70
  9
$TILEMODE
 70
     1
  9
$MAXACTVP
 70
    64
  9
$PLIMCHECK
 70
     0
  9
$PEXTMIN
 10
1.0000000000000000E+20
 20
1.0000000000000000E+20
 30
1.0000000000000000E+20
  9
$PEXTMAX
 10
-1.0000000000000000E+20
 20
-1.0000000000000000E+20
 30
-1.0000000000000000E+20
  9
$PLIMMIN
 10
0.0
 20
0.0
  9
$PLIMMAX
 10
12.0
 20
9.0
  9
$UNITMODE
 70
     0
  9
$VISRETAIN
 70
     1
  9
$PLINEGEN
 70
     0
  9
$PSLTSCALE
 70
     1
  0
ENDSEC
  0
SECTION
  2
TABLES
  0
TABLE
  2
VPORT
 70
     1
  0
VPORT
  2
*ACTIVE
 70
     0
 10
0.0
 20
0.0
 11
1.0
 21
1.0
 12
671.0090792073741568
 22
26.0387366110222906
 13
0.0
 23
0.0
 14
1.0
 24
1.0
 15
0.0
 25
0.0
 16
0.0
 26
0.0
 36
17.1152628219792007
 17
3803.5440673828129547
 27
125.9952621967499056
 37
0.0
 40
21.4547017415264989
 41
2.0073221757322171
 42
50.0
 43
0.0
 44
0.0
 50
0.0
 51
0.0
 71
     0
 72
   100
 73
     1
 74
     1
 75
     0
 76
     0
 77
     0
 78
     0
  0
ENDTAB
  0
TABLE
  2
LTYPE
 70
     2
  0
LTYPE
  2
CONTINUOUS
 70
     0
  3
Solid line
 72
    65
 73
     0
 40
0.0
  0
LTYPE
  2
PHANTOM2
 70
     0
  3
___ _ _ ___ _ _ ___ _ _ ___ _ _
 72
    65
 73
     6
 40
1.25
 49
0.625
 49
-0.125
 49
0.125
 49
-0.125
 49
0.125
 49
-0.125
  0
ENDTAB
  0
TABLE
  2
LAYER
 70
     2
  0
LAYER
  2
0
 70
     0
 62
   255
  6
CONTINUOUS
  0
LAYER
  2
DEFPOINTS
 70
     0
 62
     7
  6
CONTINUOUS
  0
ENDTAB
  0
TABLE
  2
STYLE
 70
     1
  0
STYLE
  2
STANDARD
 70
     0
 40
0.0
 41
0.8
 50
0.0
 71
     0
 42
0.2
  3
txt
  4

  0
ENDTAB
  0
TABLE
  2
VIEW
 70
     0
  0
ENDTAB
  0
TABLE
  2
UCS
 70
     0
  0
ENDTAB
  0
TABLE
  2
APPID
 70
     9
  0
APPID
  2
ACAD
 70
     0
  0
APPID
  2
ACAD_MLEADERVER
 70
     0
  0
APPID
  2
ACAD_EXEMPT_FROM_CAD_STANDARDS
 70
     0
  0
APPID
  2
ACAD_NAV_VCDISPLAY
 70
     0
  0
APPID
  2
ACAECLAYERSTANDARD
 70
     0
  0
APPID
  2
ACCMTRANSPARENCY
 70
     0
  0
APPID
  2
ACAD_DSTYLE_DIMJAG
 70
     0
  0
APPID
  2
ACAD_DSTYLE_DIMTALN
 70
     0
  0
APPID
  2
ACDBATTR
 70
     0
  0
ENDTAB
  0
TABLE
  2
DIMSTYLE
 70
     1
  0
DIMSTYLE
  2
STANDARD
 70
     0
  3

  4

  5

  6

  7

 40
1.0
 41
0.1875
 42
0.0625
 43
0.38
 44
0.125
 45
0.0
 46
0.0
 47
0.01
 48
0.01
140
0.15625
141
0.09
142
0.0
143
25.3999999999999986
144
1.0
145
0.0
146
1.0
147
0.09
 71
     1
 72
     0
 73
     1
 74
     1
 75
     0
 76
     0
 77
     0
 78
     4
170
     0
171
     2
172
     0
173
     0
174
     0
175
     0
176
     0
177
     0
178
     0
  0
ENDTAB
  0
ENDSEC
  0
SECTION
  2
BLOCKS
  0
BLOCK
  8
0
  2
$MODEL_SPACE
 70
     0
 10
0.0
 20
0.0
 30
0.0
  3
$MODEL_SPACE
  1

  0
ENDBLK
  5
21
  8
0
  0
BLOCK
 67
     1
  8
0
  2
$PAPER_SPACE
 70
     0
 10
0.0
 20
0.0
 30
0.0
  3
$PAPER_SPACE
  1

  0
ENDBLK
  5
1D
 67
     1
  8
0
  0
ENDSEC
  0
SECTION
  2
ENTITIES
  0
ATTDEF
  5
3930
  8
DEFPOINTS
 10
4474.5198791248740235
 20
162.6827849809569102
 30
0.0
 40
0.001
  1
K-31803T-4E2
  3

  2
MODELNUMBER
 70
     0
1001
ACDBATTR
1070
     0
1070
     1
  0
ATTDEF
  5
3931
  8
DEFPOINTS
 10
4474.5198791248740235
 20
162.6811183142901882
 30
0.0
 40
0.001
  1

  3

  2
TRADENAME
 70
     0
1001
ACDBATTR
1070
     0
1070
     1
  0
ATTDEF
  5
3932
  8
DEFPOINTS
 10
4474.5198791248740235
 20
162.6794516476236083
 30
0.0
 40
0.001
  1
BATH AND SHOWER FAUCET
  3

  2
PRODUCT
 70
     0
1001
ACDBATTR
1070
     0
1070
     1
  0
ARC
  5
C53E
  8
0
 10
4476.4392477579785918
 20
158.9954918137794095
 30
0.0
 40
3.2054544998593899
 50
271.2418922135296953
 51
276.7282779921479801
  0
ARC
  5
C53F
  8
0
 10
4476.5287700134831539
 20
158.0937665615163041
 30
0.0
 40
2.2995119117367722
 50
277.1454144159374096
 51
292.7186994251464967
  0
ARC
  5
C540
  8
0
 10
4476.755067281202173
 20
157.5532810745575034
 30
0.0
 40
1.713563949038766
 50
292.7186994251464967
 51
312.1503193729653844
  0
ARC
  5
C541
  8
0
 10
4477.0947467800770028
 20
157.1780133916446118
 30
0.0
 40
1.2073940212529439
 50
312.1503193729653844
 51
332.5801956556642835
  0
ARC
  5
C542
  8
0
 10
4477.3074761522875633
 20
157.0676516551779969
 30
0.0
 40
0.9677411500467205
 50
332.5801956556642835
 51
347.6775822950734209
  0
ARC
  5
C543
  8
0
 10
4477.3441762882030162
 20
157.0596346881685861
 30
0.0
 40
0.9301755842158451
 50
347.6775822950734209
 51
356.3485707662293862
  0
ARC
  5
C544
  8
0
 10
4467.5834375184258533
 20
156.8417724310278913
 30
0.0
 40
10.6902029637758194
 50
0.850194306113159
 51
3.4417811885792631
  0
ARC
  5
C545
  8
0
 10
4477.3234490763252325
 20
157.4574824142034117
 30
0.0
 40
0.9312745871483327
 50
1.604067500334045
 51
17.2974027197087104
  0
ARC
  5
C546
  8
0
 10
4477.096303757757596
 20
157.365600546735692
 30
0.0
 40
1.175639839696982
 50
18.2813769496127705
 51
50.4927020907708481
  0
ARC
  5
C547
  8
0
 10
4476.7257646848283912
 20
156.965205807993101
 30
0.0
 40
1.7205723483424371
 50
49.4548274047799481
 51
58.0836699422185632
  0
ARC
  5
C548
  8
0
 10
4476.0589102812673445
 20
155.7447353553116045
 30
0.0
 40
3.1100946830562251
 50
59.5428656642203507
 51
68.0272529160868942
  0
ARC
  5
C549
  8
0
 10
4477.669687822157357
 20
159.6411284950783056
 30
0.0
 40
1.1065512120378529
 50
235.7556625829355141
 51
246.1692238046036891
  0
ARC
  5
C54A
  8
0
 10
4476.5087199704494196
 20
160.3386302336492122
 30
0.0
 40
0.5485534349996898
 50
62.5422160872185913
 51
89.9999038969476146
  0
ARC
  5
C54B
  8
0
 10
4476.5087199704494196
 20
160.3386302336487006
 30
0.0
 40
0.5485534350002982
 50
29.1461529391532501
 51
62.5422160872185913
  0
ARC
  5
C54C
  8
0
 10
4476.4376061185457729
 20
160.2989737078594032
 30
0.0
 40
0.629977141439333
 50
6.5311383887427157
 51
29.1461529391532501
  0
ARC
  5
C54D
  8
0
 10
4473.8458908955099105
 20
159.7017086190539885
 30
0.0
 40
3.286400757363757
 50
3.0166129461170939
 51
11.7441642611542996
  0
ARC
  5
C54E
  8
0
 10
4477.0540622715816426
 20
159.8640014216782106
 30
0.0
 40
0.0744420553711592
 50
327.1705790593393886
 51
8.2296388185327825
  0
ARC
  5
C54F
  8
0
 10
4495.5901940430712784
 20
158.1008448700463873
 30
0.0
 40
18.5537369612483083
 50
174.672152364218789
 51
178.0678480873685032
  0
ARC
  5
C550
  8
0
 10
4476.5781940231190674
 20
158.9954918137794948
 30
0.0
 40
3.2054544998594179
 50
263.2717220078520199
 51
268.7581077864704184
  0
ARC
  5
C551
  8
0
 10
4476.4886717676154149
 20
158.0937665615163041
 30
0.0
 40
2.2995119117367722
 50
247.2813005748535033
 51
262.8545855840627041
  0
ARC
  5
C552
  8
0
 10
4476.2623744998973052
 20
157.5532810745575034
 30
0.0
 40
1.713563949038766
 50
227.8496806270345871
 51
247.2813005748535033
  0
ARC
  5
C553
  8
0
 10
4475.922695001021566
 20
157.1780133916446118
 30
0.0
 40
1.2073940212529439
 50
210.1645909319182977
 51
227.8496806270345871
  0
ARC
  5
C554
  8
0
 10
4475.9211380233400632
 20
157.365600546735692
 30
0.0
 40
1.175639839696982
 50
129.507297909229095
 51
152.4507630991811027
  0
ARC
  5
C555
  8
0
 10
4476.2916770962701776
 20
156.965205807993101
 30
0.0
 40
1.7205723483424371
 50
121.9163300577813942
 51
130.5451725952200093
  0
ARC
  5
C556
  8
0
 10
4476.9585314998312242
 20
155.7447353553116045
 30
0.0
 40
3.1100946830562251
 50
111.9727470839131058
 51
120.4571343357795996
  0
ARC
  5
C557
  8
0
 10
4475.3477539589412117
 20
159.6411284950783056
 30
0.0
 40
1.1065512120378529
 50
293.8307761953961972
 51
304.2443374170645143
  0
ARC
  5
C558
  8
0
 10
4476.5087218106491491
 20
160.3386302336492122
 30
0.0
 40
0.5485534349996898
 50
90.0000961037298168
 51
117.4577839127813945
  0
ARC
  5
C559
  8
0
 10
4476.5087218106500586
 20
160.3386302336487006
 30
0.0
 40
0.5485534350002982
 50
117.4577839127813945
 51
150.8538470608467037
  0
ARC
  5
C55A
  8
0
 10
4476.5798356625537053
 20
160.2989737078594032
 30
0.0
 40
0.629977141439333
 50
150.8538470608467037
 51
173.4688616112572959
  0
ARC
  5
C55B
  8
0
 10
4479.1715508855877488
 20
159.7017086190539885
 30
0.0
 40
3.286400757363757
 50
168.2558357388456898
 51
176.9833870538828933
  0
ARC
  5
C55C
  8
0
 10
4475.9633795095169262
 20
159.8640014216782106
 30
0.0
 40
0.0744420553711592
 50
171.7703611814671945
 51
212.8294209406606114
  0
ARC
  5
C55D
  8
0
 10
4457.4272477380272903
 20
158.1008448700463873
 30
0.0
 40
18.5537369612483083
 50
1.9321519126314319
 51
5.3278476357811604
  0
ARC
  5
C55E
  8
0
 10
4477.3395668608864071
 20
157.4654113271103881
 30
0.0
 40
0.9149716992887876
 50
336.1131674625432879
 51
1.1359990904052051
  0
ARC
  5
C55F
  8
0
 10
4477.1518917395405879
 20
157.5474489712327966
 30
0.0
 40
1.1197919472372051
 50
312.0901700750583814
 51
336.1635503100127949
  0
ARC
  5
C560
  8
0
 10
4476.7206500182137461
 20
158.0248782782481953
 30
0.0
 40
1.763148897468362
 50
294.7481692680174774
 51
312.0901700750583814
  0
ARC
  5
C561
  8
0
 10
4476.6067646402470928
 20
158.2719355223817104
 30
0.0
 40
2.0351914698602491
 50
282.6565962586112164
 51
294.7481692680174774
  0
ARC
  5
C562
  8
0
 10
4476.4879971195150574
 20
158.8008163587558954
 30
0.0
 40
2.5772437395398402
 50
274.4074518296674796
 51
282.6565962586112164
  0
ARC
  5
C563
  8
0
 10
4476.5113844427787626
 20
158.6631106086464911
 30
0.0
 40
2.4381811942045899
 50
269.9374081253981785
 51
274.108170342485721
  0
ARC
  5
C564
  8
0
 10
4475.8655500415561619
 20
157.5474489712327966
 30
0.0
 40
1.1197919472372051
 50
208.2136504766849043
 51
227.9098299249415902
  0
ARC
  5
C565
  8
0
 10
4476.2967917628848227
 20
158.0248782782481953
 30
0.0
 40
1.763148897468362
 50
227.9098299249415902
 51
245.2518307319824089
  0
ARC
  5
C566
  8
0
 10
4476.410677140853295
 20
158.2719355223817104
 30
0.0
 40
2.0351914698602491
 50
245.2518307319824089
 51
257.3434037413887836
  0
ARC
  5
C567
  8
0
 10
4476.5294446615853303
 20
158.8008163587558954
 30
0.0
 40
2.5772437395398402
 50
257.3434037413887836
 51
265.5925481703325204
  0
ARC
  5
C568
  8
0
 10
4476.5060573383207156
 20
158.6631106086464911
 30
0.0
 40
2.4381811942045899
 50
265.8918296575142222
 51
270.0625918746018215
  0
LINE
  5
C569
  8
0
 10
4470.3217130165503477
 20
162.6865528188488952
 30
0.0
 11
4472.8217130165494382
 21
162.6865528188488952
 31
0.0
  0
LINE
  5
C56A
  8
0
 10
4470.3217130165503477
 20
162.4542466342522005
 30
0.0
 11
4470.3217130165503477
 21
162.6865528188488952
 31
0.0
  0
LINE
  5
C56B
  8
0
 10
4470.359879520051436
 20
162.3867875676882875
 30
0.0
 11
4470.8620942256038688
 21
162.0850265288013929
 31
0.0
  0
LINE
  5
C56C
  8
0
 10
4470.9045630566088221
 20
162.0280178674076978
 30
0.0
 11
4470.8916829425670585
 21
162.0532965145524997
 31
0.0
  0
LINE
  5
C56D
  8
0
 10
4470.9221158851378277
 20
162.0172614802488908
 30
0.0
 11
4472.2213101479601391
 21
162.0172614802488908
 31
0.0
  0
ARC
  5
C56E
  8
0
 10
4470.9221158851378277
 20
162.0369614802488911
 30
0.0
 40
0.0197
 50
206.9999999880973007
 51
270.0
  0
ARC
  5
C56F
  8
0
 10
4470.4004130165485549
 20
162.4542466342522005
 30
0.0
 40
0.0787
 50
179.9999999999787974
 51
238.9999999979980885
  0
ARC
  5
C570
  8
0
 10
4470.8215607291058404
 20
162.0175674622375084
 30
0.0
 40
0.0787
 50
26.9999999880914814
 51
58.9999999979888798
  0
LINE
  5
C571
  8
0
 10
4470.9910043550498813
 20
161.4267102991489082
 30
0.0
 11
4472.1524216780499046
 21
161.4267102991489082
 31
0.0
  0
LINE
  5
C572
  8
0
 10
4470.9910043550498813
 20
161.4267102991489082
 30
0.0
 11
4470.9910043550498813
 21
162.0172614802488908
 31
0.0
  0
LINE
  5
C573
  8
0
 10
4471.0106893944494004
 20
161.9717866936491077
 30
0.0
 11
4471.0106893944494004
 21
161.4721850858489063
 31
0.0
  0
LINE
  5
C574
  8
0
 10
4471.552027977149919
 20
161.4721850858489063
 30
0.0
 11
4471.552027977149919
 21
161.9717866936491077
 31
0.0
  0
ARC
  5
C575
  8
0
 10
4471.281358685799205
 20
161.1858797269647141
 30
0.0
 40
0.8312109392704908
 50
70.9961011467723608
 51
109.0038988532275965
  0
ARC
  5
C576
  8
0
 10
4471.281358685799205
 20
162.2585115304399892
 30
0.0
 40
0.8316075653474539
 50
251.0055122607116971
 51
288.9944877392882745
  0
ARC
  5
C577
  8
0
 10
4471.0013825131709382
 20
161.4492002623996996
 30
0.0
 40
0.0247975835136388
 50
67.956276180020339
 51
114.7408622132118978
  0
ARC
  5
C578
  8
0
 10
4470.9996105067675671
 20
162.0077803439143054
 30
0.0
 40
0.0376601196449518
 50
256.7899507838448017
 51
287.1084267238812799
  0
LINE
  5
C579
  8
0
 10
4472.1524216780499046
 20
161.4267102991489082
 30
0.0
 11
4472.1524216780499046
 21
162.0172614802488908
 31
0.0
  0
LINE
  5
C57A
  8
0
 10
4472.1327366386485664
 20
161.9717866936491077
 30
0.0
 11
4472.1327366386485664
 21
161.4721850858489063
 31
0.0
  0
LINE
  5
C57B
  8
0
 10
4471.5913980559498668
 20
161.4721850858489063
 30
0.0
 11
4471.5913980559498668
 21
161.9717866936491077
 31
0.0
  0
ARC
  5
C57C
  8
0
 10
4471.8620673472987619
 20
161.1858797269647141
 30
0.0
 40
0.8312109392704908
 50
70.9961011467723608
 51
109.0038988532275965
  0
ARC
  5
C57D
  8
0
 10
4471.8620673472987619
 20
162.2585115304399892
 30
0.0
 40
0.8316075653474539
 50
251.0055122607116971
 51
288.9944877392882745
  0
ARC
  5
C57E
  8
0
 10
4472.1420435199270287
 20
161.4492002623996996
 30
0.0
 40
0.0247975835136388
 50
65.2591377867881164
 51
112.0437238199796042
  0
ARC
  5
C57F
  8
0
 10
4472.1438155263313092
 20
162.0077803439143054
 30
0.0
 40
0.0376601196449518
 50
252.8915732761186064
 51
283.2100492161551983
  0
LINE
  5
C580
  8
0
 10
4472.8217130165494382
 20
162.4542466342522005
 30
0.0
 11
4472.8217130165494382
 21
162.6865528188488952
 31
0.0
  0
LINE
  5
C581
  8
0
 10
4472.7835465130474404
 20
162.3867875676882875
 30
0.0
 11
4472.281331807494098
 21
162.0850265288013929
 31
0.0
  0
LINE
  5
C582
  8
0
 10
4472.2388629764891448
 20
162.0280178674076978
 30
0.0
 11
4472.2517430905318179
 21
162.0532965145524997
 31
0.0
  0
ARC
  5
C583
  8
0
 10
4472.2213101479601391
 20
162.0369614802488911
 30
0.0
 40
0.0197
 50
270.0
 51
333.0000000119027277
  0
ARC
  5
C584
  8
0
 10
4472.743013016549412
 20
162.4542466342522005
 30
0.0
 40
0.0787
 50
301.0000000020017978
 51
0.0000000000211698
  0
ARC
  5
C585
  8
0
 10
4472.3218653039921264
 20
162.0175674622375084
 30
0.0
 40
0.0787
 50
121.0000000020111059
 51
153.0000000119084973
  0
ARC
  5
C586
  8
0
 10
4471.5717130165494382
 20
162.0230649748100973
 30
0.0
 40
0.0549268868133762
 50
248.9988786344063101
 51
291.0011213655936899
  0
ARC
  5
C587
  8
0
 10
4471.5717130165494382
 20
161.438914243003012
 30
0.0
 40
0.0386581137649067
 50
59.3888785491267512
 51
120.611121450873199
  0
LINE
  5
C588
  8
0
 10
4470.8916829425670585
 20
162.0532965145524997
 30
0.0
 11
4472.2517430905318179
 21
162.0532965145524997
 31
0.0
  0
LINE
  5
C589
  8
0
 10
4470.359879520051436
 20
162.3867875676884012
 30
0.0
 11
4472.7835465130474404
 21
162.3867875676884012
 31
0.0
  0
LINE
  5
C58A
  8
0
 10
4470.9828320222177354
 20
161.3873129287489121
 30
0.0
 11
4473.1164512160830782
 21
161.3873129287489121
 31
0.0
  0
LINE
  5
C58B
  8
0
 10
4475.4992427300840063
 20
161.3873129287489121
 30
0.0
 11
4478.0661058217801838
 21
161.3873129287489121
 31
0.0
  0
LINE
  5
C58C
  8
0
 10
4471.9642130165502749
 20
161.3873129287489121
 30
0.0
 11
4471.9642130165502749
 21
161.4267102991489082
 31
0.0
  0
LINE
  5
C58D
  8
0
 10
4471.1792130165504204
 20
161.3873129287489121
 30
0.0
 11
4471.1792130165504204
 21
161.4267102991489082
 31
0.0
  0
LINE
  5
C58E
  8
0
 10
4471.6740084369430406
 20
160.5976634077539984
 30
0.0
 11
4472.6678165874536717
 21
160.5075373283486044
 31
0.0
  0
ARC
  5
C58F
  8
0
 10
4471.7467149888443601
 20
161.3993887723950138
 30
0.0
 40
0.8050154055274304
 50
183.8551669453210025
 51
264.8181576242873234
  0
ARC
  5
C590
  8
0
 10
4470.9828320222177354
 20
161.3479129287485137
 30
0.0
 40
0.0394
 50
90.000000000260556
 51
183.8551669447309109
  0
LINE
  5
C591
  8
0
 10
4472.7125363651912267
 20
159.564208143314886
 30
0.0
 11
4474.1701382133496736
 21
159.5578481151488859
 31
0.0
  0
LINE
  5
C592
  8
0
 10
4474.878799630649155
 20
159.5547559767985888
 30
0.0
 11
4475.3393890884999564
 21
159.5527462634269114
 31
0.0
  0
LINE
  5
C593
  8
0
 10
4472.712536365224878
 20
161.1159841085832056
 30
0.0
 11
4474.2488783708504343
 21
161.122687707748895
 31
0.0
  0
LINE
  5
C594
  8
0
 10
4474.8000594732493482
 20
161.1250927042696901
 30
0.0
 11
4475.3393890884999564
 21
161.1274459885941894
 31
0.0
  0
LINE
  5
C595
  8
0
 10
4472.6733101129948409
 20
159.6032276760913078
 30
0.0
 11
4472.6662012054493971
 21
160.3400961259488895
 31
0.0
  0
LINE
  5
C596
  8
0
 10
4472.6662012054493971
 20
160.3400961259488895
 30
0.0
 11
4472.6733101130303112
 21
161.0769645758086881
 31
0.0
  0
ARC
  5
C597
  8
0
 10
4472.7127082796114337
 20
161.076584483642705
 30
0.0
 40
0.0394
 50
90.2500000005647678
 51
179.4472585092374004
  0
ARC
  5
C598
  8
0
 10
4472.7127082795750539
 20
159.6036077682553014
 30
0.0
 40
0.0394
 50
180.5527414879514083
 51
269.7500000021449864
  0
ARC
  5
C599
  8
0
 10
4474.52473348049989
 20
145.3794662045989128
 30
0.0
 40
3.995785710349995
 50
95.0912574276823079
 51
84.9163596158216905
  0
ARC
  5
C59A
  8
0
 10
4474.5244689220498913
 20
145.3794662046489066
 30
0.0
 40
0.7480314948000001
 50
118.273713686768204
 51
61.7262863219296207
  0
ARC
  5
C59B
  8
0
 10
4474.5244689220498913
 20
145.3794662047488941
 30
0.0
 40
0.7874015747999999
 50
116.7436839536597972
 51
63.2563160545054401
  0
ARC
  5
C59C
  8
0
 10
4474.5244689220498913
 20
145.3794662046489066
 30
0.0
 40
0.5275590550924476
 50
132.193905835559093
 51
47.806094179083928
  0
ARC
  5
C59D
  8
0
 10
4474.5244689220498913
 20
145.3794662046489066
 30
0.0
 40
0.3889988020377021
 50
155.6270600369815043
 51
24.3729399987171291
  0
ARC
  5
C59E
  8
0
 10
4474.5244689219998691
 20
145.3794662046489066
 30
0.0
 40
0.4133858701206806
 50
148.9972708647586899
 51
31.0027291352412995
  0
LINE
  5
C59F
  8
0
 10
4474.878799630649155
 20
145.3794662046489066
 30
0.0
 11
4474.878799630649155
 21
160.3392447353255079
 31
0.0
  0
LINE
  5
C5A0
  8
0
 10
4474.1701382133496736
 20
145.3794662046489066
 30
0.0
 11
4474.1701382133496736
 21
160.3392447353255079
 31
0.0
  0
ARC
  5
C5A1
  8
0
 10
4474.5244689220498913
 20
145.3794662046489066
 30
0.0
 40
0.3543307086000009
 50
180.0
 51
0.0
  0
LINE
  5
C5A2
  8
0
 10
4473.6783740553401003
 20
158.7416709291489099
 30
0.0
 11
4474.1701382133496736
 21
158.7416709291489099
 31
0.0
  0
LINE
  5
C5A3
  8
0
 10
4473.6780122291493171
 20
158.7495449448489069
 30
0.0
 11
4474.1701382133496736
 21
158.7495449448489069
 31
0.0
  0
LINE
  5
C5A4
  8
0
 10
4473.6780122291493171
 20
158.7692299842489092
 30
0.0
 11
4474.1701382133496736
 21
158.7692299842489092
 31
0.0
  0
LINE
  5
C5A5
  8
0
 10
4473.6780122291493171
 20
158.7692299842489092
 30
0.0
 11
4473.6780122291493171
 21
158.7495449448489069
 31
0.0
  0
LINE
  5
C5A6
  8
0
 10
4473.658327189749798
 20
158.722521391854599
 30
0.0
 11
4473.6719403511979181
 21
157.9617734307485932
 31
0.0
  0
ARC
  5
C5A7
  8
0
 10
4473.6786490368085651
 20
158.7213151727742115
 30
0.0
 40
0.0203576136222935
 50
90.7739491020444831
 51
176.6031497410886004
  0
LINE
  5
C5A8
  8
0
 10
4473.658327189749798
 20
158.8086299842489098
 30
0.0
 11
4473.658327189749798
 21
159.5600813261796134
 31
0.0
  0
ARC
  5
C5A9
  8
0
 10
4473.697727189748548
 20
158.8086299842489098
 30
0.0
 40
0.0394
 50
180.0000000000212026
 51
270.0
  0
ARC
  5
C5AA
  8
0
 10
4473.7094169140800659
 20
158.7371631937216137
 30
0.0
 40
0.012451730616714
 50
21.2241051724042507
 51
83.9226847770598141
  0
ARC
  5
C5AB
  8
0
 10
4474.5244689220498913
 20
169.8204110865530083
 30
0.0
 40
11.9251968504040597
 50
266.0772005524158885
 51
268.2973327133641988
  0
ARC
  5
C5AC
  8
0
 10
4473.7113343503870055
 20
157.9624610555636082
 30
0.0
 40
0.0394
 50
181.0000000020554012
 51
266.07720055236382
  0
LINE
  5
C5AD
  8
0
 10
4473.9732878196482488
 20
156.5714467870554927
 30
0.0
 11
4473.9732878196482488
 21
157.9079588069741078
 31
0.0
  0
ARC
  5
C5AE
  8
0
 10
4474.3957742149359547
 20
156.5847927552655108
 30
0.0
 40
0.4226971363395828
 50
181.809320883074605
 51
237.7373897704414958
  0
LINE
  5
C5AF
  8
0
 10
4473.4647988340893789
 20
160.6353717165488888
 30
0.0
 11
4473.5783196140564542
 21
160.6353717165488888
 31
0.0
  0
LINE
  5
C5B0
  8
0
 10
4473.4626075614996807
 20
160.0448205354489062
 30
0.0
 11
4473.578565165234977
 21
160.0448205354489062
 31
0.0
  0
ARC
  5
C5B1
  8
0
 10
4473.4912319315972127
 20
160.3399939791202939
 30
0.0
 40
0.2965581164162616
 50
95.1137278760285909
 51
264.4610758025352766
  0
ARC
  5
C5B2
  8
0
 10
4473.5008468747491861
 20
160.3400961259488895
 30
0.0
 40
0.3228346457000031
 50
62.2996513427690033
 51
297.6993391257179837
  0
ARC
  5
C5B3
  8
0
 10
4473.5768323166030314
 20
160.3400954565304914
 30
0.0
 40
0.2952800057303922
 50
270.336241808033094
 51
89.7114053588510245
  0
ARC
  5
C5B4
  8
0
 10
4473.5807561456886106
 20
160.3400970880585987
 30
0.0
 40
0.2952846811408752
 50
90.4727795661806056
 51
269.5748676007175959
  0
ARC
  5
C5B5
  8
0
 10
4474.5244689220498913
 20
160.3392447353255079
 30
0.0
 40
0.3543307086000009
 50
0.0
 51
180.0
  0
ARC
  5
C5B6
  8
0
 10
4474.5244689220498913
 20
160.3400961259488895
 30
0.0
 40
0.358267716499996
 50
351.4981107214737222
 51
188.5018891703545023
  0
ARC
  5
C5B7
  8
0
 10
4474.5244689220498913
 20
160.3400961259488895
 30
0.0
 40
0.3681006584999983
 50
344.2788707017970182
 51
195.7211292407527026
  0
ARC
  5
C5B8
  8
0
 10
4474.5244689220498913
 20
160.3400961259488895
 30
0.0
 40
0.3838582676999975
 50
337.3801350340567069
 51
202.6198649271441923
  0
ARC
  5
C5B9
  8
0
 10
4474.5244689220498913
 20
160.3400961259488895
 30
0.0
 40
0.6299212598000034
 50
304.2288663237068818
 51
235.7711336653156025
  0
LINE
  5
C5BA
  8
0
 10
4475.1150201031487086
 20
160.1208928046935114
 30
0.0
 11
4475.1150201031487086
 21
160.5592994472044097
 31
0.0
  0
LINE
  5
C5BB
  8
0
 10
4473.9339177409492549
 20
160.5592994472044097
 30
0.0
 11
4473.9339177409492549
 21
160.1208928046935114
 31
0.0
  0
LINE
  5
C5BC
  8
0
 10
4473.6583421503491991
 20
162.6865528188488952
 30
0.0
 11
4475.39059569364872
 21
162.6865528188488952
 31
0.0
  0
LINE
  5
C5BD
  8
0
 10
4475.4102956936485498
 20
162.6668528188488949
 30
0.0
 11
4475.4102956936485498
 21
162.4109921888488941
 31
0.0
  0
LINE
  5
C5BE
  8
0
 10
4475.3708956936488903
 20
162.3715921888488936
 30
0.0
 11
4473.6780421503490288
 21
162.3715921888488936
 31
0.0
  0
LINE
  5
C5BF
  8
0
 10
4473.6386421503502788
 20
162.6668528188488949
 30
0.0
 11
4473.6386421503502788
 21
162.4109921888488941
 31
0.0
  0
ARC
  5
C5C0
  8
0
 10
4473.6583421503491991
 20
162.6668528188488949
 30
0.0
 40
0.0197
 50
90.0
 51
180.0
  0
ARC
  5
C5C1
  8
0
 10
4475.39059569364872
 20
162.6668528188488949
 30
0.0
 40
0.0197
 50
0.0000000000211698
 51
89.9999999999478888
  0
ARC
  5
C5C2
  8
0
 10
4475.3708956936488903
 20
162.4109921888488941
 30
0.0
 40
0.0394
 50
270.0
 51
0.0
  0
ARC
  5
C5C3
  8
0
 10
4473.6780421503490288
 20
162.4109921888488941
 30
0.0
 40
0.0394
 50
179.9999999999787974
 51
270.0
  0
LINE
  5
C5C4
  8
0
 10
4474.9771949062496788
 20
161.5054504566489015
 30
0.0
 11
4474.0717429377491499
 21
161.5054504566489015
 31
0.0
  0
LINE
  5
C5C5
  8
0
 10
4474.0323429377485809
 20
162.332192188848893
 30
0.0
 11
4474.0323429377485809
 21
161.5448504566489021
 31
0.0
  0
LINE
  5
C5C6
  8
0
 10
4475.0165949062493382
 20
161.5448504566489021
 30
0.0
 11
4475.0165949062493382
 21
162.332192188848893
 31
0.0
  0
ARC
  5
C5C7
  8
0
 10
4475.0559949062499072
 20
162.332192188848893
 30
0.0
 40
0.0394
 50
90.0
 51
180.0000000000098055
  0
ARC
  5
C5C8
  8
0
 10
4473.9929429377498309
 20
162.332192188848893
 30
0.0
 40
0.0394
 50
0.0
 51
90.0
  0
ARC
  5
C5C9
  8
0
 10
4474.9771949062496788
 20
161.5448504566489021
 30
0.0
 40
0.0394
 50
270.0
 51
0.0000000000211698
  0
ARC
  5
C5CA
  8
0
 10
4474.0717429377491499
 20
161.5448504566489021
 30
0.0
 40
0.0394
 50
179.9999999999787974
 51
270.0
  0
LINE
  5
C5CB
  8
0
 10
4474.8000594732493482
 20
161.5054504566489015
 30
0.0
 11
4474.8000594732493482
 21
160.9065329199844996
 31
0.0
  0
LINE
  5
C5CC
  8
0
 10
4474.2488783708504343
 20
161.5054504566489015
 30
0.0
 11
4474.2488783708504343
 21
160.9065329199844996
 31
0.0
  0
LINE
  5
C5CD
  8
0
 10
4478.7272248274502999
 20
162.6865528188488952
 30
0.0
 11
4476.2272248274493904
 21
162.6865528188488952
 31
0.0
  0
LINE
  5
C5CE
  8
0
 10
4478.7272248274502999
 20
162.4542466342522005
 30
0.0
 11
4478.7272248274502999
 21
162.6865528188488952
 31
0.0
  0
LINE
  5
C5CF
  8
0
 10
4478.6890583239473926
 20
162.3867875676882875
 30
0.0
 11
4478.1868436183940503
 21
162.0850265288013929
 31
0.0
  0
LINE
  5
C5D0
  8
0
 10
4478.144374787389097
 20
162.0280178674076978
 30
0.0
 11
4478.1572549014308606
 21
162.0532965145524997
 31
0.0
  0
LINE
  5
C5D1
  8
0
 10
4478.1268219588610009
 20
162.0172614802488908
 30
0.0
 11
4476.82762769603778
 21
162.0172614802488908
 31
0.0
  0
ARC
  5
C5D2
  8
0
 10
4478.1268219588610009
 20
162.0369614802488911
 30
0.0
 40
0.0197
 50
270.0
 51
333.0000000119027277
  0
ARC
  5
C5D3
  8
0
 10
4478.6485248274493642
 20
162.4542466342522005
 30
0.0
 40
0.0787
 50
301.0000000020017978
 51
0.0000000000211698
  0
ARC
  5
C5D4
  8
0
 10
4478.2273771148929882
 20
162.0175674622375084
 30
0.0
 40
0.0787
 50
121.0000000020111059
 51
153.0000000119084973
  0
LINE
  5
C5D5
  8
0
 10
4478.0579334889498568
 20
161.4267102991489082
 30
0.0
 11
4476.896516165948924
 21
161.4267102991489082
 31
0.0
  0
LINE
  5
C5D6
  8
0
 10
4478.0579334889498568
 20
161.4267102991489082
 30
0.0
 11
4478.0579334889498568
 21
162.0172614802488908
 31
0.0
  0
LINE
  5
C5D7
  8
0
 10
4478.0382484495494282
 20
161.9717866936491077
 30
0.0
 11
4478.0382484495494282
 21
161.4721850858489063
 31
0.0
  0
LINE
  5
C5D8
  8
0
 10
4477.4969098668489096
 20
161.4721850858489063
 30
0.0
 11
4477.4969098668489096
 21
161.9717866936491077
 31
0.0
  0
ARC
  5
C5D9
  8
0
 10
4477.7675791581987141
 20
161.1858797269647141
 30
0.0
 40
0.8312109392704908
 50
70.9961011467723608
 51
109.0038988532275965
  0
ARC
  5
C5DA
  8
0
 10
4477.7675791581987141
 20
162.2585115304399892
 30
0.0
 40
0.8316075653474539
 50
251.0055122607116971
 51
288.9944877392882745
  0
ARC
  5
C5DB
  8
0
 10
4478.0475553308269809
 20
161.4492002623996996
 30
0.0
 40
0.0247975835136388
 50
65.2591377867881164
 51
112.0437238199796042
  0
ARC
  5
C5DC
  8
0
 10
4478.0493273372312615
 20
162.0077803439143054
 30
0.0
 40
0.0376601196449518
 50
252.8915732761186064
 51
283.2100492161551983
  0
LINE
  5
C5DD
  8
0
 10
4476.896516165948924
 20
161.4267102991489082
 30
0.0
 11
4476.896516165948924
 21
162.0172614802488908
 31
0.0
  0
LINE
  5
C5DE
  8
0
 10
4476.9162012053493527
 20
161.9717866936491077
 30
0.0
 11
4476.9162012053493527
 21
161.4721850858489063
 31
0.0
  0
LINE
  5
C5DF
  8
0
 10
4477.4575397880498713
 20
161.4721850858489063
 30
0.0
 11
4477.4575397880498713
 21
161.9717866936491077
 31
0.0
  0
ARC
  5
C5E0
  8
0
 10
4477.1868704966991572
 20
161.1858797269647141
 30
0.0
 40
0.8312109392704908
 50
70.9961011467723608
 51
109.0038988532275965
  0
ARC
  5
C5E1
  8
0
 10
4477.1868704966991572
 20
162.2585115304399892
 30
0.0
 40
0.8316075653474539
 50
251.0055122607116971
 51
288.9944877392882745
  0
ARC
  5
C5E2
  8
0
 10
4476.9068943240717999
 20
161.4492002623996996
 30
0.0
 40
0.0247975835136388
 50
67.956276180020339
 51
114.7408622132118978
  0
ARC
  5
C5E3
  8
0
 10
4476.9051223176684289
 20
162.0077803439143054
 30
0.0
 40
0.0376601196449518
 50
256.7899507838448017
 51
287.1084267238812799
  0
LINE
  5
C5E4
  8
0
 10
4476.2272248274493904
 20
162.4542466342522005
 30
0.0
 11
4476.2272248274493904
 21
162.6865528188488952
 31
0.0
  0
LINE
  5
C5E5
  8
0
 10
4476.2653913309513882
 20
162.3867875676882875
 30
0.0
 11
4476.7676060365038211
 21
162.0850265288013929
 31
0.0
  0
LINE
  5
C5E6
  8
0
 10
4476.8100748675087743
 20
162.0280178674076978
 30
0.0
 11
4476.7971947534679202
 21
162.0532965145524997
 31
0.0
  0
ARC
  5
C5E7
  8
0
 10
4476.82762769603778
 20
162.0369614802488911
 30
0.0
 40
0.0197
 50
206.9999999880973007
 51
270.0
  0
ARC
  5
C5E8
  8
0
 10
4476.3059248274494166
 20
162.4542466342522005
 30
0.0
 40
0.0787
 50
179.9999999999787974
 51
238.9999999979980885
  0
ARC
  5
C5E9
  8
0
 10
4476.7270725400067022
 20
162.0175674622375084
 30
0.0
 40
0.0787
 50
26.9999999880914814
 51
58.9999999979888798
  0
ARC
  5
C5EA
  8
0
 10
4477.4772248274493904
 20
162.0230649748100973
 30
0.0
 40
0.0549268868133762
 50
248.9988786344063101
 51
291.0011213655936899
  0
ARC
  5
C5EB
  8
0
 10
4477.4772248274493904
 20
161.438914243003012
 30
0.0
 40
0.0386581137649067
 50
59.3888785491267512
 51
120.611121450873199
  0
LINE
  5
C5EC
  8
0
 10
4478.1572549014308606
 20
162.0532965145524997
 30
0.0
 11
4476.7971947534679202
 21
162.0532965145524997
 31
0.0
  0
LINE
  5
C5ED
  8
0
 10
4478.6890583239473926
 20
162.3867875676884012
 30
0.0
 11
4476.2653913309513882
 21
162.3867875676884012
 31
0.0
  0
LINE
  5
C5EE
  8
0
 10
4477.0847248274485537
 20
161.3873129287489121
 30
0.0
 11
4477.0847248274485537
 21
161.4267102991489082
 31
0.0
  0
LINE
  5
C5EF
  8
0
 10
4477.8697248274493177
 20
161.3873129287489121
 30
0.0
 11
4477.8697248274493177
 21
161.4267102991489082
 31
0.0
  0
ARC
  5
C5F0
  8
0
 10
4477.3022228551553781
 20
161.3993887723950138
 30
0.0
 40
0.8050154055274304
 50
275.1818423757126766
 51
356.1448330546788839
  0
ARC
  5
C5F1
  8
0
 10
4478.0661058217801838
 20
161.3479129287485137
 30
0.0
 40
0.0394
 50
356.1448330552689754
 51
89.999999999739444
  0
LINE
  5
C5F2
  8
0
 10
4477.374929407055788
 20
160.5976634077539984
 30
0.0
 11
4477.0089056335627902
 21
160.5644695889500042
 31
0.0
  0
LINE
  5
C5F3
  8
0
 10
4476.9559214832133875
 20
160.7079250492957954
 30
0.0
 11
4476.9200199892256933
 21
160.70159464733851
 31
0.0
  0
LINE
  5
C5F4
  8
0
 10
4476.988411038583763
 20
160.7490522762948899
 30
0.0
 11
4476.9679423970628704
 21
161.0951945165089114
 31
0.0
  0
LINE
  5
C5F5
  8
0
 10
4475.3512405755491272
 20
159.5645461510993925
 30
0.0
 11
4475.3512405755491272
 21
161.1156461009217082
 31
0.0
  0
LINE
  5
C5F6
  8
0
 10
4475.3709256149486464
 20
161.1155942743976084
 30
0.0
 11
4475.3709256149486464
 21
159.5645979775003127
 31
0.0
  0
ARC
  5
C5F7
  8
0
 10
4475.3394405755498155
 20
159.5645461510993925
 30
0.0
 40
0.0118
 50
269.7500000020929178
 51
0.0000000000683946
  0
ARC
  5
C5F8
  8
0
 10
4475.3394405755498155
 20
161.1156461009217082
 30
0.0
 40
0.0118
 50
0.0000000000683946
 51
90.2500000005126708
  0
LINE
  5
C5F9
  8
0
 10
4475.3828285880690601
 20
161.127393825089797
 30
0.0
 11
4476.9484486630699394
 21
161.113730865635489
 31
0.0
  0
ARC
  5
C5FA
  8
0
 10
4475.3827256149497771
 20
161.1155942743976084
 30
0.0
 40
0.0118
 50
89.4999999981584722
 51
180.0
  0
LINE
  5
C5FB
  8
0
 10
4475.3828285880690601
 20
159.5527984268080957
 30
0.0
 11
4475.9237137976633676
 21
159.5575186605389888
 31
0.0
  0
ARC
  5
C5FC
  8
0
 10
4475.3827256149497771
 20
159.5645979775003127
 30
0.0
 40
0.0118
 50
180.0000000001384137
 51
270.5000000017373054
  0
LINE
  5
C5FD
  8
0
 10
4475.3709256149486464
 20
159.657540665248888
 30
0.0
 11
4475.3512405755491272
 21
159.657540665248888
 31
0.0
  0
LINE
  5
C5FE
  8
0
 10
4475.3709256149486464
 20
161.022651586648891
 30
0.0
 11
4475.3512405755491272
 21
161.022651586648891
 31
0.0
  0
ARC
  5
C5FF
  8
0
 10
4476.9490797450971513
 20
160.7467264747793081
 30
0.0
 40
0.0394
 50
279.9999998756035779
 51
3.3841655984846701
  0
ARC
  5
C600
  8
0
 10
4476.9482767503195646
 20
161.0940316157511063
 30
0.0
 40
0.0197
 50
3.3841655985285608
 51
89.4999999982626804
  0
LINE
  5
C601
  8
0
 10
4475.3705637886587283
 20
158.7416709291489099
 30
0.0
 11
4474.878799630649155
 21
158.7416709291489099
 31
0.0
  0
LINE
  5
C602
  8
0
 10
4475.370925614848602
 20
158.7495449448489069
 30
0.0
 11
4474.878799630649155
 21
158.7495449448489069
 31
0.0
  0
LINE
  5
C603
  8
0
 10
4475.370925614848602
 20
158.7692299842489092
 30
0.0
 11
4474.878799630649155
 21
158.7692299842489092
 31
0.0
  0
LINE
  5
C604
  8
0
 10
4475.370925614848602
 20
158.7692299842489092
 30
0.0
 11
4475.370925614848602
 21
158.7495449448489069
 31
0.0
  0
LINE
  5
C605
  8
0
 10
4475.3902607882537268
 20
158.7216271167413879
 30
0.0
 11
4475.385126321437383
 21
158.4274737104587132
 31
0.0
  0
ARC
  5
C606
  8
0
 10
4475.3705637886587283
 20
158.7219709291489096
 30
0.0
 40
0.0197
 50
358.9999999979430072
 51
89.9999999999478888
  0
LINE
  5
C607
  8
0
 10
4475.3906106542490306
 20
158.8086299842489098
 30
0.0
 11
4475.3906106542490306
 21
159.5528663398710876
 31
0.0
  0
ARC
  5
C608
  8
0
 10
4475.3512106542493711
 20
158.8086299842489098
 30
0.0
 40
0.0394
 50
270.0
 51
359.9999999999789111
  0
ARC
  5
C609
  8
0
 10
4475.3395209299178532
 20
158.7371631937216137
 30
0.0
 40
0.012451730616714
 50
96.0773152229401859
 51
158.7758948275958062
  0
ARC
  5
C60A
  8
0
 10
4474.653163629062874
 20
156.5847927552655108
 30
0.0
 40
0.4226971363395828
 50
302.2626102295585042
 51
330.3418026911576248
  0
ARC
  5
C60B
  8
0
 10
4474.9985431114610037
 20
163.0284013114840889
 30
0.0
 40
2.497086498822032
 50
214.8037903603832035
 51
229.8782387355537082
  0
ARC
  5
C60C
  8
0
 10
4473.1932254882367488
 20
161.7321206904564121
 30
0.0
 40
0.2769359471292347
 50
25.2447606279026999
 51
207.7571936914733897
  0
ARC
  5
C60D
  8
0
 10
4475.4597362914373662
 20
163.5412853995183866
 30
0.0
 40
2.6313533693774511
 50
219.9901674308711961
 51
226.7963029428183859
  0
LINE
  5
C60E
  8
0
 10
4473.658327189749798
 20
162.376879429820292
 30
0.0
 11
4473.658327189749798
 21
161.1201109257625887
 31
0.0
  0
LINE
  5
C60F
  8
0
 10
4475.390610654349075
 20
162.3768794298781017
 30
0.0
 11
4475.390610654349075
 21
161.1273259120258956
 31
0.0
  0
ARC
  5
C610
  8
0
 10
4472.7057833584449327
 20
156.2948462920928989
 30
0.0
 40
5.8083243458379421
 50
56.2194924812011791
 51
62.4683942770948875
  0
ARC
  5
C611
  8
0
 10
4476.8908910661493792
 20
161.1735585747582036
 30
0.0
 40
3.9559936159240312
 50
173.9487576925762085
 51
176.9026265447899959
  0
LINE
  5
C612
  8
0
 10
4473.7086115624351805
 20
157.9231552490489037
 30
0.0
 11
4474.1701382133496736
 21
157.9231552490489037
 31
0.0
  0
ENDSEC
  0
EOF
