  0
SECTION
  2
HEADER
  9
$ACADVER
  1
AC1009
  9
$INSBASE
 10
4360.9680841600047643
 20
140.5014809978524966
 30
0.0
  9
$EXTMIN
 10
4356.0640604542568326
 20
140.495393883698199
 30
-0.0000000349181948
  9
$EXTMAX
 10
4363.3747833871893818
 20
146.1198518650438984
 30
0.0000000814935746
  9
$LIMMIN
 10
0.0
 20
0.0
  9
$LIMMAX
 10
11.6929133858000007
 20
8.2677165353999982
  9
$ORTHOMODE
 70
     0
  9
$REGENMODE
 70
     1
  9
$FILLMODE
 70
     1
  9
$QTEXTMODE
 70
     0
  9
$MIRRTEXT
 70
     0
  9
$DRAGMODE
 70
     2
  9
$LTSCALE
 40
0.6431102362
  9
$OSMODE
 70
  4095
  9
$ATTMODE
 70
     1
  9
$TEXTSIZE
 40
0.2
  9
$TRACEWID
 40
0.05
  9
$TEXTSTYLE
  7
STANDARD
  9
$CLAYER
  8
0
  9
$CELTYPE
  6
BYLAYER
  9
$CECOLOR
 62
   256
  9
$DIMSCALE
 40
1.0
  9
$DIMASZ
 40
0.1875
  9
$DIMEXO
 40
0.0625
  9
$DIMDLI
 40
0.4443307087
  9
$DIMRND
 40
0.0
  9
$DIMDLE
 40
0.0
  9
$DIMEXE
 40
0.125
  9
$DIMTP
 40
0.01
  9
$DIMTM
 40
0.01
  9
$DIMTXT
 40
2.0
  9
$DIMCEN
 40
0.1052362205
  9
$DIMTSZ
 40
0.0
  9
$DIMTOL
 70
     1
  9
$DIMLIM
 70
     0
  9
$DIMTIH
 70
     1
  9
$DIMTOH
 70
     1
  9
$DIMSE1
 70
     0
  9
$DIMSE2
 70
     0
  9
$DIMTAD
 70
     0
  9
$DIMZIN
 70
     0
  9
$DIMBLK
  1

  9
$DIMASO
 70
     1
  9
$DIMSHO
 70
     1
  9
$DIMPOST
  1
\X
  9
$DIMAPOST
  1

  9
$DIMALT
 70
     1
  9
$DIMALTD
 70
     2
  9
$DIMALTF
 40
25.3999999999999986
  9
$DIMLFAC
 40
1.0
  9
$DIMTOFL
 70
     0
  9
$DIMTVP
 40
0.0
  9
$DIMTIX
 70
     0
  9
$DIMSOXD
 70
     0
  9
$DIMSAH
 70
     0
  9
$DIMBLK1
  1

  9
$DIMBLK2
  1

  9
$DIMSTYLE
  2
STANDARD
  9
$DIMCLRD
 70
     0
  9
$DIMCLRE
 70
     0
  9
$DIMCLRT
 70
     0
  9
$DIMTFAC
 40
1.0
  9
$DIMGAP
 40
0.09
  9
$LUNITS
 70
     2
  9
$LUPREC
 70
     4
  9
$SKETCHINC
 40
0.1
  9
$FILLETRAD
 40
0.0
  9
$AUNITS
 70
     0
  9
$AUPREC
 70
     0
  9
$MENU
  1
.
  9
$ELEVATION
 40
0.0
  9
$PELEVATION
 40
0.0
  9
$THICKNESS
 40
0.0
  9
$LIMCHECK
 70
     0
  9
$BLIPMODE
 70
     0
  9
$CHAMFERA
 40
0.0
  9
$CHAMFERB
 40
0.0
  9
$SKPOLY
 70
     0
  9
$TDCREATE
 40
2458060.468368056230247
  9
$TDUPDATE
 40
2459388.7109722220338881
  9
$TDINDWG
 40
0.445284838
  9
$TDUSRTIMER
 40
0.445284838
  9
$USRTIMER
 70
     1
  9
$ANGBASE
 50
0.0
  9
$ANGDIR
 70
     0
  9
$PDMODE
 70
     0
  9
$PDSIZE
 40
0.3125
  9
$PLINEWID
 40
0.0
  9
$COORDS
 70
     1
  9
$SPLFRAME
 70
     0
  9
$SPLINETYPE
 70
     6
  9
$SPLINESEGS
 70
     8
  9
$ATTDIA
 70
     1
  9
$ATTREQ
 70
     1
  9
$HANDLING
 70
     1
  9
$HANDSEED
  5
A64D
  9
$SURFTAB1
 70
     6
  9
$SURFTAB2
 70
     6
  9
$SURFTYPE
 70
     6
  9
$SURFU
 70
     6
  9
$SURFV
 70
     6
  9
$UCSNAME
  2

  9
$UCSORG
 10
0.0
 20
0.0
 30
0.0
  9
$UCSXDIR
 10
1.0
 20
0.0
 30
0.0
  9
$UCSYDIR
 10
0.0
 20
1.0
 30
0.0
  9
$PUCSNAME
  2

  9
$PUCSORG
 10
0.0
 20
0.0
 30
0.0
  9
$PUCSXDIR
 10
1.0
 20
0.0
 30
0.0
  9
$PUCSYDIR
 10
0.0
 20
1.0
 30
0.0
  9
$USERI1
 70
     0
  9
$USERI2
 70
     0
  9
$USERI3
 70
     0
  9
$USERI4
 70
     0
  9
$USERI5
 70
     0
  9
$USERR1
 40
0.0
  9
$USERR2
 40
0.0
  9
$USERR3
 40
0.0
  9
$USERR4
 40
0.0
  9
$USERR5
 40
0.0
  9
$WORLDVIEW
 70
     1
  9
$SHADEDGE
 70
     3
  9
$SHADEDIF
 70
    70
  9
$TILEMODE
 70
     1
  9
$MAXACTVP
 70
    64
  9
$PLIMCHECK
 70
     0
  9
$PEXTMIN
 10
1.0000000000000000E+20
 20
1.0000000000000000E+20
 30
1.0000000000000000E+20
  9
$PEXTMAX
 10
-1.0000000000000000E+20
 20
-1.0000000000000000E+20
 30
-1.0000000000000000E+20
  9
$PLIMMIN
 10
0.0
 20
0.0
  9
$PLIMMAX
 10
12.0
 20
9.0
  9
$UNITMODE
 70
     0
  9
$VISRETAIN
 70
     1
  9
$PLINEGEN
 70
     0
  9
$PSLTSCALE
 70
     1
  0
ENDSEC
  0
SECTION
  2
TABLES
  0
TABLE
  2
VPORT
 70
     1
  0
VPORT
  2
*ACTIVE
 70
     0
 10
0.0
 20
0.0
 11
1.0
 21
1.0
 12
556.1753545379104935
 22
17.3123606776211005
 13
0.0
 23
0.0
 14
1.0
 24
1.0
 15
0.0
 25
0.0
 16
0.0
 26
0.0
 36
17.1152628219792007
 17
3803.5440673828129547
 27
125.9952621967499056
 37
0.0
 40
5.659721040789873
 41
2.0073221757322171
 42
50.0
 43
0.0
 44
0.0
 50
0.0
 51
0.0
 71
     0
 72
   100
 73
     1
 74
     1
 75
     0
 76
     0
 77
     0
 78
     0
  0
ENDTAB
  0
TABLE
  2
LTYPE
 70
     2
  0
LTYPE
  2
CONTINUOUS
 70
     0
  3
Solid line
 72
    65
 73
     0
 40
0.0
  0
LTYPE
  2
PHANTOM2
 70
     0
  3
___ _ _ ___ _ _ ___ _ _ ___ _ _
 72
    65
 73
     6
 40
1.25
 49
0.625
 49
-0.125
 49
0.125
 49
-0.125
 49
0.125
 49
-0.125
  0
ENDTAB
  0
TABLE
  2
LAYER
 70
     2
  0
LAYER
  2
0
 70
     0
 62
   255
  6
CONTINUOUS
  0
LAYER
  2
DEFPOINTS
 70
     0
 62
     7
  6
CONTINUOUS
  0
ENDTAB
  0
TABLE
  2
STYLE
 70
     1
  0
STYLE
  2
STANDARD
 70
     0
 40
0.0
 41
0.8
 50
0.0
 71
     0
 42
0.2
  3
txt
  4

  0
ENDTAB
  0
TABLE
  2
VIEW
 70
     0
  0
ENDTAB
  0
TABLE
  2
UCS
 70
     0
  0
ENDTAB
  0
TABLE
  2
APPID
 70
     9
  0
APPID
  2
ACAD
 70
     0
  0
APPID
  2
ACAD_MLEADERVER
 70
     0
  0
APPID
  2
ACAD_EXEMPT_FROM_CAD_STANDARDS
 70
     0
  0
APPID
  2
ACAD_NAV_VCDISPLAY
 70
     0
  0
APPID
  2
ACAECLAYERSTANDARD
 70
     0
  0
APPID
  2
ACCMTRANSPARENCY
 70
     0
  0
APPID
  2
ACAD_DSTYLE_DIMJAG
 70
     0
  0
APPID
  2
ACAD_DSTYLE_DIMTALN
 70
     0
  0
APPID
  2
ACDBATTR
 70
     0
  0
ENDTAB
  0
TABLE
  2
DIMSTYLE
 70
     1
  0
DIMSTYLE
  2
STANDARD
 70
     0
  3

  4

  5

  6

  7

 40
1.0
 41
0.1875
 42
0.0625
 43
0.38
 44
0.125
 45
0.0
 46
0.0
 47
0.01
 48
0.01
140
0.15625
141
0.09
142
0.0
143
25.3999999999999986
144
1.0
145
0.0
146
1.0
147
0.09
 71
     1
 72
     0
 73
     1
 74
     1
 75
     0
 76
     0
 77
     0
 78
     4
170
     0
171
     2
172
     0
173
     0
174
     0
175
     0
176
     0
177
     0
178
     0
  0
ENDTAB
  0
ENDSEC
  0
SECTION
  2
BLOCKS
  0
BLOCK
  8
0
  2
$MODEL_SPACE
 70
     0
 10
0.0
 20
0.0
 30
0.0
  3
$MODEL_SPACE
  1

  0
ENDBLK
  5
21
  8
0
  0
BLOCK
 67
     1
  8
0
  2
$PAPER_SPACE
 70
     0
 10
0.0
 20
0.0
 30
0.0
  3
$PAPER_SPACE
  1

  0
ENDBLK
  5
1D
 67
     1
  8
0
  0
ENDSEC
  0
SECTION
  2
ENTITIES
  0
ATTDEF
  5
3930
  8
DEFPOINTS
 10
4360.9656019136218674
 20
140.5060267587446106
 30
0.0
 40
0.001
  1
K-31875T-4E2
  3

  2
MODELNUMBER
 70
     0
1001
ACDBATTR
1070
     0
1070
     1
  0
ATTDEF
  5
3931
  8
DEFPOINTS
 10
4360.9656019136218674
 20
140.5043600920778886
 30
0.0
 40
0.001
  1

  3

  2
TRADENAME
 70
     0
1001
ACDBATTR
1070
     0
1070
     1
  0
ATTDEF
  5
3932
  8
DEFPOINTS
 10
4360.9656019136218674
 20
140.5026934254113087
 30
0.0
 40
0.001
  1
BATHROOM SINK FAUCET
  3

  2
PRODUCT
 70
     0
1001
ACDBATTR
1070
     0
1070
     1
  0
LINE
  5
A55C
  8
0
 10
4360.1413125064545966
 20
145.0290400529524959
 30
0.0
 11
4361.794855813554932
 21
145.0290400529524959
 31
0.0
  0
LINE
  5
A55D
  8
0
 10
4360.1413125064545966
 20
145.1353392655524885
 30
0.0
 11
4361.0861943962554506
 21
145.1353392655524885
 31
0.0
  0
LINE
  5
A55E
  8
0
 10
4360.0035358245568204
 20
140.6983313915525002
 30
0.0
 11
4361.9326324954354277
 21
140.6983313915525002
 31
0.0
  0
LINE
  5
A55F
  8
0
 10
4359.9838321915549386
 20
140.5014809978524966
 30
0.0
 11
4361.9523361284564089
 21
140.5014809978524966
 31
0.0
  0
LINE
  5
A560
  8
0
 10
4357.9748658558992247
 20
146.1195912340525069
 30
0.0
 11
4361.7554857348550286
 21
146.1195912340525069
 31
0.0
  0
LINE
  5
A561
  8
0
 10
4361.9523361284564089
 20
140.678646346123486
 30
0.0
 11
4361.9523361284564089
 21
140.5014809978524966
 31
0.0
  0
ARC
  5
A562
  8
0
 10
4361.9326510743576364
 20
140.678646346123486
 30
0.0
 40
0.0196850541965975
 50
0.0
 51
90.0540762561166446
  0
LINE
  5
A563
  8
0
 10
4359.9838321914548942
 20
140.6786463522525139
 30
0.0
 11
4359.9838321915549386
 21
140.5014809978524966
 31
0.0
  0
ARC
  5
A564
  8
0
 10
4360.0035172456518922
 20
140.678646346123486
 30
0.0
 40
0.0196850541965975
 50
89.9459237968794838
 51
179.9999821609357866
  0
LINE
  5
A565
  8
0
 10
4360.1413125064545966
 20
143.4542369033524949
 30
0.0
 11
4360.1413125064545966
 21
140.6983313915525002
 31
0.0
  0
LINE
  5
A566
  8
0
 10
4357.7975406877985733
 20
143.4542369033524949
 30
0.0
 11
4360.1413125064545966
 21
143.4542369033524949
 31
0.0
  0
ARC
  5
A567
  8
0
 10
4357.7975406877985733
 20
142.9817959587848861
 30
0.0
 40
0.4724409446675964
 50
89.9999999893173879
 51
145.0000000238646862
  0
LINE
  5
A568
  8
0
 10
4357.4105397221837848
 20
143.2527769522365872
 30
0.0
 11
4357.0834315824549776
 21
142.7856181145525056
 31
0.0
  0
LINE
  5
A569
  8
0
 10
4357.0834315824549776
 20
142.7856181145525056
 30
0.0
 11
4356.3094296508552361
 21
143.3275801016525008
 31
0.0
  0
LINE
  5
A56A
  8
0
 10
4356.3094296508552361
 20
143.3275801016525008
 30
0.0
 11
4356.6365377905240166
 21
143.7947389392498962
 31
0.0
  0
ARC
  5
A56B
  8
0
 10
4357.797540687854962
 20
142.9817959585525102
 30
0.0
 40
1.4173228346000031
 50
90.0
 51
144.999999996611507
  0
LINE
  5
A56C
  8
0
 10
4357.797540687854962
 20
144.3991187931524962
 30
0.0
 11
4360.1413125064545966
 21
144.3991187931524962
 31
0.0
  0
ARC
  5
A56D
  8
0
 10
4359.4628991101426436
 20
143.9266778482524956
 30
0.0
 40
0.826707434776546
 50
325.1469962597516883
 51
34.8530037402482833
  0
LINE
  5
A56E
  8
0
 10
4360.1413125064545966
 20
144.3991187931524962
 30
0.0
 11
4360.1413125064545966
 21
145.0290400529524959
 31
0.0
  0
LINE
  5
A56F
  8
0
 10
4361.794855813554932
 20
140.6983313915525002
 30
0.0
 11
4361.794855813554932
 21
145.0290400529524959
 31
0.0
  0
LINE
  5
A570
  8
0
 10
4363.2572847592564358
 20
143.2230055107525004
 30
0.0
 11
4362.765628513709089
 21
143.3547444047379997
 31
0.0
  0
LINE
  5
A571
  8
0
 10
4363.301025177855081
 20
143.386246975452508
 30
0.0
 11
4362.8093689322604405
 21
143.517985869378208
 31
0.0
  0
LINE
  5
A572
  8
0
 10
4363.2719816977551091
 20
143.2314907921524991
 30
0.0
 11
4363.3095104592548523
 21
143.3715500369524989
 31
0.0
  0
LINE
  5
A573
  8
0
 10
4363.3095104592548523
 20
143.3715500369524989
 30
0.0
 11
4363.301025177855081
 21
143.386246975452508
 31
0.0
  0
LINE
  5
A574
  8
0
 10
4363.2719816977551091
 20
143.2314907921524991
 30
0.0
 11
4363.2572847592564358
 21
143.2230055107525004
 31
0.0
  0
ARC
  5
A575
  8
0
 10
4362.7132176570530646
 20
143.1591444249978053
 30
0.0
 40
0.3714999999569771
 50
74.9999999977928411
 51
148.9934128004483966
  0
ARC
  5
A576
  8
0
 10
4362.7132176570576121
 20
143.1591444249046958
 30
0.0
 40
0.2025000000453769
 50
75.000000004269225
 51
148.9934127807362927
  0
ARC
  5
A577
  8
0
 10
4379.6093892967837746
 20
133.0042562506027082
 30
0.0
 40
19.9155000231691695
 50
148.9934128000512885
 51
153.445042373129013
  0
ARC
  5
A578
  8
0
 10
4379.609389292258129
 20
133.0042562527156065
 30
0.0
 40
20.0845000181824282
 50
148.9934127984361112
 51
152.4960733471264973
  0
ARC
  5
A579
  8
0
 10
4360.9338662867548919
 20
144.9035818865525869
 30
0.0
 40
0.7480314960996847
 50
161.9514346716036925
 51
170.3448488149786897
  0
ARC
  5
A57A
  8
0
 10
4361.0023020331545922
 20
144.9035818865525016
 30
0.0
 40
0.7480314960999969
 50
9.6551511850228451
 51
34.6421126426083603
  0
LINE
  5
A57B
  8
0
 10
4361.0861943962554506
 20
145.1353392655524885
 30
0.0
 11
4361.794855813554932
 21
145.3932709276525088
 31
0.0
  0
LINE
  5
A57C
  8
0
 10
4361.794855813554932
 20
145.3932709276525088
 30
0.0
 11
4361.794855813554932
 21
146.0802211553524899
 31
0.0
  0
LINE
  5
A57D
  8
0
 10
4360.1413125064545966
 20
145.1353392655524885
 30
0.0
 11
4360.1413125064545966
 21
145.7259006828525116
 31
0.0
  0
ARC
  5
A57E
  8
0
 10
4361.7554857348550286
 20
146.0802211553524899
 30
0.0
 40
0.0393700786999904
 50
0.0
 51
90.0
  0
ARC
  5
A57F
  8
0
 10
4361.8027099449564048
 20
145.6156542262525022
 30
0.0
 40
0.0196850394000003
 50
270.0
 51
340.5345699170069906
  0
LINE
  5
A580
  8
0
 10
4361.794855813554932
 20
145.5959691868524999
 30
0.0
 11
4361.8027099449564048
 21
145.5959691868524999
 31
0.0
  0
ARC
  5
A581
  8
0
 10
4361.4129660497546865
 20
145.7534495017524137
 30
0.0
 40
0.4330708661000987
 50
340.5290425862493748
 51
19.4709151019852484
  0
ARC
  5
A582
  8
0
 10
4361.8027099449564048
 20
145.8912447773525116
 30
0.0
 40
0.0196850394000003
 50
19.4644989497283589
 51
90.0
  0
LINE
  5
A583
  8
0
 10
4361.794855813554932
 20
145.9109298167525139
 30
0.0
 11
4361.8027099449564048
 21
145.9109298167525139
 31
0.0
  0
ARC
  5
A584
  8
0
 10
4362.5628417278039706
 20
145.7532365446236895
 30
0.0
 40
0.7826856685980499
 50
168.8780472970061055
 51
191.1219527029946903
  0
LINE
  5
A585
  8
0
 10
4361.794855813554932
 20
145.6614640633524971
 30
0.0
 11
4361.7855549933810835
 21
145.6614640633524971
 31
0.0
  0
LINE
  5
A586
  8
0
 10
4361.794855813554932
 20
145.8814022576524962
 30
0.0
 11
4361.7907210080757068
 21
145.8814022576524962
 31
0.0
  0
ARC
  5
A587
  8
0
 10
4356.9935794336051913
 20
143.4613563732476962
 30
0.0
 40
0.5151296374565176
 50
239.4457417607868024
 51
247.9661353915005861
  0
LINE
  5
A588
  8
0
 10
4356.7317111780548657
 20
143.0177534425525039
 30
0.0
 11
4356.7383557212397136
 21
143.0272428338313944
 31
0.0
  0
LINE
  5
A589
  8
0
 10
4356.7341583970737702
 20
143.0212484335802117
 30
0.0
 11
4356.7382684587746553
 21
143.0192786325665111
 31
0.0
  0
LINE
  5
A58A
  8
0
 10
4356.7382684587746553
 20
143.0192786325665111
 30
0.0
 11
4356.752627714119626
 21
143.0100645746975943
 31
0.0
  0
LINE
  5
A58B
  8
0
 10
4356.752627714119626
 20
143.0100645746975943
 30
0.0
 11
4356.7515503170288866
 21
143.0083855511699085
 31
0.0
  0
LINE
  5
A58C
  8
0
 10
4356.7515503170288866
 20
143.0083855511699085
 30
0.0
 11
4356.7364889381060493
 21
143.0160159483947098
 31
0.0
  0
LINE
  5
A58D
  8
0
 10
4356.7364889381060493
 20
143.0160159483947098
 30
0.0
 11
4356.7322998749987164
 21
143.0185941889353103
 31
0.0
  0
LINE
  5
A58E
  8
0
 10
4356.7359263832131546
 20
143.0237733795067072
 30
0.0
 11
4356.7396109330047693
 21
143.0211958843333946
 31
0.0
  0
LINE
  5
A58F
  8
0
 10
4356.7396109330047693
 20
143.0211958843333946
 30
0.0
 11
4356.7556017938659352
 21
143.0143113655732918
 31
0.0
  0
LINE
  5
A590
  8
0
 10
4356.7556017938659352
 20
143.0143113655732918
 30
0.0
 11
4356.7559055893980258
 21
143.0147452305384093
 31
0.0
  0
LINE
  5
A591
  8
0
 10
4356.7613409023560962
 20
143.0111484367471917
 30
0.0
 11
4356.7492567004619559
 21
143.0161577496614882
 31
0.0
  0
LINE
  5
A592
  8
0
 10
4356.7492567004619559
 20
143.0161577496614882
 30
0.0
 11
4356.7476329527244161
 21
143.0138387976080026
 31
0.0
  0
LINE
  5
A593
  8
0
 10
4356.7476329527244161
 20
143.0138387976080026
 30
0.0
 11
4356.7621910624166048
 21
143.0049080979235043
 31
0.0
  0
LINE
  5
A594
  8
0
 10
4356.7621910624166048
 20
143.0049080979235043
 30
0.0
 11
4356.778379803655298
 21
142.9983061815524934
 31
0.0
  0
LINE
  5
A595
  8
0
 10
4356.778379803655298
 20
142.9983061815524934
 30
0.0
 11
4356.7788080629434262
 21
142.9989177992335101
 31
0.0
  0
LINE
  5
A596
  8
0
 10
4356.7831428554936792
 20
142.9958825448119057
 30
0.0
 11
4356.7720870976545484
 21
143.000227382652497
 31
0.0
  0
LINE
  5
A597
  8
0
 10
4356.7720870976545484
 20
143.000227382652497
 30
0.0
 11
4356.7710036354546901
 21
142.9986800382525018
 31
0.0
  0
LINE
  5
A598
  8
0
 10
4356.7710036354546901
 20
142.9986800382525018
 30
0.0
 11
4356.786303715854956
 21
142.9908089826525099
 31
0.0
  0
LINE
  5
A599
  8
0
 10
4356.786303715854956
 20
142.9908089826525099
 30
0.0
 11
4356.7957210865361048
 21
142.9870751726188018
 31
0.0
  0
LINE
  5
A59A
  8
0
 10
4356.7763944969119621
 20
142.9954708697329124
 30
0.0
 11
4356.7758536538549379
 21
142.9946984656525046
 31
0.0
  0
LINE
  5
A59B
  8
0
 10
4356.7758536538549379
 20
142.9946984656525046
 30
0.0
 11
4356.7602681688722441
 21
143.0021619213164001
 31
0.0
  0
LINE
  5
A59C
  8
0
 10
4356.7602681688722441
 20
143.0021619213164001
 30
0.0
 11
4356.7451279586339297
 21
143.0102612951897072
 31
0.0
  0
LINE
  5
A59D
  8
0
 10
4356.7451279586339297
 20
143.0102612951897072
 30
0.0
 11
4356.7456715016978706
 21
143.0110829336157963
 31
0.0
  0
LINE
  5
A59E
  8
0
 10
4356.7456715016978706
 20
143.0110829336157963
 30
0.0
 11
4356.7612960805890907
 21
143.0036299314710107
 31
0.0
  0
LINE
  5
A59F
  8
0
 10
4356.7612960805890907
 20
143.0036299314710107
 30
0.0
 11
4356.7763944969119621
 21
142.9954708697329124
 31
0.0
  0
LINE
  5
A5A0
  8
0
 10
4356.786303715854956
 20
142.9908089826525099
 30
0.0
 11
4356.7873756763674464
 21
142.9929186917294999
 31
0.0
  0
LINE
  5
A5A1
  8
0
 10
4356.7621910624166048
 20
143.0049080979235043
 30
0.0
 11
4356.7645095378429687
 21
143.0089297342935026
 31
0.0
  0
LINE
  5
A5A2
  8
0
 10
4356.7396109330047693
 20
143.0211958843333946
 30
0.0
 11
4356.741703576002692
 21
143.0248986406901111
 31
0.0
  0
LINE
  5
A5A3
  8
0
 10
4356.7364889381060493
 20
143.0160159483947098
 30
0.0
 11
4356.7384323100732217
 21
143.0191734923405136
 31
0.0
  0
LINE
  5
A5A4
  8
0
 10
4356.7602681688722441
 20
143.0021619213164001
 30
0.0
 11
4356.7612960805890907
 21
143.0036299314710107
 31
0.0
  0
ARC
  5
A5A5
  8
0
 10
4356.9751471509625844
 20
143.4742627965001986
 30
0.0
 40
0.5151296374565174
 50
222.0338646080292904
 51
230.554258238742193
  0
LINE
  5
A5A6
  8
0
 10
4356.6478609687219432
 20
143.0764659912086927
 30
0.0
 11
4356.6545055120714096
 21
143.0859553823736121
 31
0.0
  0
LINE
  5
A5A7
  8
0
 10
4356.6503081878008743
 20
143.0799609821943932
 30
0.0
 11
4356.647051456432564
 21
143.0831494652198899
 31
0.0
  0
LINE
  5
A5A8
  8
0
 10
4356.647051456432564
 20
143.0831494652198899
 30
0.0
 11
4356.6334819196736134
 21
143.093491358115898
 31
0.0
  0
LINE
  5
A5A9
  8
0
 10
4356.6334819196736134
 20
143.093491358115898
 30
0.0
 11
4356.63227264516172
 21
143.0919046761515858
 31
0.0
  0
LINE
  5
A5AA
  8
0
 10
4356.63227264516172
 20
143.0919046761515858
 30
0.0
 11
4356.6445941681058684
 21
143.080361359071901
 31
0.0
  0
LINE
  5
A5AB
  8
0
 10
4356.6445941681058684
 20
143.080361359071901
 30
0.0
 11
4356.6484496656803458
 21
143.0773067375814094
 31
0.0
  0
LINE
  5
A5AC
  8
0
 10
4356.652076173983005
 20
143.0824859280905059
 30
0.0
 11
4356.6483939305398962
 21
143.0850667170730901
 31
0.0
  0
LINE
  5
A5AD
  8
0
 10
4356.6483939305398962
 20
143.0850667170730901
 30
0.0
 11
4356.6364554025403777
 21
143.0977385669310991
 31
0.0
  0
LINE
  5
A5AE
  8
0
 10
4356.6364554025403777
 20
143.0977385669310991
 30
0.0
 11
4356.6367591980551879
 21
143.0981724319086936
 31
0.0
  0
LINE
  5
A5AF
  8
0
 10
4356.631520330955027
 20
143.1020497794577011
 30
0.0
 11
4356.6403605857985895
 21
143.0924076300304932
 31
0.0
  0
LINE
  5
A5B0
  8
0
 10
4356.6403605857985895
 20
143.0924076300304932
 30
0.0
 11
4356.6387368381001579
 21
143.0900886779498933
 31
0.0
  0
LINE
  5
A5B1
  8
0
 10
4356.6387368381001579
 20
143.0900886779498933
 30
0.0
 11
4356.6253655587452158
 21
143.1007143470147014
 31
0.0
  0
LINE
  5
A5B2
  8
0
 10
4356.6253655587452158
 20
143.1007143470147014
 30
0.0
 11
4356.6136249110495555
 21
143.1136687993129897
 31
0.0
  0
LINE
  5
A5B3
  8
0
 10
4356.6136249110495555
 20
143.1136687993129897
 30
0.0
 11
4356.614053170367697
 21
143.1142804169714111
 31
0.0
  0
LINE
  5
A5B4
  8
0
 10
4356.609718377817444
 20
143.1173156713931007
 30
0.0
 11
4356.6175824817546527
 21
143.1084126793955988
 31
0.0
  0
LINE
  5
A5B5
  8
0
 10
4356.6175824817546527
 20
143.1084126793955988
 30
0.0
 11
4356.616499019535695
 21
143.1068653350079103
 31
0.0
  0
LINE
  5
A5B6
  8
0
 10
4356.616499019535695
 20
143.1068653350079103
 30
0.0
 11
4356.603869710980689
 21
143.1185506480927927
 31
0.0
  0
LINE
  5
A5B7
  8
0
 10
4356.603869710980689
 20
143.1185506480927927
 30
0.0
 11
4356.5971401467741089
 21
143.1261230435862046
 31
0.0
  0
LINE
  5
A5B8
  8
0
 10
4356.6116396043507848
 20
143.110833487461008
 30
0.0
 11
4356.6110987611573364
 21
143.1100610834776887
 31
0.0
  0
LINE
  5
A5B9
  8
0
 10
4356.6110987611573364
 20
143.1100610834776887
 30
0.0
 11
4356.6234426651781177
 21
143.0979681704233997
 31
0.0
  0
LINE
  5
A5BA
  8
0
 10
4356.6234426651781177
 20
143.0979681704233997
 30
0.0
 11
4356.636231843915084
 21
143.0865111755992132
 31
0.0
  0
LINE
  5
A5BB
  8
0
 10
4356.636231843915084
 20
143.0865111755992132
 30
0.0
 11
4356.6368180288027361
 21
143.0873029558975134
 31
0.0
  0
LINE
  5
A5BC
  8
0
 10
4356.6368180288027361
 20
143.0873029558975134
 30
0.0
 11
4356.6244705769731809
 21
143.0994361805225026
 31
0.0
  0
LINE
  5
A5BD
  8
0
 10
4356.6244705769731809
 20
143.0994361805225026
 30
0.0
 11
4356.6116396043507848
 21
143.110833487461008
 31
0.0
  0
LINE
  5
A5BE
  8
0
 10
4356.603869710980689
 20
143.1185506480927927
 30
0.0
 11
4356.6054855569436768
 21
143.1202795244755066
 31
0.0
  0
LINE
  5
A5BF
  8
0
 10
4356.6253655587452158
 20
143.1007143470147014
 30
0.0
 11
4356.6283516954681545
 21
143.1042684819113902
 31
0.0
  0
LINE
  5
A5C0
  8
0
 10
4356.6483939305398962
 20
143.0850667170730901
 30
0.0
 11
4356.6511576573084312
 21
143.0882995755148102
 31
0.0
  0
LINE
  5
A5C1
  8
0
 10
4356.6445941681058684
 20
143.080361359071901
 30
0.0
 11
4356.6468966164929952
 21
143.0832674750014917
 31
0.0
  0
LINE
  5
A5C2
  8
0
 10
4356.6234426651781177
 20
143.0979681704233997
 30
0.0
 11
4356.6244705769731809
 21
143.0994361805225026
 31
0.0
  0
LINE
  5
A5C3
  8
0
 10
4363.2572847592564358
 20
143.2230055107525004
 30
0.0
 11
4363.301025177855081
 21
143.386246975452508
 31
0.0
  0
LINE
  5
A5C5
  8
0
 10
4358.2909188059302323
 20
145.84400068285251
 30
0.0
 11
4360.0232125064549109
 21
145.84400068285251
 31
0.0
  0
ARC
  5
A5C6
  8
0
 10
4360.0232125064549109
 20
145.7259006828525116
 30
0.0
 40
0.1181
 50
0.0000000000008142
 51
90.0
  0
ARC
  5
A5C7
  8
0
 10
4358.2909188059302323
 20
146.2355923592789111
 30
0.0
 40
0.3915916764264704
 50
206.1830374836690964
 51
270.0
  0
ARC
  5
A5C8
  8
0
 10
4357.9748658558992247
 20
146.0801912340525064
 30
0.0
 40
0.0394
 50
90.0
 51
206.1830374836683859
  0
ENDSEC
  0
EOF
