  0
SECTION
  2
HEADER
  9
$ACADVER
  1
AC1009
  9
$INSBASE
 10
4449.6901686146456996
 20
163.2387920204162981
 30
0.0
  9
$EXTMIN
 10
4445.3331723536539357
 20
155.0562602328134858
 30
-0.0000000349181948
  9
$EXTMAX
 10
4454.1683755689464306
 20
163.2390099080857908
 30
0.0000000814935746
  9
$LIMMIN
 10
0.0
 20
0.0
  9
$LIMMAX
 10
11.6929133858000007
 20
8.2677165353999982
  9
$ORTHOMODE
 70
     0
  9
$REGENMODE
 70
     1
  9
$FILLMODE
 70
     1
  9
$QTEXTMODE
 70
     0
  9
$MIRRTEXT
 70
     0
  9
$DRAGMODE
 70
     2
  9
$LTSCALE
 40
0.6431102362
  9
$OSMODE
 70
  4095
  9
$ATTMODE
 70
     1
  9
$TEXTSIZE
 40
0.2
  9
$TRACEWID
 40
0.05
  9
$TEXTSTYLE
  7
STANDARD
  9
$CLAYER
  8
0
  9
$CELTYPE
  6
BYLAYER
  9
$CECOLOR
 62
   256
  9
$DIMSCALE
 40
1.0
  9
$DIMASZ
 40
0.1875
  9
$DIMEXO
 40
0.0625
  9
$DIMDLI
 40
0.4443307087
  9
$DIMRND
 40
0.0
  9
$DIMDLE
 40
0.0
  9
$DIMEXE
 40
0.125
  9
$DIMTP
 40
0.01
  9
$DIMTM
 40
0.01
  9
$DIMTXT
 40
2.0
  9
$DIMCEN
 40
0.1052362205
  9
$DIMTSZ
 40
0.0
  9
$DIMTOL
 70
     1
  9
$DIMLIM
 70
     0
  9
$DIMTIH
 70
     1
  9
$DIMTOH
 70
     1
  9
$DIMSE1
 70
     0
  9
$DIMSE2
 70
     0
  9
$DIMTAD
 70
     0
  9
$DIMZIN
 70
     0
  9
$DIMBLK
  1

  9
$DIMASO
 70
     1
  9
$DIMSHO
 70
     1
  9
$DIMPOST
  1
\X
  9
$DIMAPOST
  1

  9
$DIMALT
 70
     1
  9
$DIMALTD
 70
     2
  9
$DIMALTF
 40
25.3999999999999986
  9
$DIMLFAC
 40
1.0
  9
$DIMTOFL
 70
     0
  9
$DIMTVP
 40
0.0
  9
$DIMTIX
 70
     0
  9
$DIMSOXD
 70
     0
  9
$DIMSAH
 70
     0
  9
$DIMBLK1
  1

  9
$DIMBLK2
  1

  9
$DIMSTYLE
  2
STANDARD
  9
$DIMCLRD
 70
     0
  9
$DIMCLRE
 70
     0
  9
$DIMCLRT
 70
     0
  9
$DIMTFAC
 40
1.0
  9
$DIMGAP
 40
0.09
  9
$LUNITS
 70
     2
  9
$LUPREC
 70
     4
  9
$SKETCHINC
 40
0.1
  9
$FILLETRAD
 40
0.0
  9
$AUNITS
 70
     0
  9
$AUPREC
 70
     0
  9
$MENU
  1
.
  9
$ELEVATION
 40
0.0
  9
$PELEVATION
 40
0.0
  9
$THICKNESS
 40
0.0
  9
$LIMCHECK
 70
     0
  9
$BLIPMODE
 70
     0
  9
$CHAMFERA
 40
0.0
  9
$CHAMFERB
 40
0.0
  9
$SKPOLY
 70
     0
  9
$TDCREATE
 40
2458060.468368056230247
  9
$TDUPDATE
 40
2459388.7223611110821366
  9
$TDINDWG
 40
0.4513496528
  9
$TDUSRTIMER
 40
0.4513496528
  9
$USRTIMER
 70
     1
  9
$ANGBASE
 50
0.0
  9
$ANGDIR
 70
     0
  9
$PDMODE
 70
     0
  9
$PDSIZE
 40
0.3125
  9
$PLINEWID
 40
0.0
  9
$COORDS
 70
     1
  9
$SPLFRAME
 70
     0
  9
$SPLINETYPE
 70
     6
  9
$SPLINESEGS
 70
     8
  9
$ATTDIA
 70
     1
  9
$ATTREQ
 70
     1
  9
$HANDLING
 70
     1
  9
$HANDSEED
  5
E33C
  9
$SURFTAB1
 70
     6
  9
$SURFTAB2
 70
     6
  9
$SURFTYPE
 70
     6
  9
$SURFU
 70
     6
  9
$SURFV
 70
     6
  9
$UCSNAME
  2

  9
$UCSORG
 10
0.0
 20
0.0
 30
0.0
  9
$UCSXDIR
 10
1.0
 20
0.0
 30
0.0
  9
$UCSYDIR
 10
0.0
 20
1.0
 30
0.0
  9
$PUCSNAME
  2

  9
$PUCSORG
 10
0.0
 20
0.0
 30
0.0
  9
$PUCSXDIR
 10
1.0
 20
0.0
 30
0.0
  9
$PUCSYDIR
 10
0.0
 20
1.0
 30
0.0
  9
$USERI1
 70
     0
  9
$USERI2
 70
     0
  9
$USERI3
 70
     0
  9
$USERI4
 70
     0
  9
$USERI5
 70
     0
  9
$USERR1
 40
0.0
  9
$USERR2
 40
0.0
  9
$USERR3
 40
0.0
  9
$USERR4
 40
0.0
  9
$USERR5
 40
0.0
  9
$WORLDVIEW
 70
     1
  9
$SHADEDGE
 70
     3
  9
$SHADEDIF
 70
    70
  9
$TILEMODE
 70
     1
  9
$MAXACTVP
 70
    64
  9
$PLIMCHECK
 70
     0
  9
$PEXTMIN
 10
1.0000000000000000E+20
 20
1.0000000000000000E+20
 30
1.0000000000000000E+20
  9
$PEXTMAX
 10
-1.0000000000000000E+20
 20
-1.0000000000000000E+20
 30
-1.0000000000000000E+20
  9
$PLIMMIN
 10
0.0
 20
0.0
  9
$PLIMMAX
 10
12.0
 20
9.0
  9
$UNITMODE
 70
     0
  9
$VISRETAIN
 70
     1
  9
$PLINEGEN
 70
     0
  9
$PSLTSCALE
 70
     1
  0
ENDSEC
  0
SECTION
  2
TABLES
  0
TABLE
  2
VPORT
 70
     1
  0
VPORT
  2
*ACTIVE
 70
     0
 10
0.0
 20
0.0
 11
1.0
 21
1.0
 12
646.2067065784876831
 22
33.1523728736997825
 13
0.0
 23
0.0
 14
1.0
 24
1.0
 15
0.0
 25
0.0
 16
0.0
 26
0.0
 36
17.1152628219792007
 17
3803.5440673828129547
 27
125.9952621967499056
 37
0.0
 40
8.2340521810733822
 41
2.0073221757322171
 42
50.0
 43
0.0
 44
0.0
 50
0.0
 51
0.0
 71
     0
 72
   100
 73
     1
 74
     1
 75
     0
 76
     0
 77
     0
 78
     0
  0
ENDTAB
  0
TABLE
  2
LTYPE
 70
     2
  0
LTYPE
  2
CONTINUOUS
 70
     0
  3
Solid line
 72
    65
 73
     0
 40
0.0
  0
LTYPE
  2
PHANTOM2
 70
     0
  3
___ _ _ ___ _ _ ___ _ _ ___ _ _
 72
    65
 73
     6
 40
1.25
 49
0.625
 49
-0.125
 49
0.125
 49
-0.125
 49
0.125
 49
-0.125
  0
ENDTAB
  0
TABLE
  2
LAYER
 70
     2
  0
LAYER
  2
0
 70
     0
 62
   255
  6
CONTINUOUS
  0
LAYER
  2
DEFPOINTS
 70
     0
 62
     7
  6
CONTINUOUS
  0
ENDTAB
  0
TABLE
  2
STYLE
 70
     1
  0
STYLE
  2
STANDARD
 70
     0
 40
0.0
 41
0.8
 50
0.0
 71
     0
 42
0.2
  3
txt
  4

  0
ENDTAB
  0
TABLE
  2
VIEW
 70
     0
  0
ENDTAB
  0
TABLE
  2
UCS
 70
     0
  0
ENDTAB
  0
TABLE
  2
APPID
 70
     9
  0
APPID
  2
ACAD
 70
     0
  0
APPID
  2
ACAD_MLEADERVER
 70
     0
  0
APPID
  2
ACAD_EXEMPT_FROM_CAD_STANDARDS
 70
     0
  0
APPID
  2
ACAD_NAV_VCDISPLAY
 70
     0
  0
APPID
  2
ACAECLAYERSTANDARD
 70
     0
  0
APPID
  2
ACCMTRANSPARENCY
 70
     0
  0
APPID
  2
ACAD_DSTYLE_DIMJAG
 70
     0
  0
APPID
  2
ACAD_DSTYLE_DIMTALN
 70
     0
  0
APPID
  2
ACDBATTR
 70
     0
  0
ENDTAB
  0
TABLE
  2
DIMSTYLE
 70
     1
  0
DIMSTYLE
  2
STANDARD
 70
     0
  3

  4

  5

  6

  7

 40
1.0
 41
0.1875
 42
0.0625
 43
0.38
 44
0.125
 45
0.0
 46
0.0
 47
0.01
 48
0.01
140
0.15625
141
0.09
142
0.0
143
25.3999999999999986
144
1.0
145
0.0
146
1.0
147
0.09
 71
     1
 72
     0
 73
     1
 74
     1
 75
     0
 76
     0
 77
     0
 78
     4
170
     0
171
     2
172
     0
173
     0
174
     0
175
     0
176
     0
177
     0
178
     0
  0
ENDTAB
  0
ENDSEC
  0
SECTION
  2
BLOCKS
  0
BLOCK
  8
0
  2
$MODEL_SPACE
 70
     0
 10
0.0
 20
0.0
 30
0.0
  3
$MODEL_SPACE
  1

  0
ENDBLK
  5
21
  8
0
  0
BLOCK
 67
     1
  8
0
  2
$PAPER_SPACE
 70
     0
 10
0.0
 20
0.0
 30
0.0
  3
$PAPER_SPACE
  1

  0
ENDBLK
  5
1D
 67
     1
  8
0
  0
ENDSEC
  0
SECTION
  2
ENTITIES
  0
ATTDEF
  5
3930
  8
DEFPOINTS
 10
4449.6862140058838122
 20
163.2360806151947088
 30
0.0
 40
0.001
  1
K-31877T-4E2
  3

  2
MODELNUMBER
 70
     0
1001
ACDBATTR
1070
     0
1070
     1
  0
ATTDEF
  5
3931
  8
DEFPOINTS
 10
4449.6862140058838122
 20
163.2344139485279868
 30
0.0
 40
0.001
  1

  3

  2
TRADENAME
 70
     0
1001
ACDBATTR
1070
     0
1070
     1
  0
ATTDEF
  5
3932
  8
DEFPOINTS
 10
4449.6862140058838122
 20
163.2327472818612932
 30
0.0
 40
0.001
  1
BATH AND SHOWER FAUCET
  3

  2
PRODUCT
 70
     0
1001
ACDBATTR
1070
     0
1070
     1
  0
LINE
  5
E183
  8
0
 10
4445.4874126920449271
 20
163.2387920204162981
 30
0.0
 11
4447.9874126920458366
 21
163.2387920204162981
 31
0.0
  0
LINE
  5
E184
  8
0
 10
4445.4874126920449271
 20
163.0064858358194897
 30
0.0
 11
4445.4874126920449271
 21
163.2387920204162981
 31
0.0
  0
LINE
  5
E185
  8
0
 10
4445.5255791955478344
 20
162.9390267692556904
 30
0.0
 11
4446.0277939011002672
 21
162.6372657303687959
 31
0.0
  0
LINE
  5
E186
  8
0
 10
4446.07026273210613
 20
162.5802570689751008
 30
0.0
 11
4446.0573826180643664
 21
162.6055357161199026
 31
0.0
  0
LINE
  5
E187
  8
0
 10
4446.0878155606351356
 20
162.5695006818162938
 30
0.0
 11
4447.3870098234574471
 21
162.5695006818162938
 31
0.0
  0
ARC
  5
E188
  8
0
 10
4446.0878155606351356
 20
162.589200681816294
 30
0.0
 40
0.0197
 50
206.9999999880973007
 51
270.0
  0
ARC
  5
E189
  8
0
 10
4445.5661126920458628
 20
163.0064858358194897
 30
0.0
 40
0.0787
 50
179.9999999999787974
 51
238.9999999979976906
  0
ARC
  5
E18A
  8
0
 10
4445.9872604046031483
 20
162.5698066638049113
 30
0.0
 40
0.0787
 50
26.9999999880922097
 51
58.9999999979888798
  0
LINE
  5
E18B
  8
0
 10
4446.1567040305462797
 20
161.9789495007163111
 30
0.0
 11
4447.3181213535453935
 21
161.9789495007163111
 31
0.0
  0
LINE
  5
E18C
  8
0
 10
4446.1567040305462797
 20
161.9789495007163111
 30
0.0
 11
4446.1567040305462797
 21
162.5695006818162938
 31
0.0
  0
LINE
  5
E18D
  8
0
 10
4446.1763890699457988
 20
162.5240258952165107
 30
0.0
 11
4446.1763890699457988
 21
162.0244242874163092
 31
0.0
  0
LINE
  5
E18E
  8
0
 10
4446.7177276526463174
 20
162.0244242874163092
 30
0.0
 11
4446.7177276526463174
 21
162.5240258952165107
 31
0.0
  0
ARC
  5
E18F
  8
0
 10
4446.4470583612956034
 20
161.7381189285320886
 30
0.0
 40
0.8312109392704908
 50
70.9961011467723608
 51
109.0038988532275965
  0
ARC
  5
E190
  8
0
 10
4446.4470583612956034
 20
162.8107507320073069
 30
0.0
 40
0.8316075653474539
 50
251.0055122607116971
 51
288.9944877392882745
  0
ARC
  5
E191
  8
0
 10
4446.1670821886682461
 20
162.0014394639669888
 30
0.0
 40
0.0247975835136388
 50
67.956276180020339
 51
114.7408622132114999
  0
ARC
  5
E192
  8
0
 10
4446.165310182264875
 20
162.5600195454817083
 30
0.0
 40
0.0376601196449518
 50
256.789950783844688
 51
287.1084267238812799
  0
LINE
  5
E193
  8
0
 10
4447.3181213535453935
 20
161.9789495007163111
 30
0.0
 11
4447.3181213535453935
 21
162.5695006818162938
 31
0.0
  0
LINE
  5
E194
  8
0
 10
4447.2984363141449649
 20
162.5240258952165107
 30
0.0
 11
4447.2984363141449649
 21
162.0244242874163092
 31
0.0
  0
LINE
  5
E195
  8
0
 10
4446.7570977314462652
 20
162.0244242874163092
 30
0.0
 11
4446.7570977314462652
 21
162.5240258952165107
 31
0.0
  0
ARC
  5
E196
  8
0
 10
4447.0277670227960698
 20
161.7381189285320886
 30
0.0
 40
0.8312109392704908
 50
70.9961011467723608
 51
109.0038988532275965
  0
ARC
  5
E197
  8
0
 10
4447.0277670227960698
 20
162.8107507320073069
 30
0.0
 40
0.8316075653474539
 50
251.0055122607116971
 51
288.9944877392882745
  0
ARC
  5
E198
  8
0
 10
4447.3077431954243366
 20
162.0014394639669888
 30
0.0
 40
0.0247975835136388
 50
65.2591377867884432
 51
112.0437238199796042
  0
ARC
  5
E199
  8
0
 10
4447.3095152018277076
 20
162.5600195454817083
 30
0.0
 40
0.0376601196449518
 50
252.8915732761186064
 51
283.2100492161554257
  0
LINE
  5
E19A
  8
0
 10
4447.9874126920458366
 20
163.0064858358194897
 30
0.0
 11
4447.9874126920458366
 21
163.2387920204162981
 31
0.0
  0
LINE
  5
E19B
  8
0
 10
4447.9492461885438388
 20
162.9390267692556904
 30
0.0
 11
4447.4470314829914059
 21
162.6372657303687959
 31
0.0
  0
LINE
  5
E19C
  8
0
 10
4447.4045626519846337
 20
162.5802570689751008
 30
0.0
 11
4447.4174427660282163
 21
162.6055357161199026
 31
0.0
  0
ARC
  5
E19D
  8
0
 10
4447.3870098234574471
 20
162.589200681816294
 30
0.0
 40
0.0197
 50
270.0
 51
333.0000000119027277
  0
ARC
  5
E19E
  8
0
 10
4447.9087126920458104
 20
163.0064858358194897
 30
0.0
 40
0.0787
 50
301.0000000020023094
 51
0.0000000000203555
  0
ARC
  5
E19F
  8
0
 10
4447.4875649794894343
 20
162.5698066638049113
 30
0.0
 40
0.0787
 50
121.0000000020111059
 51
153.0000000119077868
  0
ARC
  5
E1A0
  8
0
 10
4446.7374126920458366
 20
162.5753041763775002
 30
0.0
 40
0.0549268868133762
 50
248.9988786344063101
 51
291.0011213655936899
  0
ARC
  5
E1A1
  8
0
 10
4446.7374126920458366
 20
161.9911534445703012
 30
0.0
 40
0.0386581137649067
 50
59.3888785491267512
 51
120.6111214508728011
  0
LINE
  5
E1A2
  8
0
 10
4446.0573826180643664
 20
162.6055357161199026
 30
0.0
 11
4447.4174427660282163
 21
162.6055357161199026
 31
0.0
  0
LINE
  5
E1A3
  8
0
 10
4445.5255791955478344
 20
162.9390267692556904
 30
0.0
 11
4447.9492461885438388
 21
162.9390267692556904
 31
0.0
  0
LINE
  5
E1A4
  8
0
 10
4446.1485316977141338
 20
161.9395521303162866
 30
0.0
 11
4448.7871545354182672
 21
161.9395521303162866
 31
0.0
  0
LINE
  5
E1A5
  8
0
 10
4450.5931826938740414
 20
161.9395521303162866
 30
0.0
 11
4453.2318054972765822
 21
161.9395521303162866
 31
0.0
  0
LINE
  5
E1A6
  8
0
 10
4447.1299126920448543
 20
161.9395521303162866
 30
0.0
 11
4447.1299126920448543
 21
161.9789495007163111
 31
0.0
  0
LINE
  5
E1A7
  8
0
 10
4446.3449126920459094
 20
161.9395521303162866
 30
0.0
 11
4446.3449126920459094
 21
161.9789495007163111
 31
0.0
  0
LINE
  5
E1A8
  8
0
 10
4446.839708112439439
 20
161.1499026093214013
 30
0.0
 11
4448.5547368991956318
 21
160.994136623666293
 31
0.0
  0
ARC
  5
E1A9
  8
0
 10
4446.9124146643407585
 20
161.9516279739623883
 30
0.0
 40
0.8050154055274304
 50
183.8551669453202067
 51
264.8181576242873234
  0
ARC
  5
E1AA
  8
0
 10
4446.1485316977141338
 20
161.9001521303158881
 30
0.0
 40
0.0394
 50
90.000000000260556
 51
183.8551669447300867
  0
LINE
  5
E1AB
  8
0
 10
4453.8929245029448794
 20
163.2387920204162981
 30
0.0
 11
4451.3929245029457888
 21
163.2387920204162981
 31
0.0
  0
LINE
  5
E1AC
  8
0
 10
4453.8929245029448794
 20
163.0064858358194897
 30
0.0
 11
4453.8929245029448794
 21
163.2387920204162981
 31
0.0
  0
LINE
  5
E1AD
  8
0
 10
4453.8547579994428816
 20
162.9390267692556904
 30
0.0
 11
4453.3525432938913582
 21
162.6372657303687959
 31
0.0
  0
LINE
  5
E1AE
  8
0
 10
4453.310074462884586
 20
162.5802570689751008
 30
0.0
 11
4453.3229545769281685
 21
162.6055357161199026
 31
0.0
  0
LINE
  5
E1AF
  8
0
 10
4453.2925216343583088
 20
162.5695006818162938
 30
0.0
 11
4451.9933273715350879
 21
162.5695006818162938
 31
0.0
  0
ARC
  5
E1B0
  8
0
 10
4453.2925216343583088
 20
162.589200681816294
 30
0.0
 40
0.0197
 50
270.0
 51
333.0000000119027277
  0
ARC
  5
E1B1
  8
0
 10
4453.8142245029448532
 20
163.0064858358194897
 30
0.0
 40
0.0787
 50
301.0000000020023094
 51
0.0000000000203555
  0
ARC
  5
E1B2
  8
0
 10
4453.3930767903902961
 20
162.5698066638049113
 30
0.0
 40
0.0787
 50
121.0000000020111059
 51
153.0000000119077868
  0
LINE
  5
E1B3
  8
0
 10
4453.2236331644462553
 20
161.9789495007163111
 30
0.0
 11
4452.0622158414462319
 21
161.9789495007163111
 31
0.0
  0
LINE
  5
E1B4
  8
0
 10
4453.2236331644462553
 20
161.9789495007163111
 30
0.0
 11
4453.2236331644462553
 21
162.5695006818162938
 31
0.0
  0
LINE
  5
E1B5
  8
0
 10
4453.2039481250458266
 20
162.5240258952165107
 30
0.0
 11
4453.2039481250458266
 21
162.0244242874163092
 31
0.0
  0
LINE
  5
E1B6
  8
0
 10
4452.6626095423462175
 20
162.0244242874163092
 30
0.0
 11
4452.6626095423462175
 21
162.5240258952165107
 31
0.0
  0
ARC
  5
E1B7
  8
0
 10
4452.933278833696022
 20
161.7381189285320886
 30
0.0
 40
0.8312109392704908
 50
70.9961011467723608
 51
109.0038988532275965
  0
ARC
  5
E1B8
  8
0
 10
4452.933278833696022
 20
162.8107507320073069
 30
0.0
 40
0.8316075653474539
 50
251.0055122607116971
 51
288.9944877392882745
  0
ARC
  5
E1B9
  8
0
 10
4453.2132550063242888
 20
162.0014394639669888
 30
0.0
 40
0.0247975835136388
 50
65.2591377867884432
 51
112.0437238199796042
  0
ARC
  5
E1BA
  8
0
 10
4453.2150270127267504
 20
162.5600195454817083
 30
0.0
 40
0.0376601196449518
 50
252.8915732761186064
 51
283.2100492161554257
  0
LINE
  5
E1BB
  8
0
 10
4452.0622158414462319
 20
161.9789495007163111
 30
0.0
 11
4452.0622158414462319
 21
162.5695006818162938
 31
0.0
  0
LINE
  5
E1BC
  8
0
 10
4452.0819008808457511
 20
162.5240258952165107
 30
0.0
 11
4452.0819008808457511
 21
162.0244242874163092
 31
0.0
  0
LINE
  5
E1BD
  8
0
 10
4452.6232394635462697
 20
162.0244242874163092
 30
0.0
 11
4452.6232394635462697
 21
162.5240258952165107
 31
0.0
  0
ARC
  5
E1BE
  8
0
 10
4452.3525701721946461
 20
161.7381189285320886
 30
0.0
 40
0.8312109392704908
 50
70.9961011467723608
 51
109.0038988532275965
  0
ARC
  5
E1BF
  8
0
 10
4452.3525701721946461
 20
162.8107507320073069
 30
0.0
 40
0.8316075653474539
 50
251.0055122607116971
 51
288.9944877392882745
  0
ARC
  5
E1C0
  8
0
 10
4452.0725939995681983
 20
162.0014394639669888
 30
0.0
 40
0.0247975835136388
 50
67.956276180020339
 51
114.7408622132114999
  0
ARC
  5
E1C1
  8
0
 10
4452.0708219931648273
 20
162.5600195454817083
 30
0.0
 40
0.0376601196449518
 50
256.789950783844688
 51
287.1084267238812799
  0
LINE
  5
E1C2
  8
0
 10
4451.3929245029457888
 20
163.0064858358194897
 30
0.0
 11
4451.3929245029457888
 21
163.2387920204162981
 31
0.0
  0
LINE
  5
E1C3
  8
0
 10
4451.4310910064477866
 20
162.9390267692556904
 30
0.0
 11
4451.933305712001129
 21
162.6372657303687959
 31
0.0
  0
LINE
  5
E1C4
  8
0
 10
4451.9757745430060822
 20
162.5802570689751008
 30
0.0
 11
4451.9628944289643186
 21
162.6055357161199026
 31
0.0
  0
ARC
  5
E1C5
  8
0
 10
4451.9933273715350879
 20
162.589200681816294
 30
0.0
 40
0.0197
 50
206.9999999880973007
 51
270.0
  0
ARC
  5
E1C6
  8
0
 10
4451.4716245029449055
 20
163.0064858358194897
 30
0.0
 40
0.0787
 50
179.9999999999787974
 51
238.9999999979976906
  0
ARC
  5
E1C7
  8
0
 10
4451.8927722155031006
 20
162.5698066638049113
 30
0.0
 40
0.0787
 50
26.9999999880922097
 51
58.9999999979888798
  0
ARC
  5
E1C8
  8
0
 10
4452.6429245029457888
 20
162.5753041763775002
 30
0.0
 40
0.0549268868133762
 50
248.9988786344063101
 51
291.0011213655936899
  0
ARC
  5
E1C9
  8
0
 10
4452.6429245029457888
 20
161.9911534445703012
 30
0.0
 40
0.0386581137649067
 50
59.3888785491271491
 51
120.6111214508736964
  0
LINE
  5
E1CA
  8
0
 10
4453.3229545769281685
 20
162.6055357161199026
 30
0.0
 11
4451.9628944289643186
 21
162.6055357161199026
 31
0.0
  0
LINE
  5
E1CB
  8
0
 10
4453.8547579994428816
 20
162.9390267692556904
 30
0.0
 11
4451.4310910064477866
 21
162.9390267692556904
 31
0.0
  0
LINE
  5
E1CC
  8
0
 10
4452.2504245029449521
 20
161.9395521303162866
 30
0.0
 11
4452.2504245029449521
 21
161.9789495007163111
 31
0.0
  0
LINE
  5
E1CD
  8
0
 10
4453.0354245029448066
 20
161.9395521303162866
 30
0.0
 11
4453.0354245029448066
 21
161.9789495007163111
 31
0.0
  0
ARC
  5
E1CE
  8
0
 10
4452.4679225306517765
 20
161.9516279739623883
 30
0.0
 40
0.8050154055274304
 50
275.1818423757126766
 51
356.1448330546788839
  0
ARC
  5
E1CF
  8
0
 10
4453.2318054972765822
 20
161.9001521303158881
 30
0.0
 40
0.0394
 50
356.1448330552689754
 51
89.999999999739444
  0
LINE
  5
E1D0
  8
0
 10
4452.5406290825530959
 20
161.1499026093214013
 30
0.0
 11
4451.2188996963259342
 21
161.0300381389461961
 31
0.0
  0
ARC
  5
E1D1
  8
0
 10
4449.6901560505139059
 20
157.0574782135039129
 30
0.0
 40
1.9908526265037061
 50
265.7525238376319976
 51
270.0003615896580982
  0
ARC
  5
E1D2
  8
0
 10
4449.6887160397582193
 20
157.0380889718259994
 30
0.0
 40
1.9714099846096931
 50
252.7379424623590864
 51
265.7525238376319976
  0
ARC
  5
E1D3
  8
0
 10
4449.6512179975288745
 20
156.9174152168345131
 30
0.0
 40
1.8450444105211781
 50
231.7096240089352079
 51
252.7379424623590864
  0
ARC
  5
E1D4
  8
0
 10
4449.4921849016518536
 20
156.7159748337107885
 30
0.0
 40
1.5883933759674871
 50
212.7398596715557915
 51
231.7096240089352079
  0
ARC
  5
E1D5
  8
0
 10
4449.4077727962758217
 20
156.6617002610300062
 30
0.0
 40
1.4880383423432091
 50
196.7354543181996007
 51
212.7398596715557915
  0
ARC
  5
E1D6
  8
0
 10
4449.5482255090946637
 20
156.6656874658604011
 30
0.0
 40
1.624103264479708
 50
181.1876440887932915
 51
195.4432561857387043
  0
ARC
  5
E1D7
  8
0
 10
4451.011030028523237
 20
156.5971543035969944
 30
0.0
 40
3.086755859326566
 50
173.5835569695717027
 51
179.3527233686662044
  0
ARC
  5
E1D8
  8
0
 10
4449.4112236805503926
 20
156.8778766709421006
 30
0.0
 40
1.4690187990790191
 50
139.4800292838502003
 51
177.4938461228283018
  0
ARC
  5
E1D9
  8
0
 10
4449.5850703388268812
 20
156.7400991179237053
 30
0.0
 40
1.6907093051501769
 50
127.3785537783444965
 51
139.7584172872633985
  0
ARC
  5
E1DA
  8
0
 10
4449.8693154023567331
 20
156.3053389254417027
 30
0.0
 40
2.2090749247553809
 50
112.9384721926272022
 51
126.3913469153305016
  0
ARC
  5
E1DB
  8
0
 10
4448.7423396498397778
 20
158.8820933446795891
 30
0.0
 40
0.6040846032017262
 50
296.125889067149501
 51
313.969019215144499
  0
ARC
  5
E1DC
  8
0
 10
4449.6901103812133442
 20
161.4025504207696997
 30
0.0
 40
0.5738441004194089
 50
89.9941856508605582
 51
105.2089399922445949
  0
ARC
  5
E1DD
  8
0
 10
4449.6871238077546877
 20
161.413536062261386
 30
0.0
 40
0.5624597277969337
 50
105.2089399922445949
 51
123.2026666860028996
  0
ARC
  5
E1DE
  8
0
 10
4449.6640671071772886
 20
161.4487668150557056
 30
0.0
 40
0.5203548897859955
 50
123.2026666860028996
 51
145.2465588561904895
  0
ARC
  5
E1DF
  8
0
 10
4449.6934573473636192
 20
161.4283754652080063
 30
0.0
 40
0.5561262941027579
 50
145.2465588561904895
 51
164.8453242164738128
  0
ARC
  5
E1E0
  8
0
 10
4451.0407455625027069
 20
161.0634695680579114
 30
0.0
 40
1.951956458709744
 50
164.8453242164738128
 51
171.709951196759306
  0
ARC
  5
E1E1
  8
0
 10
4453.799500826802614
 20
160.6615000281568939
 30
0.0
 40
4.7398427762113924
 50
171.7099511967585102
 51
175.6734124522257048
  0
ARC
  5
E1E2
  8
0
 10
4449.610124582824028
 20
160.978455908624511
 30
0.0
 40
0.5384936662506105
 50
175.673412452224909
 51
184.7250015969520121
  0
ARC
  5
E1E3
  8
0
 10
4306.1003790400800426
 20
154.6138526659343029
 30
0.0
 40
143.1127096429927974
 50
1.534930242114326
 51
2.5311603624441141
  0
LINE
  5
E1E4
  8
0
 10
4449.1389874951446473
 20
158.4264743211089126
 30
0.0
 11
4449.1389874951446473
 21
159.2186493604673103
 31
0.0
  0
ARC
  5
E1E5
  8
0
 10
4449.6997300400798849
 20
161.6152566431819082
 30
0.0
 40
0.4672780865073706
 50
143.7512351120275014
 51
159.44253969247589
  0
ARC
  5
E1E6
  8
0
 10
4449.2504309423211453
 20
161.9256942941175055
 30
0.0
 40
0.080099090532055
 50
334.7721700198526946
 51
24.4326997955190883
  0
ARC
  5
E1E7
  8
0
 10
4450.465771117696022
 20
162.6318544240336053
 30
0.0
 40
1.325925484057797
 50
206.4126508732715024
 51
210.5035691170212999
  0
ARC
  5
E1E8
  8
0
 10
4449.6825098280141901
 20
162.2241745595449061
 30
0.0
 40
0.4433913447945752
 50
89.0102717560989447
 51
204.2537251731656909
  0
ARC
  5
E1E9
  8
0
 10
4449.6882628562761965
 20
162.3477580573666899
 30
0.0
 40
0.3729152748958962
 50
150.102105174510001
 51
199.9534336381630055
  0
ARC
  5
E1EA
  8
0
 10
4449.2754394936018798
 20
162.1978824929396978
 30
0.0
 40
0.0662723997735712
 50
347.0507602828147924
 51
19.9534336381630801
  0
ARC
  5
E1EB
  8
0
 10
4453.878381035883649
 20
161.8831496140859088
 30
0.0
 40
4.5482514188961067
 50
176.2195473731065078
 51
179.4017997773813136
  0
ARC
  5
E1EC
  8
0
 10
4449.6895760259667441
 20
161.9423795537186095
 30
0.0
 40
0.8988488425628899
 50
185.4139749815562084
 51
228.8654131549278077
  0
ARC
  5
E1ED
  8
0
 10
4466.9051691531703909
 20
163.5739688985786131
 30
0.0
 40
18.1915851937493116
 50
181.0557247775487042
 51
185.4139749815562084
  0
LINE
  5
E1EE
  8
0
 10
4448.716672010145885
 20
163.2387920204162981
 30
0.0
 11
4450.6636652191464236
 21
163.2387920204162981
 31
0.0
  0
ARC
  5
E1EF
  8
0
 10
4449.6901511388914514
 20
161.8651798612339974
 30
0.0
 40
0.421227535144109
 50
89.9976252567417845
 51
104.3505966935949942
  0
ARC
  5
E1F0
  8
0
 10
4449.6868758697701196
 20
161.8779820090819044
 30
0.0
 40
0.4080130590919086
 50
104.3505966935949942
 51
149.7120196523331117
  0
ARC
  5
E1F1
  8
0
 10
4449.689973649534295
 20
161.7039972325464987
 30
0.0
 40
0.4432228273429098
 50
89.974798909319631
 51
114.5759431495113034
  0
ARC
  5
E1F2
  8
0
 10
4449.6821574381447135
 20
161.721088274523396
 30
0.0
 40
0.4244292945102317
 50
114.5759431495113034
 51
145.8855793735503141
  0
ARC
  5
E1F3
  8
0
 10
4449.6901318409818487
 20
161.717595587029507
 30
0.0
 40
0.4595167586567909
 50
89.9954169331610956
 51
108.3186968598271989
  0
ARC
  5
E1F4
  8
0
 10
4449.6859041106508812
 20
161.7303650832542132
 30
0.0
 40
0.4460655974588343
 50
108.3186968598271989
 51
142.5734621097809907
  0
ARC
  5
E1F5
  8
0
 10
4449.8262771350046023
 20
162.0682034721181992
 30
0.0
 40
0.3906866210083088
 50
52.5716631767789124
 51
156.868678878377807
  0
ARC
  5
E1F6
  8
0
 10
4449.6901685975462897
 20
161.4543946500160985
 30
0.0
 40
0.8267716535001587
 50
104.6007105649788969
 51
114.9489530048120969
  0
ARC
  5
E1F7
  8
0
 10
4449.7074644685353633
 20
161.4587443802674898
 30
0.0
 40
0.844571182844346
 50
172.2862439861216046
 51
221.509169111549312
  0
ARC
  5
E1F8
  8
0
 10
4449.6897783014092056
 20
157.3340758508714998
 30
0.0
 40
1.977110721758748
 50
266.44663091918801
 51
270.0113111021440773
  0
ARC
  5
E1F9
  8
0
 10
4449.6884120478389377
 20
157.3120741465507137
 30
0.0
 40
1.9550666377033881
 50
252.5288636197240066
 51
266.44663091918801
  0
ARC
  5
E1FA
  8
0
 10
4449.6442664584719751
 20
157.1718158896366049
 30
0.0
 40
1.8080251071988671
 50
226.877282654692408
 51
252.5288636197240066
  0
ARC
  5
E1FB
  8
0
 10
4449.4229224810105734
 20
156.9354704584779086
 30
0.0
 40
1.484216028901876
 50
205.5601849735959945
 51
226.877282654692408
  0
ARC
  5
E1FC
  8
0
 10
4449.3937633827999889
 20
156.9215246653625968
 30
0.0
 40
1.4518936194288361
 50
189.5954333758710959
 51
205.5601849735959945
  0
ARC
  5
E1FD
  8
0
 10
4449.3589562745955845
 20
156.9156403372194006
 30
0.0
 40
1.416592626537047
 50
179.3513604615899908
 51
189.5954333758710959
  0
ARC
  5
E1FE
  8
0
 10
4448.3568872111372912
 20
160.2216144889021052
 30
0.0
 40
0.7974552951516938
 50
23.0669244050353797
 51
75.6348152457584462
  0
ARC
  5
E1FF
  8
0
 10
4449.6901811787793122
 20
157.0574782135039129
 30
0.0
 40
1.9908526265037061
 50
269.9996384103419018
 51
274.2474761623680024
  0
ARC
  5
E200
  8
0
 10
4449.6916211895340894
 20
157.0380889718259994
 30
0.0
 40
1.9714099846096931
 50
274.2474761623680024
 51
287.2620575376408851
  0
ARC
  5
E201
  8
0
 10
4449.7291192317616151
 20
156.9174152168345131
 30
0.0
 40
1.8450444105211781
 50
287.2620575376408851
 51
308.2903759910648773
  0
ARC
  5
E202
  8
0
 10
4449.8881523276395455
 20
156.7159748337107885
 30
0.0
 40
1.5883933759674871
 50
308.2903759910648773
 51
327.2601403284435833
  0
ARC
  5
E203
  8
0
 10
4449.9725644330155774
 20
156.6617002610300062
 30
0.0
 40
1.4880383423432091
 50
327.2601403284442085
 51
343.2645456818004277
  0
ARC
  5
E204
  8
0
 10
4449.8321117201967354
 20
156.6656874658604011
 30
0.0
 40
1.624103264479708
 50
344.5567438142613241
 51
358.8123559112058842
  0
ARC
  5
E205
  8
0
 10
4448.3693072007681621
 20
156.5971543035969944
 30
0.0
 40
3.086755859326566
 50
0.6472766313337573
 51
6.4164430304283311
  0
ARC
  5
E206
  8
0
 10
4449.969113548741916
 20
156.8778766709421006
 30
0.0
 40
1.4690187990790191
 50
2.506153877171672
 51
40.5199707161497997
  0
ARC
  5
E207
  8
0
 10
4449.7952668904636084
 20
156.7400991179237053
 30
0.0
 40
1.6907093051501769
 50
40.2415827127365802
 51
52.6214462216555035
  0
ARC
  5
E208
  8
0
 10
4449.511021826934666
 20
156.3053389254417027
 30
0.0
 40
2.2090749247553809
 50
53.6086530846695197
 51
67.061527807372741
  0
ARC
  5
E209
  8
0
 10
4450.6379975794507118
 20
158.8820933446795891
 30
0.0
 40
0.6040846032017262
 50
226.030980784855501
 51
243.8741109328504137
  0
ARC
  5
E20A
  8
0
 10
4449.6902268480789644
 20
161.4025504207696997
 30
0.0
 40
0.5738441004194089
 50
74.791060007755334
 51
90.005814349139456
  0
ARC
  5
E20B
  8
0
 10
4449.6932134215376209
 20
161.413536062261386
 30
0.0
 40
0.5624597277969337
 50
56.7973333139970222
 51
74.791060007755334
  0
ARC
  5
E20C
  8
0
 10
4449.7162701221141106
 20
161.4487668150557056
 30
0.0
 40
0.5203548897859955
 50
34.7534411438095177
 51
56.7973333139970222
  0
ARC
  5
E20D
  8
0
 10
4449.6868798819277799
 20
161.4283754652080063
 30
0.0
 40
0.5561262941027579
 50
15.1546757835261197
 51
34.7534411438095177
  0
ARC
  5
E20E
  8
0
 10
4448.3395916667896017
 20
161.0634695680579114
 30
0.0
 40
1.951956458709744
 50
8.2900488032406532
 51
15.1546757835261197
  0
ARC
  5
E20F
  8
0
 10
4445.5808364024887851
 20
160.6615000281568939
 30
0.0
 40
4.7398427762113924
 50
4.3265875477743121
 51
8.2900488032414597
  0
ARC
  5
E210
  8
0
 10
4449.7702126464655521
 20
160.978455908624511
 30
0.0
 40
0.5384936662506105
 50
355.2749984030480164
 51
4.3265875477751239
  0
ARC
  5
E211
  8
0
 10
4593.2799581892113565
 20
154.6138526659343029
 30
0.0
 40
143.1127096429927974
 50
177.4688396375559023
 51
178.4650697578856864
  0
LINE
  5
E212
  8
0
 10
4450.2413497341449329
 20
158.4264743211089126
 30
0.0
 11
4450.2413497341449329
 21
159.2186493604673103
 31
0.0
  0
ARC
  5
E213
  8
0
 10
4449.6806071892106047
 20
161.6152566431819082
 30
0.0
 40
0.4672780865073706
 50
20.5574603075240709
 51
36.2487648879724702
  0
ARC
  5
E214
  8
0
 10
4450.1299062869711634
 20
161.9256942941175055
 30
0.0
 40
0.080099090532055
 50
155.5673002044808868
 51
205.2278299801473906
  0
ARC
  5
E215
  8
0
 10
4448.9145661115962866
 20
162.6318544240336053
 30
0.0
 40
1.325925484057797
 50
329.4964308829787001
 51
333.5873491267284976
  0
ARC
  5
E216
  8
0
 10
4449.6978274012781185
 20
162.2241745595449061
 30
0.0
 40
0.4433913447945752
 50
335.7462748268342239
 51
90.9897282439010411
  0
ARC
  5
E217
  8
0
 10
4449.6920743730161121
 20
162.3477580573666899
 30
0.0
 40
0.3729152748958962
 50
340.0465663618369945
 51
29.8978948254892707
  0
ARC
  5
E218
  8
0
 10
4450.1048977356886098
 20
162.1978824929396978
 30
0.0
 40
0.0662723997735712
 50
160.0465663618369092
 51
192.9492397171852076
  0
ARC
  5
E219
  8
0
 10
4445.5019561934086596
 20
161.8831496140859088
 30
0.0
 40
4.5482514188961067
 50
0.5982002226178482
 51
3.780452626893489
  0
ARC
  5
E21A
  8
0
 10
4449.6907612033237456
 20
161.9423795537186095
 30
0.0
 40
0.8988488425628899
 50
311.1345868450721923
 51
354.58602501844382
  0
ARC
  5
E21B
  8
0
 10
4432.4751680761219177
 20
163.5739688985786131
 30
0.0
 40
18.1915851937493116
 50
354.58602501844382
 51
358.9442752224513242
  0
ARC
  5
E21C
  8
0
 10
4449.6901860904008572
 20
161.8651798612339974
 30
0.0
 40
0.421227535144109
 50
75.6494033064050342
 51
90.0023747432582297
  0
ARC
  5
E21D
  8
0
 10
4449.693461359522189
 20
161.8779820090819044
 30
0.0
 40
0.4080130590919086
 50
30.2879803476668492
 51
75.6494033064050342
  0
ARC
  5
E21E
  8
0
 10
4449.6903635797571042
 20
161.7039972325464987
 30
0.0
 40
0.4432228273429098
 50
65.4240568504886966
 51
90.0252010906803548
  0
ARC
  5
E21F
  8
0
 10
4449.6981797911466856
 20
161.721088274523396
 30
0.0
 40
0.4244292945102317
 50
34.1144206264496219
 51
65.4240568504886966
  0
ARC
  5
E220
  8
0
 10
4449.6902053883095505
 20
161.717595587029507
 30
0.0
 40
0.4595167586567909
 50
71.6813031401727443
 51
90.0045830668388902
  0
ARC
  5
E221
  8
0
 10
4449.6944331186396084
 20
161.7303650832542132
 30
0.0
 40
0.4460655974588343
 50
37.4265378902190307
 51
71.6813031401727443
  0
ARC
  5
E222
  8
0
 10
4449.6728727607560359
 20
161.4587443802674898
 30
0.0
 40
0.844571182844346
 50
318.4908308884507164
 51
343.2383215972113248
  0
ARC
  5
E223
  8
0
 10
4449.690558927883103
 20
157.3340758508714998
 30
0.0
 40
1.977110721758748
 50
269.988688897855809
 51
273.5533690808118763
  0
ARC
  5
E224
  8
0
 10
4449.6919251814533709
 20
157.3120741465507137
 30
0.0
 40
1.9550666377033881
 50
273.5533690808118763
 51
287.4711363802759934
  0
ARC
  5
E225
  8
0
 10
4449.7360707708203336
 20
157.1718158896366049
 30
0.0
 40
1.8080251071988671
 50
287.4711363802759934
 51
313.122717345307592
  0
ARC
  5
E226
  8
0
 10
4449.9574147482790067
 20
156.9354704584779086
 30
0.0
 40
1.484216028901876
 50
313.122717345307592
 51
334.4398150264041192
  0
ARC
  5
E227
  8
0
 10
4449.9865738464923197
 20
156.9215246653625968
 30
0.0
 40
1.4518936194288361
 50
334.4398150264041192
 51
350.4045666241287904
  0
ARC
  5
E228
  8
0
 10
4450.0213809546939956
 20
156.9156403372194006
 30
0.0
 40
1.416592626537047
 50
350.4045666241287904
 51
0.648639538410011
  0
ARC
  5
E229
  8
0
 10
4451.0234500181550175
 20
160.2216144889021052
 30
0.0
 40
0.7974552951516938
 50
117.3838876217966032
 51
156.9330755949646061
  0
ARC
  5
E22A
  8
0
 10
4448.4956605987808871
 20
159.8225799087693133
 30
0.0
 40
2.9789237251099849
 50
18.9404359030064988
 51
45.2452517063547219
  0
ARC
  5
E22B
  8
0
 10
4450.8977415424742503
 20
160.646890457929203
 30
0.0
 40
0.4393409362425573
 50
355.9682071164133959
 51
18.9404359030072698
  0
ARC
  5
E22C
  8
0
 10
4451.0487068141610507
 20
160.6130148767852859
 30
0.0
 40
0.287303891418063
 50
166.0816143767524125
 51
0.5953999569149016
  0
ARC
  5
E22D
  8
0
 10
4451.0683604074565665
 20
160.6178210590771016
 30
0.0
 40
0.2912220789062736
 50
355.8129005209519846
 51
29.4105844718862386
  0
ARC
  5
E22E
  8
0
 10
4451.0058306096716478
 20
160.6344495941199
 30
0.0
 40
0.3550025947430157
 50
305.5588515968408956
 51
353.8727793425425148
  0
ARC
  5
E22F
  8
0
 10
4465.9890457217370567
 20
140.6313878442491898
 30
0.0
 40
24.6374698414012698
 50
126.8532874309553051
 51
129.6929184287868964
  0
ARC
  5
E230
  8
0
 10
4448.4417780141566254
 20
159.7675764241938907
 30
0.0
 40
2.5012516963052609
 50
21.4466971703884788
 51
39.4576277614582835
  0
ARC
  5
E231
  8
0
 10
4470.6699152816454443
 20
133.8001214670802028
 30
0.0
 40
33.4573765627621
 50
126.5065670591107931
 51
127.5453526906186994
  0
ENDSEC
  0
EOF
