  0
SECTION
  2
HEADER
  9
$ACADVER
  1
AC1009
  9
$INSBASE
 10
4494.3062149216329999
 20
161.3576518892159868
 30
0.0
  9
$EXTMIN
 10
4489.9362710470140883
 20
151.8116018033474006
 30
-0.0000000000112498
  9
$EXTMAX
 10
4498.5168986463377223
 20
175.8067030152865016
 30
0.0000000000002956
  9
$LIMMIN
 10
0.0
 20
0.0
  9
$LIMMAX
 10
11.6929133858000007
 20
8.2677165353999982
  9
$ORTHOMODE
 70
     0
  9
$REGENMODE
 70
     1
  9
$FILLMODE
 70
     1
  9
$QTEXTMODE
 70
     0
  9
$MIRRTEXT
 70
     0
  9
$DRAGMODE
 70
     2
  9
$LTSCALE
 40
0.6431102362
  9
$OSMODE
 70
  4095
  9
$ATTMODE
 70
     1
  9
$TEXTSIZE
 40
0.2
  9
$TRACEWID
 40
0.05
  9
$TEXTSTYLE
  7
STANDARD
  9
$CLAYER
  8
0
  9
$CELTYPE
  6
BYLAYER
  9
$CECOLOR
 62
   256
  9
$DIMSCALE
 40
1.0
  9
$DIMASZ
 40
0.1875
  9
$DIMEXO
 40
0.0625
  9
$DIMDLI
 40
0.4443307087
  9
$DIMRND
 40
0.0
  9
$DIMDLE
 40
0.0
  9
$DIMEXE
 40
0.125
  9
$DIMTP
 40
0.01
  9
$DIMTM
 40
0.01
  9
$DIMTXT
 40
2.0
  9
$DIMCEN
 40
0.1052362205
  9
$DIMTSZ
 40
0.0
  9
$DIMTOL
 70
     1
  9
$DIMLIM
 70
     0
  9
$DIMTIH
 70
     1
  9
$DIMTOH
 70
     1
  9
$DIMSE1
 70
     0
  9
$DIMSE2
 70
     0
  9
$DIMTAD
 70
     0
  9
$DIMZIN
 70
     0
  9
$DIMBLK
  1

  9
$DIMASO
 70
     1
  9
$DIMSHO
 70
     1
  9
$DIMPOST
  1
\X
  9
$DIMAPOST
  1

  9
$DIMALT
 70
     1
  9
$DIMALTD
 70
     2
  9
$DIMALTF
 40
25.3999999999999986
  9
$DIMLFAC
 40
1.0
  9
$DIMTOFL
 70
     0
  9
$DIMTVP
 40
0.0
  9
$DIMTIX
 70
     0
  9
$DIMSOXD
 70
     0
  9
$DIMSAH
 70
     0
  9
$DIMBLK1
  1

  9
$DIMBLK2
  1

  9
$DIMSTYLE
  2
STANDARD
  9
$DIMCLRD
 70
     0
  9
$DIMCLRE
 70
     0
  9
$DIMCLRT
 70
     0
  9
$DIMTFAC
 40
1.0
  9
$DIMGAP
 40
0.09
  9
$LUNITS
 70
     2
  9
$LUPREC
 70
     4
  9
$SKETCHINC
 40
0.1
  9
$FILLETRAD
 40
0.0
  9
$AUNITS
 70
     0
  9
$AUPREC
 70
     0
  9
$MENU
  1
.
  9
$ELEVATION
 40
0.0
  9
$PELEVATION
 40
0.0
  9
$THICKNESS
 40
0.0
  9
$LIMCHECK
 70
     0
  9
$BLIPMODE
 70
     0
  9
$CHAMFERA
 40
0.0
  9
$CHAMFERB
 40
0.0
  9
$SKPOLY
 70
     0
  9
$TDCREATE
 40
2458060.468368056230247
  9
$TDUPDATE
 40
2460112.4247222221456468
  9
$TDINDWG
 40
0.4805510417
  9
$TDUSRTIMER
 40
0.4805510417
  9
$USRTIMER
 70
     1
  9
$ANGBASE
 50
0.0
  9
$ANGDIR
 70
     0
  9
$PDMODE
 70
     0
  9
$PDSIZE
 40
0.3125
  9
$PLINEWID
 40
0.0
  9
$COORDS
 70
     1
  9
$SPLFRAME
 70
     0
  9
$SPLINETYPE
 70
     6
  9
$SPLINESEGS
 70
     8
  9
$ATTDIA
 70
     1
  9
$ATTREQ
 70
     1
  9
$HANDLING
 70
     1
  9
$HANDSEED
  5
10556
  9
$SURFTAB1
 70
     6
  9
$SURFTAB2
 70
     6
  9
$SURFTYPE
 70
     6
  9
$SURFU
 70
     6
  9
$SURFV
 70
     6
  9
$UCSNAME
  2

  9
$UCSORG
 10
0.0
 20
0.0
 30
0.0
  9
$UCSXDIR
 10
1.0
 20
0.0
 30
0.0
  9
$UCSYDIR
 10
0.0
 20
1.0
 30
0.0
  9
$PUCSNAME
  2

  9
$PUCSORG
 10
0.0
 20
0.0
 30
0.0
  9
$PUCSXDIR
 10
1.0
 20
0.0
 30
0.0
  9
$PUCSYDIR
 10
0.0
 20
1.0
 30
0.0
  9
$USERI1
 70
     0
  9
$USERI2
 70
     0
  9
$USERI3
 70
     0
  9
$USERI4
 70
     0
  9
$USERI5
 70
     0
  9
$USERR1
 40
0.0
  9
$USERR2
 40
0.0
  9
$USERR3
 40
0.0
  9
$USERR4
 40
0.0
  9
$USERR5
 40
0.0
  9
$WORLDVIEW
 70
     1
  9
$SHADEDGE
 70
     3
  9
$SHADEDIF
 70
    70
  9
$TILEMODE
 70
     1
  9
$MAXACTVP
 70
    64
  9
$PLIMCHECK
 70
     0
  9
$PEXTMIN
 10
1.0000000000000000E+20
 20
1.0000000000000000E+20
 30
1.0000000000000000E+20
  9
$PEXTMAX
 10
-1.0000000000000000E+20
 20
-1.0000000000000000E+20
 30
-1.0000000000000000E+20
  9
$PLIMMIN
 10
0.0
 20
0.0
  9
$PLIMMAX
 10
12.0
 20
9.0
  9
$UNITMODE
 70
     0
  9
$VISRETAIN
 70
     1
  9
$PLINEGEN
 70
     0
  9
$PSLTSCALE
 70
     1
  0
ENDSEC
  0
SECTION
  2
TABLES
  0
TABLE
  2
VPORT
 70
     1
  0
VPORT
  2
*ACTIVE
 70
     0
 10
0.0
 20
0.0
 11
1.0
 21
1.0
 12
690.6825174638632916
 22
37.8138902125670526
 13
0.0
 23
0.0
 14
1.0
 24
1.0
 15
0.0
 25
0.0
 16
0.0
 26
0.0
 36
17.1152628219792007
 17
3803.5440673828129547
 27
125.9952621967499056
 37
0.0
 40
24.1794425784841103
 41
1.4307692307692299
 42
50.0
 43
0.0
 44
0.0
 50
0.0
 51
0.0
 71
     0
 72
   100
 73
     1
 74
     1
 75
     0
 76
     0
 77
     0
 78
     0
  0
ENDTAB
  0
TABLE
  2
LTYPE
 70
     2
  0
LTYPE
  2
CONTINUOUS
 70
     0
  3
Solid line
 72
    65
 73
     0
 40
0.0
  0
LTYPE
  2
PHANTOM2
 70
     0
  3
___ _ _ ___ _ _ ___ _ _ ___ _ _
 72
    65
 73
     6
 40
1.25
 49
0.625
 49
-0.125
 49
0.125
 49
-0.125
 49
0.125
 49
-0.125
  0
ENDTAB
  0
TABLE
  2
LAYER
 70
     2
  0
LAYER
  2
0
 70
     0
 62
   255
  6
CONTINUOUS
  0
LAYER
  2
DEFPOINTS
 70
     0
 62
     7
  6
CONTINUOUS
  0
ENDTAB
  0
TABLE
  2
STYLE
 70
     1
  0
STYLE
  2
STANDARD
 70
     0
 40
0.0
 41
0.8
 50
0.0
 71
     0
 42
0.2
  3
txt
  4

  0
ENDTAB
  0
TABLE
  2
VIEW
 70
     0
  0
ENDTAB
  0
TABLE
  2
UCS
 70
     0
  0
ENDTAB
  0
TABLE
  2
APPID
 70
     9
  0
APPID
  2
ACAD
 70
     0
  0
APPID
  2
ACAD_MLEADERVER
 70
     0
  0
APPID
  2
ACAD_EXEMPT_FROM_CAD_STANDARDS
 70
     0
  0
APPID
  2
ACAD_NAV_VCDISPLAY
 70
     0
  0
APPID
  2
ACAECLAYERSTANDARD
 70
     0
  0
APPID
  2
ACCMTRANSPARENCY
 70
     0
  0
APPID
  2
ACAD_DSTYLE_DIMJAG
 70
     0
  0
APPID
  2
ACAD_DSTYLE_DIMTALN
 70
     0
  0
APPID
  2
ACDBATTR
 70
     0
  0
ENDTAB
  0
TABLE
  2
DIMSTYLE
 70
     1
  0
DIMSTYLE
  2
STANDARD
 70
     0
  3

  4

  5

  6

  7

 40
1.0
 41
0.1875
 42
0.0625
 43
0.38
 44
0.125
 45
0.0
 46
0.0
 47
0.01
 48
0.01
140
0.15625
141
0.09
142
0.0
143
25.3999999999999986
144
1.0
145
0.0
146
1.0
147
0.09
 71
     1
 72
     0
 73
     1
 74
     1
 75
     0
 76
     0
 77
     0
 78
     4
170
     0
171
     2
172
     0
173
     0
174
     0
175
     0
176
     0
177
     0
178
     0
  0
ENDTAB
  0
ENDSEC
  0
SECTION
  2
BLOCKS
  0
BLOCK
  8
0
  2
$MODEL_SPACE
 70
     0
 10
0.0
 20
0.0
 30
0.0
  3
$MODEL_SPACE
  1

  0
ENDBLK
  5
21
  8
0
  0
BLOCK
 67
     1
  8
0
  2
$PAPER_SPACE
 70
     0
 10
0.0
 20
0.0
 30
0.0
  3
$PAPER_SPACE
  1

  0
ENDBLK
  5
1D
 67
     1
  8
0
  0
ENDSEC
  0
SECTION
  2
ENTITIES
  0
ATTDEF
  5
3930
  8
DEFPOINTS
 10
4494.3020023649623909
 20
161.3613908913264936
 30
0.0
 40
0.001
  1
K-31878T-4
  3

  2
MODELNUMBER
 70
     0
1001
ACDBATTR
1070
     0
1070
     1
  0
ATTDEF
  5
3931
  8
DEFPOINTS
 10
4494.3020023649623909
 20
161.3597242246599137
 30
0.0
 40
0.001
  1
ATOM
  3

  2
TRADENAME
 70
     0
1001
ACDBATTR
1070
     0
1070
     1
  0
ATTDEF
  5
3932
  8
DEFPOINTS
 10
4494.3020023649623909
 20
161.3580575579931917
 30
0.0
 40
0.001
  1
SHOWER FAUCET
  3

  2
PRODUCT
 70
     0
1001
ACDBATTR
1070
     0
1070
     1
  0
ARC
  5
FFE9
  8
0
 10
4491.3534589990331369
 20
161.3576518892159868
 30
0.0
 40
1.25
 50
26.4954130721925303
 51
333.557784825747774
  0
ARC
  5
FFEA
  8
0
 10
4491.3534589990331369
 20
161.3576518892159868
 30
0.0
 40
0.667145712504857
 50
54.5439638109926506
 51
305.0846956029794228
  0
LINE
  5
FFEB
  8
0
 10
4491.3222938229173451
 20
160.8177493011228876
 30
0.0
 11
4493.4120124341652627
 21
160.7873839854364064
 31
0.0
  0
LINE
  5
FFEC
  8
0
 10
4491.2715210227761418
 20
161.8919650710492988
 30
0.0
 11
4494.1487345896330226
 21
161.9286170948822985
 31
0.0
  0
ARC
  5
FFED
  8
0
 10
4491.2773128136059313
 20
161.3252296023497934
 30
0.0
 40
0.5667650627226698
 50
90.5855176476985946
 51
142.6389578410199022
  0
ARC
  5
FFEE
  8
0
 10
4491.2911637708793933
 20
161.3452972197025872
 30
0.0
 40
0.56612059260773
 50
145.1046883322053986
 51
178.749512683147799
  0
ARC
  5
FFEF
  8
0
 10
4491.3163902372089069
 20
161.3834610915120038
 30
0.0
 40
0.5917753110682876
 50
182.4996439215441058
 51
221.6512236860299936
  0
ARC
  5
FFF0
  8
0
 10
4491.259623867663322
 20
161.3658004917560049
 30
0.0
 40
0.5381814494050187
 50
224.2636950916235037
 51
262.2787169342475977
  0
ARC
  5
FFF1
  8
0
 10
4491.3251694010195934
 20
162.07375393380579
 30
0.0
 40
1.248886812735498
 50
263.6627605668421097
 51
266.4487986788907961
  0
ARC
  5
FFF2
  8
0
 10
4491.3756043425437383
 20
161.5312532678001105
 30
0.0
 40
0.715492782610085
 50
259.7114029442196852
 51
265.7269994679513729
  0
LINE
  5
FFF3
  8
0
 10
4491.373158998980216
 20
160.6984809990881899
 30
0.0
 11
4491.5734174505851115
 21
160.8141002700095896
 31
0.0
  0
LINE
  5
FFF4
  8
0
 10
4490.7924503375297718
 20
161.0110057005495037
 30
0.0
 11
4491.3337589989805565
 21
160.6984809990912026
 31
0.0
  0
LINE
  5
FFF5
  8
0
 10
4490.7727503375326705
 20
161.6701765041516978
 30
0.0
 11
4490.7727503375326705
 21
161.5727615850451002
 31
0.0
  0
LINE
  5
FFF6
  8
0
 10
4490.7727503375326705
 20
161.1496798299237128
 30
0.0
 11
4490.7727503375326705
 21
161.0451271014570978
 31
0.0
  0
LINE
  5
FFF7
  8
0
 10
4491.333758998985104
 20
162.0168226064203054
 30
0.0
 11
4490.7924503375361382
 21
161.7042979050621057
 31
0.0
  0
LINE
  5
FFF8
  8
0
 10
4491.373158998976578
 20
162.0168226064220107
 30
0.0
 11
4491.5790616520098411
 21
161.8979446543073095
 31
0.0
  0
ARC
  5
FFF9
  8
0
 10
4491.3534589989822052
 20
161.9827012055100113
 30
0.0
 40
0.0394
 50
60.0000000085401908
 51
119.9999999964545054
  0
ARC
  5
FFFA
  8
0
 10
4490.8121503375332395
 20
161.6701765041518115
 30
0.0
 40
0.0394
 50
119.9999999964536954
 51
180.0000000000015916
  0
ARC
  5
FFFB
  8
0
 10
4490.8121503375332395
 20
161.0451271014570978
 30
0.0
 40
0.0394
 50
180.0000000000015916
 51
239.9999999956042984
  0
ARC
  5
FFFC
  8
0
 10
4491.3534589989822052
 20
160.7326023999987967
 30
0.0
 40
0.0394
 50
239.9999999956075101
 51
299.9999999956110059
  0
ARC
  5
FFFD
  8
0
 10
4497.2589708099330892
 20
161.3576518892159868
 30
0.0
 40
1.25
 50
206.4422151742521976
 51
153.5045869278075088
  0
ARC
  5
FFFE
  8
0
 10
4497.2589708099330892
 20
161.3576518892159868
 30
0.0
 40
0.667145712504857
 50
234.9153043970206909
 51
125.4560361890073068
  0
LINE
  5
FFFF
  8
0
 10
4497.2901359860479715
 20
160.8177493011228876
 30
0.0
 11
4495.20527491273333
 21
160.7900357935160116
 31
0.0
  0
LINE
  5
10000
  8
0
 10
4497.3409087861891749
 20
161.8919650710492988
 30
0.0
 11
4494.4636952195332924
 21
161.9286234759564991
 31
0.0
  0
ARC
  5
10001
  8
0
 10
4497.3351169953593853
 20
161.3252296023497934
 30
0.0
 40
0.5667650627226698
 50
37.361042158980041
 51
89.4144823523014054
  0
ARC
  5
10002
  8
0
 10
4497.3212660380868329
 20
161.3452972197025872
 30
0.0
 40
0.56612059260773
 50
1.250487316852221
 51
34.8953116677946085
  0
ARC
  5
10003
  8
0
 10
4497.2960395717564097
 20
161.3834610915120038
 30
0.0
 40
0.5917753110682876
 50
318.3487763139700064
 51
357.5003560784542174
  0
ARC
  5
10004
  8
0
 10
4497.3528059413019946
 20
161.3658004917560049
 30
0.0
 40
0.5381814494050187
 50
277.7212830657524023
 51
315.7363049083764963
  0
ARC
  5
10005
  8
0
 10
4497.2872604079457233
 20
162.07375393380579
 30
0.0
 40
1.248886812735498
 50
273.5512013211092039
 51
276.3372394331578903
  0
ARC
  5
10006
  8
0
 10
4497.2368254664215783
 20
161.5312532678001105
 30
0.0
 40
0.715492782610085
 50
274.2730005320486271
 51
280.2885970557802011
  0
LINE
  5
10007
  8
0
 10
4497.2392708099860101
 20
160.6984809990881899
 30
0.0
 11
4497.0384859641726507
 21
160.8144041838463068
 31
0.0
  0
LINE
  5
10008
  8
0
 10
4497.8199794714364543
 20
161.0110057005495037
 30
0.0
 11
4497.2786708099847601
 21
160.6984809990912026
 31
0.0
  0
LINE
  5
10009
  8
0
 10
4497.8396794714317366
 20
161.6701765041516978
 30
0.0
 11
4497.8396794714317366
 21
161.5727615850451002
 31
0.0
  0
LINE
  5
1000A
  8
0
 10
4497.8396794714317366
 20
161.1496798299237128
 30
0.0
 11
4497.8396794714317366
 21
161.0451271014570978
 31
0.0
  0
LINE
  5
1000B
  8
0
 10
4497.2786708099811221
 20
162.0168226064203054
 30
0.0
 11
4497.8199794714309974
 21
161.7042979050621057
 31
0.0
  0
LINE
  5
1000C
  8
0
 10
4497.2392708099878291
 20
162.0168226064220107
 30
0.0
 11
4497.0298750925321656
 21
161.8959279326228113
 31
0.0
  0
ARC
  5
1000D
  8
0
 10
4497.2589708099831114
 20
161.9827012055100113
 30
0.0
 40
0.0394
 50
60.0000000035454875
 51
119.9999999914598021
  0
ARC
  5
1000E
  8
0
 10
4497.8002794714329866
 20
161.6701765041518115
 30
0.0
 40
0.0394
 50
359.9999999999968168
 51
60.0000000035462975
  0
ARC
  5
1000F
  8
0
 10
4497.8002794714329866
 20
161.0451271014570978
 30
0.0
 40
0.0394
 50
300.0000000043958153
 51
359.9999999999968168
  0
ARC
  5
10010
  8
0
 10
4497.2589708099831114
 20
160.7326023999987967
 30
0.0
 40
0.0394
 50
240.0000000043889941
 51
300.0000000043925183
  0
ARC
  5
10011
  8
0
 10
4494.3072051441322401
 20
166.2728868602578132
 30
0.0
 40
3.4603503293965949
 50
97.27529861410639
 51
101.2416935151795059
  0
ARC
  5
10012
  8
0
 10
4493.6628928855488994
 20
169.5145193676177939
 30
0.0
 40
0.155305760962768
 50
101.2416935151795059
 51
141.7478308126648017
  0
ARC
  5
10013
  8
0
 10
4494.2942076146337058
 20
169.0167922085931025
 30
0.0
 40
0.9592277795633661
 50
141.7478308126648017
 51
179.1615611945977946
  0
ARC
  5
10014
  8
0
 10
4494.6458005201302512
 20
168.9521994500358062
 30
0.0
 40
1.313074320166181
 50
176.5669770172912934
 51
195.8957120463163051
  0
ARC
  5
10015
  8
0
 10
4494.2950997487496352
 20
168.8082105287610943
 30
0.0
 40
0.9373078612090997
 50
193.301127869010088
 51
232.9106880955388021
  0
ARC
  5
10016
  8
0
 10
4494.2437813774140523
 20
168.7622224780481019
 30
0.0
 40
0.8697755558226709
 50
233.7804564357412005
 51
258.0085528694988852
  0
ARC
  5
10017
  8
0
 10
4494.2184915153329712
 20
168.8141923840551897
 30
0.0
 40
0.8039718532650596
 50
145.5368420766330075
 51
167.2576404698679937
  0
ARC
  5
10018
  8
0
 10
4494.3436445221259419
 20
168.785890693178402
 30
0.0
 40
0.9322849890541322
 50
167.2576404698679937
 51
188.1403694071155996
  0
ARC
  5
10019
  8
0
 10
4494.2625557514556931
 20
168.7742917555484041
 30
0.0
 40
0.850370862781197
 50
188.1403694071155996
 51
210.9768577521817861
  0
ARC
  5
1001A
  8
0
 10
4494.3419499404608359
 20
168.8219529620926096
 30
0.0
 40
0.9429723090827563
 50
210.9768577521817861
 51
229.371711039175608
  0
ARC
  5
1001B
  8
0
 10
4494.3221975107589969
 20
168.7989304215666095
 30
0.0
 40
0.9126375789633744
 50
229.371711039175608
 51
244.644210428129611
  0
ARC
  5
1001C
  8
0
 10
4494.0989740019485907
 20
168.2113726779579963
 30
0.0
 40
0.2904071971923292
 50
234.7511006393359025
 51
262.898534424650677
  0
LINE
  5
1001D
  8
0
 10
4493.9375505018178956
 20
169.2487058811701104
 30
0.0
 11
4493.9422166763761197
 21
167.9669069726735984
 31
0.0
  0
ARC
  5
1001E
  8
0
 10
4422.9528312646179984
 20
166.4029745644359082
 30
0.0
 40
70.6609463106224922
 50
2.3246829942933931
 51
2.6018722539740828
  0
ARC
  5
1001F
  8
0
 10
4493.6074534945928463
 20
169.2879448590192908
 30
0.0
 40
0.0551346046569199
 50
199.9411744894995877
 51
244.7946146984826044
  0
ARC
  5
10020
  8
0
 10
4493.874847407037123
 20
170.1382061528412066
 30
0.0
 40
0.9459762354749766
 50
252.0922526228823131
 51
270.5664041352249001
  0
ARC
  5
10021
  8
0
 10
4493.902188251359803
 20
169.1294900796158913
 30
0.0
 40
0.0653123973389131
 50
56.9736231645840903
 51
105.9880463691150965
  0
ARC
  5
10022
  8
0
 10
4493.8984509321144287
 20
169.2286465837534877
 30
0.0
 40
0.0439448718723159
 50
27.1592367546787088
 51
75.064146831188495
  0
ARC
  5
10023
  8
0
 10
4493.9926417840688373
 20
169.581752467115507
 30
0.0
 40
0.3215078356794528
 50
244.3390966384720002
 51
255.0641468311885092
  0
LINE
  5
10024
  8
0
 10
4493.8458039696333799
 20
169.6012463679159907
 30
0.0
 11
4493.8571870549003506
 21
169.2901717668814001
 31
0.0
  0
ARC
  5
10025
  8
0
 10
4494.3328376193594522
 20
171.6535123630289945
 30
0.0
 40
1.971936285578874
 50
264.8784550290613993
 51
269.2264382108143081
  0
ARC
  5
10026
  8
0
 10
4494.2879515846243521
 20
171.1526883324926018
 30
0.0
 40
1.4691048370046691
 50
254.9122823728773142
 51
264.8784103253286162
  0
ARC
  5
10027
  8
0
 10
4494.3525719111157741
 20
171.392386197892904
 30
0.0
 40
1.717360457834131
 50
248.358295689658604
 51
254.9122823728773142
  0
ARC
  5
10028
  8
0
 10
4493.7376821585157813
 20
169.8426485782927955
 30
0.0
 40
0.0500944030437164
 50
174.4067131676353881
 51
248.358295689658604
  0
ARC
  5
10029
  8
0
 10
4702.0045643899011338
 20
166.3789731581655928
 30
0.0
 40
208.3456125713512108
 50
178.0494425222761095
 51
179.0460902461271928
  0
ARC
  5
1002A
  8
0
 10
4493.6004621288830094
 20
173.4620317831179932
 30
0.0
 40
0.1794087299303546
 50
2.6888876051873698
 51
77.9696841918814982
  0
ARC
  5
1002B
  8
0
 10
4494.1911458712511376
 20
176.233768164752604
 30
0.0
 40
2.6545690139439571
 50
246.5713589598148872
 51
255.3585425031602938
  0
ARC
  5
1002C
  8
0
 10
4494.1911458712511376
 20
176.233768164752604
 30
0.0
 40
2.6545690139439571
 50
257.4474500316956096
 51
257.9696841918815267
  0
ARC
  5
1002D
  8
0
 10
4493.7959793120144241
 20
175.3218430772660952
 30
0.0
 40
1.6607058570017481
 50
232.2264577967708874
 51
246.5713589598148872
  0
ARC
  5
1002E
  8
0
 10
4493.1860418489577569
 20
174.534766222983194
 30
0.0
 40
0.6649580559064338
 50
205.0266090572600888
 51
232.2264577967708874
  0
ARC
  5
1002F
  8
0
 10
4492.9984891596623129
 20
174.4472029024792903
 30
0.0
 40
0.457971712491613
 50
178.051477941852994
 51
205.0266090572600888
  0
ARC
  5
10030
  8
0
 10
4493.0072025719318844
 20
174.4327508787181955
 30
0.0
 40
0.4673856423868674
 50
141.3358726365570988
 51
176.3169145937260112
  0
ARC
  5
10031
  8
0
 10
4493.5417823069201404
 20
173.9592318934064963
 30
0.0
 40
1.1811711794297031
 50
109.7247553515874046
 51
139.6013092884161892
  0
ARC
  5
10032
  8
0
 10
4494.0819703027482319
 20
172.7463520209435046
 30
0.0
 40
2.507160643651245
 50
102.4493194551782977
 51
111.9910464139631046
  0
ARC
  5
10033
  8
0
 10
4494.2483323248707165
 20
172.0414279797269046
 30
0.0
 40
3.2313905233386002
 50
97.3811293898870645
 51
102.6352415599723003
  0
ARC
  5
10034
  8
0
 10
4494.2995262339882174
 20
171.6535286489138059
 30
0.0
 40
3.6226524874971608
 50
92.1923693771086192
 51
97.3959436036755193
  0
ARC
  5
10035
  8
0
 10
4494.0068090569184278
 20
181.8351677201281973
 30
0.0
 40
6.563448350562247
 50
271.3456365971686068
 51
272.614577989539896
  0
ARC
  5
10036
  8
0
 10
4493.7402460189196063
 20
175.1415392643909001
 30
0.0
 40
1.4584633981022559
 50
236.9232140030212861
 51
249.0309983462248908
  0
ARC
  5
10037
  8
0
 10
4493.4581439154317195
 20
174.7084120194861896
 30
0.0
 40
0.9415680440208596
 50
219.355095862491396
 51
236.9232140030212861
  0
ARC
  5
10038
  8
0
 10
4493.0863970309555953
 20
174.4035432954318878
 30
0.0
 40
0.4607971162131682
 50
193.4892408131184993
 51
219.355095862491396
  0
ARC
  5
10039
  8
0
 10
4493.228249865572252
 20
174.4375709762921076
 30
0.0
 40
0.6066741526290726
 50
182.0485612618060998
 51
193.4892408131200057
  0
ARC
  5
1003A
  8
0
 10
4492.9092375748250561
 20
174.4261601037131868
 30
0.0
 40
0.2874578471862702
 50
155.8751195763321959
 51
182.0485612618076914
  0
ARC
  5
1003B
  8
0
 10
4493.2588221409605467
 20
174.2696011536204139
 30
0.0
 40
0.6704984112711956
 50
134.7461781888891892
 51
155.8751195763321959
  0
ARC
  5
1003C
  8
0
 10
4493.4134081349220651
 20
174.1136394160351983
 30
0.0
 40
0.8900909728933628
 50
117.6484073816287008
 51
134.7461781888891892
  0
ARC
  5
1003D
  8
0
 10
4494.3659107177300029
 20
172.2954131642445077
 30
0.0
 40
2.9427009877174011
 50
112.7886738345619051
 51
117.6484073816287008
  0
ARC
  5
1003E
  8
0
 10
4494.0784788580740496
 20
172.7957480986474934
 30
0.0
 40
2.3711595593891239
 50
103.9977321148227958
 51
111.0680035137721973
  0
ARC
  5
1003F
  8
0
 10
4494.2484096546577348
 20
172.1113749816265965
 30
0.0
 40
3.0763139463508362
 50
96.3543030417046964
 51
103.9855551244478988
  0
ARC
  5
10040
  8
0
 10
4494.4304691634315532
 20
170.1563037753415983
 30
0.0
 40
5.0396484650585478
 50
91.4127900327907241
 51
95.9513932799504659
  0
ARC
  5
10041
  8
0
 10
4494.4064392479858725
 20
169.619875556185093
 30
0.0
 40
5.5592835938513492
 50
91.0330003712749658
 51
93.4876979613203218
  0
ARC
  5
10042
  8
0
 10
4494.2914482049818616
 20
171.8373659236060007
 30
0.0
 40
3.3389655140937009
 50
93.8329754214068146
 51
100.984498934857001
  0
ARC
  5
10043
  8
0
 10
4494.1362058402901312
 20
172.6371738521538077
 30
0.0
 40
2.5242306404308401
 50
100.984498934857001
 51
112.0821149511392036
  0
ARC
  5
10044
  8
0
 10
4493.693475642856356
 20
173.7284639666623889
 30
0.0
 40
1.346553205075109
 50
112.0821149511392036
 51
132.2569719777694104
  0
ARC
  5
10045
  8
0
 10
4493.1303767869094372
 20
174.3482359140112123
 30
0.0
 40
0.5091777884969682
 50
132.2569719777683872
 51
156.6289580999979023
  0
ARC
  5
10046
  8
0
 10
4493.0743545804416499
 20
174.3724452782672927
 30
0.0
 40
0.4481484436293468
 50
156.6289580999979023
 51
174.4444037103654068
  0
ARC
  5
10047
  8
0
 10
4493.0858184269109188
 20
174.3801200578027135
 30
0.0
 40
0.4588988337269061
 50
175.5367709485666978
 51
183.7319540653681997
  0
ARC
  5
10048
  8
0
 10
4494.5282780476863991
 20
163.555538866303408
 30
0.0
 40
11.6056842700427794
 50
91.0963641688831842
 51
91.7413478235938555
  0
ARC
  5
10049
  8
0
 10
4494.303772091448991
 20
171.6725065246718884
 30
0.0
 40
3.4857139396267418
 50
92.1071246394032244
 51
96.0722877896271257
  0
ARC
  5
1004A
  8
0
 10
4494.2694479213096201
 20
171.9951627508125114
 30
0.0
 40
3.161237147046732
 50
96.0722877896271257
 51
102.5314609387246065
  0
ARC
  5
1004B
  8
0
 10
4494.1122933984215706
 20
172.7022034902678911
 30
0.0
 40
2.4369415227925688
 50
102.5314609387246065
 51
111.3461673727134951
  0
ARC
  5
1004C
  8
0
 10
4493.7751876762440588
 20
173.564780637581805
 30
0.0
 40
1.510831592496388
 50
111.3461673727134951
 51
127.0388380782773936
  0
ARC
  5
1004D
  8
0
 10
4493.2674654758102406
 20
174.237601364211713
 30
0.0
 40
0.6679380268561875
 50
127.0388380782773936
 51
146.6043362937950008
  0
ARC
  5
1004E
  8
0
 10
4493.0999940684314424
 20
174.3480102268040071
 30
0.0
 40
0.4673469272815615
 50
146.6043362937950008
 51
170.4960571576075097
  0
ARC
  5
1004F
  8
0
 10
4493.0055256399609789
 20
174.3738895829557123
 30
0.0
 40
0.3700352197009511
 50
172.0331617864505063
 51
189.2742996472163099
  0
ARC
  5
10050
  8
0
 10
4493.1657419127241155
 20
174.414590835709987
 30
0.0
 40
0.5349091027085006
 50
190.8114042760606139
 51
199.5550180070027011
  0
ARC
  5
10051
  8
0
 10
4493.1015650189947337
 20
174.3968701118415936
 30
0.0
 40
0.4685269681421923
 50
200.1398353928117899
 51
217.5475689897228904
  0
ARC
  5
10052
  8
0
 10
4494.3235675815421928
 20
171.5285688521938994
 30
0.0
 40
4.2665383018874818
 50
90.2330312883167664
 51
92.3882844522340463
  0
ARC
  5
10053
  8
0
 10
4494.3036125443377387
 20
172.2651076197437021
 30
0.0
 40
3.5298241435498339
 50
92.5628567217843568
 51
96.6801491026662205
  0
ARC
  5
10054
  8
0
 10
4494.2772146279030494
 20
172.4904962576680987
 30
0.0
 40
3.302894885635419
 50
96.6801491026662205
 51
103.0079002609895014
  0
ARC
  5
10055
  8
0
 10
4494.0690861516723089
 20
173.3914329506571903
 30
0.0
 40
2.37823041276314
 50
103.0079002609895014
 51
113.9113061279395964
  0
ARC
  5
10056
  8
0
 10
4493.6828131338415915
 20
174.2626433882331014
 30
0.0
 40
1.425227542439673
 50
113.9113061279395964
 51
125.6468932562850966
  0
ARC
  5
10057
  8
0
 10
4493.3801803017304337
 20
174.6846263621966102
 30
0.0
 40
0.9059431681443291
 50
125.6468932562850966
 51
140.8293909394654122
  0
ARC
  5
10058
  8
0
 10
4493.1033485194411696
 20
174.9101684891074058
 30
0.0
 40
0.5488646239877806
 50
140.8293909394654122
 51
158.9964197013669889
  0
ARC
  5
10059
  8
0
 10
4493.0270176592748612
 20
174.9394746338147968
 30
0.0
 40
0.4671012438511516
 50
158.9964197013669889
 51
173.5813368828173964
  0
ARC
  5
1005A
  8
0
 10
4550.4889267455737354
 20
172.3105708070872026
 30
0.0
 40
57.9880973237444906
 50
177.34994275717699
 51
177.8730027206117086
  0
ARC
  5
1005B
  8
0
 10
4493.9278438590854421
 20
173.8400385954203955
 30
0.0
 40
0.0413241477668385
 50
190.0681047743713066
 51
243.5673717379825121
  0
ARC
  5
1005C
  8
0
 10
4493.9616467594396454
 20
173.9080368398734038
 30
0.0
 40
0.1172609459685808
 50
243.5673717379825121
 51
297.0905445314734266
  0
ARC
  5
1005D
  8
0
 10
4493.996844905413127
 20
173.8392256315823943
 30
0.0
 40
0.0399699900524961
 50
297.0905445314734266
 51
350.7697673210237213
  0
ARC
  5
1005E
  8
0
 10
4493.7516360508689104
 20
173.8790735922378872
 30
0.0
 40
0.2883955167506671
 50
350.7697673210237213
 51
355.6323282619072188
  0
ARC
  5
1005F
  8
0
 10
4494.0264514105510898
 20
173.8580836743948907
 30
0.0
 40
0.0127797360554548
 50
355.6323282619072188
 51
48.0928363215932819
  0
ARC
  5
10060
  8
0
 10
4493.953594092550702
 20
173.7400569267313983
 30
0.0
 40
0.1512968764080725
 50
57.4544227663922698
 51
116.9050116859262971
  0
ARC
  5
10061
  8
0
 10
4493.8943207196007279
 20
173.868217807272913
 30
0.0
 40
0.0114083966851484
 50
143.6663989691890038
 51
194.4991426885598003
  0
ARC
  5
10062
  8
0
 10
4500.5664430627648471
 20
174.645652117732709
 30
0.0
 40
6.7285644725632316
 50
186.659395915927206
 51
186.9385081188615061
  0
ARC
  5
10063
  8
0
 10
4493.9616608965379783
 20
173.8430860835275951
 30
0.0
 40
0.0330311831764074
 50
239.1589382625959956
 51
302.3396139843558217
  0
ARC
  5
10064
  8
0
 10
4493.9768455359762811
 20
173.8191030873747138
 30
0.0
 40
0.0046453173388715
 50
302.3396139843513879
 51
38.9069318333981329
  0
ARC
  5
10065
  8
0
 10
4493.9618507937238974
 20
173.7983123716680041
 30
0.0
 40
0.0301396248608591
 50
51.8701697300527726
 51
128.7887938139251105
  0
ARC
  5
10066
  8
0
 10
4493.94659513631359
 20
173.8189472302672982
 30
0.0
 40
0.0046162899001457
 50
141.7520317105995957
 51
246.1312263532024929
  0
ARC
  5
10067
  8
0
 10
4493.9082155105934362
 20
173.7145126155579931
 30
0.0
 40
0.0413241477668385
 50
190.0681047743713066
 51
243.5673717379825121
  0
ARC
  5
10068
  8
0
 10
4493.942018410948549
 20
173.7825108600110866
 30
0.0
 40
0.1172609459685808
 50
243.5673717379825121
 51
297.0905445314734266
  0
ARC
  5
10069
  8
0
 10
4493.9772165569229401
 20
173.7136996517199918
 30
0.0
 40
0.0399699900524961
 50
297.0905445314734266
 51
350.7697673210237213
  0
ARC
  5
1006A
  8
0
 10
4493.7320077023787235
 20
173.7535476123755132
 30
0.0
 40
0.2883955167506671
 50
350.7697673210237213
 51
355.6323282619072188
  0
ARC
  5
1006B
  8
0
 10
4494.0068230620599934
 20
173.7325576945324883
 30
0.0
 40
0.0127797360554548
 50
355.6323282619072188
 51
48.0928363215932819
  0
ARC
  5
1006C
  8
0
 10
4493.9339657440596056
 20
173.6145309468689959
 30
0.0
 40
0.1512968764080725
 50
57.4544227663922698
 51
116.9050116859262971
  0
ARC
  5
1006D
  8
0
 10
4493.8746923711096315
 20
173.7426918274105105
 30
0.0
 40
0.0114083966851484
 50
143.6663989691890038
 51
194.4991426885598003
  0
ARC
  5
1006E
  8
0
 10
4500.5468147142746602
 20
174.5201261378703066
 30
0.0
 40
6.7285644725632316
 50
186.659395915927206
 51
186.9385081188598861
  0
ARC
  5
1006F
  8
0
 10
4493.9420325480468819
 20
173.7175601036653063
 30
0.0
 40
0.0330311831764074
 50
239.1589382625959956
 51
302.3396139843558217
  0
ARC
  5
10070
  8
0
 10
4493.9572171874842752
 20
173.6935771075123114
 30
0.0
 40
0.0046453173388715
 50
302.3396139843513879
 51
38.9069318333981329
  0
ARC
  5
10071
  8
0
 10
4493.942222445232801
 20
173.6727863918056016
 30
0.0
 40
0.0301396248608591
 50
51.8701697300527726
 51
128.7887938139251105
  0
ARC
  5
10072
  8
0
 10
4493.9269667878243126
 20
173.6934212504048958
 30
0.0
 40
0.0046162899001457
 50
141.7520317105995957
 51
246.1312263532024929
  0
ARC
  5
10073
  8
0
 10
4493.9003281617324319
 20
173.6213772888490041
 30
0.0
 40
0.0413241477668385
 50
190.0681047743713066
 51
243.5673717379825121
  0
ARC
  5
10074
  8
0
 10
4493.9341310620866352
 20
173.6893755333020124
 30
0.0
 40
0.1172609459685808
 50
243.5673717379825121
 51
297.0905445314734266
  0
ARC
  5
10075
  8
0
 10
4493.9693292080610263
 20
173.6205643250110029
 30
0.0
 40
0.0399699900524961
 50
297.0905445314734266
 51
350.7697673210237213
  0
ARC
  5
10076
  8
0
 10
4493.7241203535159002
 20
173.6604122856664958
 30
0.0
 40
0.2883955167506671
 50
350.7697673210237213
 51
355.6323282619072188
  0
ARC
  5
10077
  8
0
 10
4493.9989357131980796
 20
173.6394223678234994
 30
0.0
 40
0.0127797360554548
 50
355.6323282619072188
 51
48.0928363215932819
  0
ARC
  5
10078
  8
0
 10
4493.9260783951976919
 20
173.5213956201598933
 30
0.0
 40
0.1512968764080725
 50
57.4544227663922698
 51
75.0287586669905977
  0
ARC
  5
10079
  8
0
 10
4493.9260783951976919
 20
173.5213956201598933
 30
0.0
 40
0.1512968764080725
 50
97.9845663169594161
 51
116.9050116859262971
  0
ARC
  5
1007A
  8
0
 10
4493.8668050222486272
 20
173.6495565007014079
 30
0.0
 40
0.0114083966851484
 50
143.6663989691890038
 51
194.4991426885598003
  0
ARC
  5
1007B
  8
0
 10
4500.5389273654127464
 20
174.426990811161204
 30
0.0
 40
6.7285644725632316
 50
186.659395915927206
 51
186.9385081188598861
  0
ARC
  5
1007C
  8
0
 10
4493.9341451991849681
 20
173.6244247769562037
 30
0.0
 40
0.0330311831764074
 50
239.1589382625959956
 51
302.3396139843558217
  0
ARC
  5
1007D
  8
0
 10
4493.9493298386232709
 20
173.6004417808032088
 30
0.0
 40
0.0046453173388715
 50
302.3396139843513879
 51
38.9069318333981329
  0
ARC
  5
1007E
  8
0
 10
4493.9343350963717967
 20
173.5796510650966127
 30
0.0
 40
0.0301396248608591
 50
51.8701697300527726
 51
128.7887938139251105
  0
ARC
  5
1007F
  8
0
 10
4493.9190794389623989
 20
173.6002859236959068
 30
0.0
 40
0.0046162899001457
 50
141.7520317105995957
 51
246.1312263532024929
  0
ARC
  5
10080
  8
0
 10
4493.5541247963901696
 20
173.6889292398238069
 30
0.0
 40
0.0413241477668385
 50
190.0681047743713066
 51
243.5673717379825121
  0
ARC
  5
10081
  8
0
 10
4493.5879276967452824
 20
173.7569274842767868
 30
0.0
 40
0.1172609459685808
 50
243.5673717379825121
 51
297.0905445314734266
  0
ARC
  5
10082
  8
0
 10
4493.623125842718764
 20
173.6881162759858057
 30
0.0
 40
0.0399699900524961
 50
297.0905445314734266
 51
350.7697673210237213
  0
ARC
  5
10083
  8
0
 10
4493.3779169881736379
 20
173.7279642366412986
 30
0.0
 40
0.2883955167506671
 50
350.7697673210237213
 51
355.6323282619072188
  0
ARC
  5
10084
  8
0
 10
4493.6527323478567268
 20
173.7069743187983022
 30
0.0
 40
0.0127797360554548
 50
355.6323282619072188
 51
48.0928363215932819
  0
ARC
  5
10085
  8
0
 10
4493.5798750298572486
 20
173.5889475711348098
 30
0.0
 40
0.1512968764080725
 50
57.4544227663922698
 51
116.9050116859262971
  0
ARC
  5
10086
  8
0
 10
4493.520601656906365
 20
173.7171084516762107
 30
0.0
 40
0.0114083966851484
 50
143.6663989691890038
 51
194.4991426885598003
  0
ARC
  5
10087
  8
0
 10
4500.1927240000695747
 20
174.4945427621360921
 30
0.0
 40
6.7285644725632316
 50
186.659395915927206
 51
186.9385081188598861
  0
ARC
  5
10088
  8
0
 10
4493.5879418338427058
 20
173.6919767279310065
 30
0.0
 40
0.0330311831764074
 50
239.1589382625959956
 51
302.3396139843558217
  0
ARC
  5
10089
  8
0
 10
4493.6031264732810087
 20
173.6679937317780968
 30
0.0
 40
0.0046453173388715
 50
302.3396139843513879
 51
38.9069318333981329
  0
ARC
  5
1008A
  8
0
 10
4493.5881317310304439
 20
173.6472030160713871
 30
0.0
 40
0.0301396248608591
 50
51.8701697300527726
 51
128.7887938139251105
  0
ARC
  5
1008B
  8
0
 10
4493.5728760736201366
 20
173.6678378746707097
 30
0.0
 40
0.0046162899001457
 50
141.7520317105995957
 51
246.1312263532024929
  0
ARC
  5
1008C
  8
0
 10
4493.5887194017523143
 20
173.7995266396725924
 30
0.0
 40
0.0413241477668385
 50
190.0681047743713066
 51
243.5673717379825121
  0
ARC
  5
1008D
  8
0
 10
4493.6225223021056081
 20
173.8675248841256007
 30
0.0
 40
0.1172609459685808
 50
243.5673717379825121
 51
297.0905445314734266
  0
ARC
  5
1008E
  8
0
 10
4493.6577204480790897
 20
173.7987136758345912
 30
0.0
 40
0.0399699900524961
 50
297.0905445314734266
 51
350.7697673210237213
  0
ARC
  5
1008F
  8
0
 10
4493.4125115935348731
 20
173.8385616364901125
 30
0.0
 40
0.2883955167506671
 50
350.7697673210237213
 51
355.6323282619072188
  0
ARC
  5
10090
  8
0
 10
4493.6873269532170525
 20
173.8175717186470877
 30
0.0
 40
0.0127797360554548
 50
355.6323282619072188
 51
48.0928363215932819
  0
ARC
  5
10091
  8
0
 10
4493.6144696352166648
 20
173.6995449709835952
 30
0.0
 40
0.1512968764080725
 50
57.4544227663922698
 51
116.9050116859262971
  0
ARC
  5
10092
  8
0
 10
4493.5551962622666906
 20
173.8277058515251099
 30
0.0
 40
0.0114083966851484
 50
143.6663989691890038
 51
194.4991426885598003
  0
ARC
  5
10093
  8
0
 10
4500.2273186054308098
 20
174.6051401619847923
 30
0.0
 40
6.7285644725632316
 50
186.659395915927206
 51
186.9385081188598861
  0
ARC
  5
10094
  8
0
 10
4493.6225364392030315
 20
173.802574127779792
 30
0.0
 40
0.0330311831764074
 50
239.1589382625959956
 51
302.3396139843558217
  0
ARC
  5
10095
  8
0
 10
4493.6377210786422438
 20
173.7785911316269107
 30
0.0
 40
0.0046453173388715
 50
302.3396139843513879
 51
38.9069318333981329
  0
ARC
  5
10096
  8
0
 10
4493.6227263363907696
 20
173.757800415920201
 30
0.0
 40
0.0301396248608591
 50
51.8701697300527726
 51
128.7887938139251105
  0
ARC
  5
10097
  8
0
 10
4493.6074706789795528
 20
173.7784352745194951
 30
0.0
 40
0.0046162899001457
 50
141.7520317105995957
 51
246.1312263532024929
  0
ARC
  5
10098
  8
0
 10
4493.6754086456076038
 20
173.9585345574494966
 30
0.0
 40
0.0413241477668385
 50
190.0681047743713066
 51
243.5673717379825121
  0
ARC
  5
10099
  8
0
 10
4493.7092115459636261
 20
174.0265328019025048
 30
0.0
 40
0.1172609459685808
 50
243.5673717379825121
 51
297.0905445314734266
  0
ARC
  5
1009A
  8
0
 10
4493.7444096919371077
 20
173.9577215936114953
 30
0.0
 40
0.0399699900524961
 50
297.0905445314734266
 51
350.7697673210237213
  0
ARC
  5
1009B
  8
0
 10
4493.4992008373928911
 20
173.9975695542669882
 30
0.0
 40
0.2883955167506671
 50
350.7697673210237213
 51
355.6323282619072188
  0
ARC
  5
1009C
  8
0
 10
4493.774016197074161
 20
173.9765796364239918
 30
0.0
 40
0.0127797360554548
 50
355.6323282619072188
 51
48.0928363215932819
  0
ARC
  5
1009D
  8
0
 10
4493.7011588790746828
 20
173.8585528887604141
 30
0.0
 40
0.1512968764080725
 50
57.4544227663922698
 51
116.9050116859262971
  0
ARC
  5
1009E
  8
0
 10
4493.6418855061247086
 20
173.9867137693019004
 30
0.0
 40
0.0114083966851484
 50
143.6663989691890038
 51
194.4991426885598003
  0
ARC
  5
1009F
  8
0
 10
4500.3140078492888279
 20
174.7641480797616964
 30
0.0
 40
6.7285644725632316
 50
186.659395915927206
 51
186.9385081188598861
  0
ARC
  5
100A0
  8
0
 10
4493.7092256830610495
 20
173.9615820455566961
 30
0.0
 40
0.0330311831764074
 50
239.1589382625959956
 51
302.3396139843558217
  0
ARC
  5
100A1
  8
0
 10
4493.7244103225002618
 20
173.9375990494037012
 30
0.0
 40
0.0046453173388715
 50
302.3396139843513879
 51
38.9069318333981329
  0
ARC
  5
100A2
  8
0
 10
4493.7094155802487876
 20
173.9168083336969914
 30
0.0
 40
0.0301396248608591
 50
51.8701697300527726
 51
128.7887938139251105
  0
ARC
  5
100A3
  8
0
 10
4493.6941599228375708
 20
173.9374431922963993
 30
0.0
 40
0.0046162899001457
 50
141.7520317105995957
 51
246.1312263532024929
  0
ARC
  5
100A4
  8
0
 10
4493.2558342222719148
 20
173.7969867416007048
 30
0.0
 40
0.0413241477668385
 50
190.0681047743713066
 51
243.5673717379825121
  0
ARC
  5
100A5
  8
0
 10
4493.2896371226270276
 20
173.8649849860537984
 30
0.0
 40
0.1172609459685808
 50
243.5673717379825121
 51
297.0905445314734266
  0
ARC
  5
100A6
  8
0
 10
4493.3248352686014186
 20
173.7961737777627889
 30
0.0
 40
0.0399699900524961
 50
297.0905445314734266
 51
350.7697673210237213
  0
ARC
  5
100A7
  8
0
 10
4493.0796264140562926
 20
173.8360217384181965
 30
0.0
 40
0.2883955167506671
 50
350.7697673210237213
 51
355.6323282619072188
  0
ARC
  5
100A8
  8
0
 10
4493.354441773736653
 20
173.8150318205752001
 30
0.0
 40
0.0127797360554548
 50
355.6323282619072188
 51
48.0928363215932819
  0
ARC
  5
100A9
  8
0
 10
4493.2815844557380842
 20
173.6970050729117077
 30
0.0
 40
0.1512968764080725
 50
57.4544227663922698
 51
116.9050116859262971
  0
ARC
  5
100AA
  8
0
 10
4493.2223110827881101
 20
173.8251659534531939
 30
0.0
 40
0.0114083966851484
 50
143.6663989691890038
 51
194.4991426885598003
  0
ARC
  5
100AB
  8
0
 10
4499.8944334259531388
 20
174.6026002639129899
 30
0.0
 40
6.7285644725632316
 50
186.659395915927206
 51
186.9385081188598861
  0
ARC
  5
100AC
  8
0
 10
4493.2896512597253604
 20
173.8000342297079897
 30
0.0
 40
0.0330311831764074
 50
239.1589382625959956
 51
302.3396139843558217
  0
ARC
  5
100AD
  8
0
 10
4493.3048358991618443
 20
173.7760512335549947
 30
0.0
 40
0.0046453173388715
 50
302.3396139843513879
 51
38.9069318333981329
  0
ARC
  5
100AE
  8
0
 10
4493.2898411569112795
 20
173.7552605178483134
 30
0.0
 40
0.0301396248608591
 50
51.8701697300527726
 51
128.7887938139251105
  0
ARC
  5
100AF
  8
0
 10
4493.2745854995009722
 20
173.7758953764476075
 30
0.0
 40
0.0046162899001457
 50
141.7520317105995957
 51
246.1312263532024929
  0
ARC
  5
100B0
  8
0
 10
4493.0253628333948654
 20
173.9358643364251975
 30
0.0
 40
0.0413241477668385
 50
190.0681047743713066
 51
243.5673717379825121
  0
ARC
  5
100B1
  8
0
 10
4493.0591657337499782
 20
174.0038625808782911
 30
0.0
 40
0.1172609459685808
 50
243.5673717379825121
 51
297.0905445314734266
  0
ARC
  5
100B2
  8
0
 10
4493.0943638797225503
 20
173.93505137258731
 30
0.0
 40
0.0399699900524961
 50
297.0905445314734266
 51
350.7697673210237213
  0
ARC
  5
100B3
  8
0
 10
4492.8491550251792432
 20
173.9748993332426892
 30
0.0
 40
0.2883955167506671
 50
350.7697673210237213
 51
355.6323282619072188
  0
ARC
  5
100B4
  8
0
 10
4493.1239703848614226
 20
173.9539094153996928
 30
0.0
 40
0.0127797360554548
 50
355.6323282619072188
 51
48.0928363215932819
  0
ARC
  5
100B5
  8
0
 10
4493.0511130668619444
 20
173.8358826677362003
 30
0.0
 40
0.1512968764080725
 50
57.4544227663922698
 51
116.9050116859262971
  0
ARC
  5
100B6
  8
0
 10
4492.9918396939119702
 20
173.9640435482776866
 30
0.0
 40
0.0114083966851484
 50
143.6663989691890038
 51
194.4991426885598003
  0
ARC
  5
100B7
  8
0
 10
4499.6639620370742705
 20
174.741477858737511
 30
0.0
 40
6.7285644725632316
 50
186.659395915927206
 51
186.9385081188598861
  0
ARC
  5
100B8
  8
0
 10
4493.0591798708483111
 20
173.9389118245325108
 30
0.0
 40
0.0330311831764074
 50
239.1589382625959956
 51
302.3396139843558217
  0
ARC
  5
100B9
  8
0
 10
4493.0743645102857045
 20
173.9149288283794874
 30
0.0
 40
0.0046453173388715
 50
302.3396139843513879
 51
38.9069318333981329
  0
ARC
  5
100BA
  8
0
 10
4493.0593697680351397
 20
173.8941381126728061
 30
0.0
 40
0.0301396248608591
 50
51.8701697300527726
 51
128.7887938139251105
  0
ARC
  5
100BB
  8
0
 10
4493.0441141106248324
 20
173.9147729712721002
 30
0.0
 40
0.0046162899001457
 50
141.7520317105995957
 51
246.1312263532024929
  0
ARC
  5
100BC
  8
0
 10
4493.351359076062181
 20
173.9334353450446997
 30
0.0
 40
0.0413241477668385
 50
190.0681047743713066
 51
243.5673717379825121
  0
ARC
  5
100BD
  8
0
 10
4493.3851619764182033
 20
174.001433589497708
 30
0.0
 40
0.1172609459685808
 50
243.5673717379825121
 51
297.0905445314734266
  0
ARC
  5
100BE
  8
0
 10
4493.4203601223898659
 20
173.9326223812066985
 30
0.0
 40
0.0399699900524961
 50
297.0905445314734266
 51
350.7697673210237213
  0
ARC
  5
100BF
  8
0
 10
4493.1751512678465588
 20
173.9724703418621914
 30
0.0
 40
0.2883955167506671
 50
350.7697673210237213
 51
355.6323282619072188
  0
ARC
  5
100C0
  8
0
 10
4493.4499666275287382
 20
173.951480424019195
 30
0.0
 40
0.0127797360554548
 50
355.6323282619072188
 51
48.0928363215932819
  0
ARC
  5
100C1
  8
0
 10
4493.3771093095301694
 20
173.8334536763557026
 30
0.0
 40
0.1512968764080725
 50
57.4544227663922698
 51
116.9050116859262971
  0
ARC
  5
100C2
  8
0
 10
4493.3178359365783763
 20
173.9616145568971035
 30
0.0
 40
0.0114083966851484
 50
143.6663989691890038
 51
194.4991426885598003
  0
ARC
  5
100C3
  8
0
 10
4499.989958279741586
 20
174.7390488673568996
 30
0.0
 40
6.7285644725632316
 50
186.659395915927206
 51
186.9385081188598861
  0
ARC
  5
100C4
  8
0
 10
4493.3851761135147171
 20
173.9364828331518993
 30
0.0
 40
0.0330311831764074
 50
239.1589382625959956
 51
302.3396139843558217
  0
ARC
  5
100C5
  8
0
 10
4493.4003607529539295
 20
173.9124998369989044
 30
0.0
 40
0.0046453173388715
 50
302.3396139843513879
 51
38.9069318333981329
  0
ARC
  5
100C6
  8
0
 10
4493.3853660107015457
 20
173.8917091212923083
 30
0.0
 40
0.0301396248608591
 50
51.8701697300527726
 51
128.7887938139251105
  0
ARC
  5
100C7
  8
0
 10
4493.3701103532921479
 20
173.9123439798916024
 30
0.0
 40
0.0046162899001457
 50
141.7520317105995957
 51
246.1312263532024929
  0
ARC
  5
100C8
  8
0
 10
4493.2263573204190834
 20
174.0970181638379017
 30
0.0
 40
0.0413241477668385
 50
190.0681047743713066
 51
243.5673717379825121
  0
ARC
  5
100C9
  8
0
 10
4493.2601602207751057
 20
174.16501640829091
 30
0.0
 40
0.1172609459685808
 50
243.5673717379825121
 51
297.0905445314734266
  0
ARC
  5
100CA
  8
0
 10
4493.2953583667467683
 20
174.0962051999999005
 30
0.0
 40
0.0399699900524961
 50
297.0905445314734266
 51
350.7697673210237213
  0
ARC
  5
100CB
  8
0
 10
4493.0501495122025517
 20
174.1360531606553934
 30
0.0
 40
0.2883955167506671
 50
350.7697673210237213
 51
355.6323282619072188
  0
ARC
  5
100CC
  8
0
 10
4493.3249648718847311
 20
174.115063242812397
 30
0.0
 40
0.0127797360554548
 50
355.6323282619072188
 51
48.0928363215932819
  0
ARC
  5
100CD
  8
0
 10
4493.2521075538861623
 20
173.9970364951489046
 30
0.0
 40
0.1512968764080725
 50
57.4544227663922698
 51
116.9050116859262971
  0
ARC
  5
100CE
  8
0
 10
4493.1928341809361882
 20
174.1251973756903055
 30
0.0
 40
0.0114083966851484
 50
143.6663989691890038
 51
194.4991426885598003
  0
ARC
  5
100CF
  8
0
 10
4499.8649565240993979
 20
174.9026316861501869
 30
0.0
 40
6.7285644725632316
 50
186.659395915927206
 51
186.9385081188598861
  0
ARC
  5
100D0
  8
0
 10
4493.2601743578734386
 20
174.1000656519451013
 30
0.0
 40
0.0330311831764074
 50
239.1589382625959956
 51
302.3396139843558217
  0
ARC
  5
100D1
  8
0
 10
4493.2753589973108319
 20
174.0760826557921064
 30
0.0
 40
0.0046453173388715
 50
302.3396139843513879
 51
38.9069318333981329
  0
ARC
  5
100D2
  8
0
 10
4493.2603642550602672
 20
174.0552919400855103
 30
0.0
 40
0.0301396248608591
 50
51.8701697300527726
 51
128.7887938139251105
  0
ARC
  5
100D3
  8
0
 10
4493.2451085976490504
 20
174.0759267986848045
 30
0.0
 40
0.0046162899001457
 50
141.7520317105995957
 51
246.1312263532024929
  0
ARC
  5
100D4
  8
0
 10
4492.8846880996798063
 20
174.099599609781194
 30
0.0
 40
0.0413241477668385
 50
190.0681047743713066
 51
243.5673717379825121
  0
ARC
  5
100D5
  8
0
 10
4492.9184910000349191
 20
174.1675978542342023
 30
0.0
 40
0.1172609459685808
 50
243.5673717379825121
 51
297.0905445314734266
  0
ARC
  5
100D6
  8
0
 10
4492.9536891460084007
 20
174.0987866459431928
 30
0.0
 40
0.0399699900524961
 50
297.0905445314734266
 51
350.7697673210237213
  0
ARC
  5
100D7
  8
0
 10
4492.7084802914641841
 20
174.1386346065987141
 30
0.0
 40
0.2883955167506671
 50
350.7697673210237213
 51
355.6323282619072188
  0
ARC
  5
100D8
  8
0
 10
4492.983295651145454
 20
174.1176446887556892
 30
0.0
 40
0.0127797360554548
 50
355.6323282619072188
 51
48.0928363215932819
  0
ARC
  5
100D9
  8
0
 10
4492.8684938799660813
 20
173.9213032639270011
 30
0.0
 40
0.2399737918378495
 50
59.071824850849552
 51
94.4219309944959662
  0
ARC
  5
100DA
  8
0
 10
4492.8521343876973333
 20
174.1463070397869046
 30
0.0
 40
0.0144158110493164
 50
98.5476380823264151
 51
196.5347493515216968
  0
ARC
  5
100DB
  8
0
 10
4495.5158372992073055
 20
174.4224773967953013
 30
0.0
 40
2.692151593544879
 50
185.9757456698465887
 51
187.0431283907120132
  0
ARC
  5
100DC
  8
0
 10
4492.918505137133252
 20
174.1026470978883935
 30
0.0
 40
0.0330311831764074
 50
239.1589382625959956
 51
302.3396139843558217
  0
ARC
  5
100DD
  8
0
 10
4492.9336897765706453
 20
174.0786641017355123
 30
0.0
 40
0.0046453173388715
 50
302.3396139843513879
 51
38.9069318333981329
  0
ARC
  5
100DE
  8
0
 10
4492.9186950343200806
 20
174.0578733860288025
 30
0.0
 40
0.0301396248608591
 50
51.8701697300527726
 51
128.7887938139251105
  0
ARC
  5
100DF
  8
0
 10
4492.9034393769097733
 20
174.0785082446280967
 30
0.0
 40
0.0046162899001457
 50
141.7520317105995957
 51
246.1312263532024929
  0
ARC
  5
100E0
  8
0
 10
4492.8353235882741501
 20
174.2731874594090868
 30
0.0
 40
0.0413241477668385
 50
190.0681047743713066
 51
243.5673717379825121
  0
ARC
  5
100E1
  8
0
 10
4492.8691264886301724
 20
174.3411857038620951
 30
0.0
 40
0.1172609459685808
 50
243.5673717379825121
 51
297.0905445314734266
  0
ARC
  5
100E2
  8
0
 10
4492.904324634601835
 20
174.272374495571114
 30
0.0
 40
0.0399699900524961
 50
297.0905445314734266
 51
350.7697673210237213
  0
ARC
  5
100E3
  8
0
 10
4492.9048263709655657
 20
174.2776262672603025
 30
0.0
 40
0.0406593718982365
 50
343.3306852421126223
 51
8.3248469199527513
  0
ARC
  5
100E4
  8
0
 10
4492.9028179211927636
 20
174.2687032078916047
 30
0.0
 40
0.0447604849257428
 50
19.3216400601925997
 51
46.3490676961303265
  0
ARC
  5
100E5
  8
0
 10
4492.8264759738422072
 20
174.1810027375626078
 30
0.0
 40
0.1610001434505077
 50
48.2350150847185972
 51
98.1463418671147565
  0
ARC
  5
100E6
  8
0
 10
4492.806841956315111
 20
174.3226639987802002
 30
0.0
 40
0.0179974592881438
 50
100.1771605236371983
 51
182.046469913828588
  0
ARC
  5
100E7
  8
0
 10
4493.9512492275143813
 20
174.4135420561752881
 30
0.0
 40
1.165990616830616
 50
184.5018818394553932
 51
187.2714004286511909
  0
ARC
  5
100E8
  8
0
 10
4492.8691406257266863
 20
174.2762349475162864
 30
0.0
 40
0.0330311831764074
 50
239.1589382625959956
 51
302.3396139843558217
  0
ARC
  5
100E9
  8
0
 10
4492.8843252651658986
 20
174.2522519513632915
 30
0.0
 40
0.0046453173388715
 50
302.3396139843513879
 51
38.9069318333981329
  0
ARC
  5
100EA
  8
0
 10
4492.8693305229144244
 20
174.2314612356566954
 30
0.0
 40
0.0301396248608591
 50
51.8701697300527726
 51
128.7887938139251105
  0
ARC
  5
100EB
  8
0
 10
4492.854074865504117
 20
174.2520960942559896
 30
0.0
 40
0.0046162899001457
 50
141.7520317105995957
 51
246.1312263532024929
  0
ARC
  5
100EC
  8
0
 10
4492.8846216452029694
 20
174.4474257481276993
 30
0.0
 40
0.0413241477668385
 50
190.0681047743713066
 51
243.5673717379825121
  0
ARC
  5
100ED
  8
0
 10
4492.9184245455589917
 20
174.5154239925807929
 30
0.0
 40
0.1172609459685808
 50
243.5673717379825121
 51
297.0905445314734266
  0
ARC
  5
100EE
  8
0
 10
4492.9536226915315638
 20
174.4466127842898118
 30
0.0
 40
0.0399699900524961
 50
297.0905445314734266
 51
350.7697673210237213
  0
ARC
  5
100EF
  8
0
 10
4492.9308130524314038
 20
174.4409234123797034
 30
0.0
 40
0.064975279233715
 50
10.1008006194652395
 51
64.4350964906475525
  0
ARC
  5
100F0
  8
0
 10
4492.8798627126998326
 20
174.3775785412470896
 30
0.0
 40
0.145304103832219
 50
57.0700055477462129
 51
95.2598515720027876
  0
ARC
  5
100F1
  8
0
 10
4492.8671906832196328
 20
174.4927857893846976
 30
0.0
 40
0.0294921350372708
 50
91.2597988689609281
 51
172.828772329398106
  0
ARC
  5
100F2
  8
0
 10
4494.3139520372087645
 20
174.625532949072408
 30
0.0
 40
1.4816548768295921
 50
184.9973129398890137
 51
187.1856111434304921
  0
ARC
  5
100F3
  8
0
 10
4492.9184386826573245
 20
174.4504732362350126
 30
0.0
 40
0.0330311831764074
 50
239.1589382625959956
 51
302.3396139843558217
  0
ARC
  5
100F4
  8
0
 10
4492.9336233220956274
 20
174.4264902400819892
 30
0.0
 40
0.0046453173388715
 50
302.3396139843513879
 51
38.9069318333981329
  0
ARC
  5
100F5
  8
0
 10
4492.9186285798441531
 20
174.4056995243753079
 30
0.0
 40
0.0301396248608591
 50
51.8701697300527726
 51
128.7887938139251105
  0
ARC
  5
100F6
  8
0
 10
4492.9033729224329363
 20
174.4263343829746873
 30
0.0
 40
0.0046162899001457
 50
141.7520317105995957
 51
246.1312263532024929
  0
ARC
  5
100F7
  8
0
 10
4493.0281385039543238
 20
174.6104232728700083
 30
0.0
 40
0.0413241477668385
 50
190.0681047743713066
 51
243.5673717379825121
  0
ARC
  5
100F8
  8
0
 10
4493.0619414043094366
 20
174.6784215173229882
 30
0.0
 40
0.1172609459685808
 50
243.5673717379825121
 51
297.0905445314734266
  0
ARC
  5
100F9
  8
0
 10
4493.0971395502820087
 20
174.6096103090320071
 30
0.0
 40
0.0399699900524961
 50
297.0905445314734266
 51
350.7697673210237213
  0
ARC
  5
100FA
  8
0
 10
4493.056507152240556
 20
174.6206537899088005
 30
0.0
 40
0.0819649377100501
 50
347.7044884275674121
 51
2.6490694091659268
  0
ARC
  5
100FB
  8
0
 10
4493.0851073677777094
 20
174.6123379498336874
 30
0.0
 40
0.0546348130303671
 50
12.7998675390036993
 51
44.0671833407839699
  0
ARC
  5
100FC
  8
0
 10
4493.040740382297372
 20
174.5759674767543004
 30
0.0
 40
0.1119090651136399
 50
41.6477372873542322
 51
119.6228683263851025
  0
ARC
  5
100FD
  8
0
 10
4493.0122823176916427
 20
174.6587626228995873
 30
0.0
 40
0.0305154747505869
 50
151.65708247737129
 51
184.4500095902432122
  0
ARC
  5
100FE
  8
0
 10
4494.1932801957273114
 20
174.756706414542208
 30
0.0
 40
1.2155612840613681
 50
184.8302093492866049
 51
187.2549792514431033
  0
ARC
  5
100FF
  8
0
 10
4493.0619555414059505
 20
174.6134707609772079
 30
0.0
 40
0.0330311831764074
 50
239.1589382625959956
 51
302.3396139843558217
  0
ARC
  5
10100
  8
0
 10
4493.0771401808451628
 20
174.5894877648242129
 30
0.0
 40
0.0046453173388715
 50
302.3396139843513879
 51
38.9069318333981329
  0
ARC
  5
10101
  8
0
 10
4493.0621454385927791
 20
174.5686970491175884
 30
0.0
 40
0.0301396248608591
 50
51.8701697300527726
 51
128.7887938139251105
  0
ARC
  5
10102
  8
0
 10
4493.0468897811833813
 20
174.589331907716911
 30
0.0
 40
0.0046162899001457
 50
141.7520317105995957
 51
246.1312263532024929
  0
ARC
  5
10103
  8
0
 10
4493.255633263935124
 20
174.7510941682143937
 30
0.0
 40
0.0413241477668385
 50
190.0681047743713066
 51
243.5673717379825121
  0
ARC
  5
10104
  8
0
 10
4493.2894361642920558
 20
174.8190924126674872
 30
0.0
 40
0.1172609459685808
 50
243.5673717379825121
 51
297.0905445314734266
  0
ARC
  5
10105
  8
0
 10
4493.3246343102646279
 20
174.7502812043765061
 30
0.0
 40
0.0399699900524961
 50
297.0905445314734266
 51
350.7697673210237213
  0
ARC
  5
10106
  8
0
 10
4493.0794254557213208
 20
174.790129165031999
 30
0.0
 40
0.2883955167506671
 50
350.7697673210237213
 51
355.6323282619072188
  0
ARC
  5
10107
  8
0
 10
4493.2772541818803802
 20
174.7366154790900055
 30
0.0
 40
0.0951145306316062
 50
19.3726417827025514
 51
50.6958277891996687
  0
ARC
  5
10108
  8
0
 10
4493.2747612398616184
 20
174.7339717873130098
 30
0.0
 40
0.0987396537132419
 50
50.5482002343787329
 51
125.6916564877451066
  0
ARC
  5
10109
  8
0
 10
4493.2432492681418807
 20
174.7946861569928103
 30
0.0
 40
0.0325634101380406
 50
143.2601515006338957
 51
175.3173138645026086
  0
ARC
  5
1010A
  8
0
 10
4493.6502117808449839
 20
174.8045555952236043
 30
0.0
 40
0.4394763938957222
 50
180.9401669161576933
 51
187.9371223942989957
  0
ARC
  5
1010B
  8
0
 10
4493.2894503013876601
 20
174.7541416563215932
 30
0.0
 40
0.0330311831764074
 50
239.1589382625959956
 51
302.3396139843558217
  0
ARC
  5
1010C
  8
0
 10
4493.3046349408268725
 20
174.730158660168712
 30
0.0
 40
0.0046453173388715
 50
302.3396139843513879
 51
38.9069318333981329
  0
ARC
  5
1010D
  8
0
 10
4493.2896401985753982
 20
174.7093679444620022
 30
0.0
 40
0.0301396248608591
 50
51.8701697300527726
 51
128.7887938139251105
  0
ARC
  5
1010E
  8
0
 10
4493.2743845411650909
 20
174.7300028030614101
 30
0.0
 40
0.0046162899001457
 50
141.7520317105995957
 51
246.1312263532024929
  0
ARC
  5
1010F
  8
0
 10
4493.5537019687099018
 20
174.8574050581545123
 30
0.0
 40
0.0413241477668385
 50
190.0681047743713066
 51
243.5673717379825121
  0
ARC
  5
10110
  8
0
 10
4493.5875048690650146
 20
174.9254033026074922
 30
0.0
 40
0.1172609459685808
 50
243.5673717379825121
 51
297.0905445314734266
  0
ARC
  5
10111
  8
0
 10
4493.6227030150375867
 20
174.8565920943165111
 30
0.0
 40
0.0399699900524961
 50
297.0905445314734266
 51
350.7697673210237213
  0
ARC
  5
10112
  8
0
 10
4493.5740916716404172
 20
174.8752295494489886
 30
0.0
 40
0.0915569226929111
 50
344.1222133011340247
 51
3.2587837873884431
  0
ARC
  5
10113
  8
0
 10
4493.604798614864194
 20
174.8688637615603056
 30
0.0
 40
0.0617948118016714
 50
10.7917178200823205
 51
47.3152572553062001
  0
ARC
  5
10114
  8
0
 10
4493.5756263620451136
 20
174.836611176643089
 30
0.0
 40
0.1052821109483531
 50
47.5447563912026681
 51
119.2529938982366957
  0
ARC
  5
10115
  8
0
 10
4493.5487314136453278
 20
174.8971034114888994
 30
0.0
 40
0.0398309266587332
 50
128.055807233982307
 51
184.290615862767396
  0
ARC
  5
10116
  8
0
 10
4493.0911338508603876
 20
174.8339116771510078
 30
0.0
 40
0.4221939155904169
 50
2.2084270029948398
 51
8.1992732443106302
  0
ARC
  5
10117
  8
0
 10
4493.587519006164257
 20
174.8604525462617119
 30
0.0
 40
0.0330311831764074
 50
239.1589382625959956
 51
302.3396139843558217
  0
ARC
  5
10118
  8
0
 10
4493.6027036456016504
 20
174.8364695501088022
 30
0.0
 40
0.0046453173388715
 50
302.3396139843513879
 51
38.9069318333981329
  0
ARC
  5
10119
  8
0
 10
4493.5877089033501761
 20
174.8156788344020924
 30
0.0
 40
0.0301396248608591
 50
51.8701697300527726
 51
128.7887938139251105
  0
ARC
  5
1011A
  8
0
 10
4493.5724532459389593
 20
174.8363136930013866
 30
0.0
 40
0.0046162899001457
 50
141.7520317105995957
 51
246.1312263532024929
  0
ARC
  5
1011B
  8
0
 10
4493.8990873237526102
 20
174.9250227440982997
 30
0.0
 40
0.0413241477668385
 50
190.0681047743713066
 51
243.5673717379825121
  0
ARC
  5
1011C
  8
0
 10
4493.9328902241086325
 20
174.9930209885513932
 30
0.0
 40
0.1172609459685808
 50
243.5673717379825121
 51
297.0905445314734266
  0
ARC
  5
1011D
  8
0
 10
4493.9588188226689454
 20
174.9350590566077983
 30
0.0
 40
0.0539520471807646
 50
300.6098388332234776
 51
341.3554480792028016
  0
ARC
  5
1011E
  8
0
 10
4492.4874120578842849
 20
175.1052603032061086
 30
0.0
 40
1.534023156983868
 50
352.9812176783797213
 51
354.0385304977954775
  0
ARC
  5
1011F
  8
0
 10
4493.9652651718497509
 20
174.9472319638049953
 30
0.0
 40
0.0478914959840341
 50
358.4508124476515718
 51
26.6972507061842101
  0
ARC
  5
10120
  8
0
 10
4493.9325146498540562
 20
174.9236155393533068
 30
0.0
 40
0.0879928190181274
 50
30.8582632984254204
 51
148.6519985297881874
  0
ARC
  5
10121
  8
0
 10
4493.894062274517637
 20
174.9542091570905029
 30
0.0
 40
0.0397126623731283
 50
157.5219715480425862
 51
185.1750577805279931
  0
ARC
  5
10122
  8
0
 10
4498.9738747510182293
 20
175.5402936029350087
 30
0.0
 40
5.1532113057791333
 50
186.5705761732477015
 51
186.9381313273449052
  0
ARC
  5
10123
  8
0
 10
4493.9329043612069654
 20
174.9280702322056129
 30
0.0
 40
0.0330311831764074
 50
239.1589382625959956
 51
302.3396139843558217
  0
ARC
  5
10124
  8
0
 10
4493.9480890006452682
 20
174.9040872360525896
 30
0.0
 40
0.0046453173388715
 50
302.3396139843513879
 51
38.9069318333981329
  0
ARC
  5
10125
  8
0
 10
4493.933094258393794
 20
174.8832965203459082
 30
0.0
 40
0.0301396248608591
 50
51.8701697300527726
 51
128.7887938139251105
  0
ARC
  5
10126
  8
0
 10
4493.9178386009825772
 20
174.9039313789452876
 30
0.0
 40
0.0046162899001457
 50
141.7520317105995957
 51
246.1312263532024929
  0
ARC
  5
10127
  8
0
 10
4493.9082569781858183
 20
174.6521654838454936
 30
0.0
 40
0.0413241477668385
 50
190.0681047743713066
 51
243.5673717379825121
  0
ARC
  5
10128
  8
0
 10
4493.9420598785409311
 20
174.7201637282985018
 30
0.0
 40
0.1172609459685808
 50
243.5673717379825121
 51
297.0905445314734266
  0
ARC
  5
10129
  8
0
 10
4493.9772580245153222
 20
174.6513525200074923
 30
0.0
 40
0.0399699900524961
 50
297.0905445314734266
 51
350.7697673210237213
  0
ARC
  5
1012A
  8
0
 10
4493.7947143502997278
 20
174.6823771881371101
 30
0.0
 40
0.2251304691106846
 50
350.4280792180780963
 51
2.6329564454586789
  0
ARC
  5
1012B
  8
0
 10
4494.006864529653285
 20
174.6936923978936136
 30
0.0
 40
0.0127797360554548
 50
355.6323282619072188
 51
48.0928363215932819
  0
ARC
  5
1012C
  8
0
 10
4493.9340072116528972
 20
174.5756656502300075
 30
0.0
 40
0.1512968764080725
 50
57.4544227663922698
 51
116.9050116859262971
  0
ARC
  5
1012D
  8
0
 10
4493.8747338387038326
 20
174.7038265307714937
 30
0.0
 40
0.0114083966851484
 50
143.6663989691890038
 51
194.4991426885598003
  0
ARC
  5
1012E
  8
0
 10
4494.2561294779989112
 20
174.7000007237573129
 30
0.0
 40
0.3924418920021939
 50
179.8584491468209876
 51
188.0651877622649124
  0
ARC
  5
1012F
  8
0
 10
4493.9420740156401735
 20
174.6552129719526931
 30
0.0
 40
0.0330311831764074
 50
239.1589382625959956
 51
302.3396139843558217
  0
ARC
  5
10130
  8
0
 10
4493.9572586550775668
 20
174.6312299757996982
 30
0.0
 40
0.0046453173388715
 50
302.3396139843513879
 51
38.9069318333981329
  0
ARC
  5
10131
  8
0
 10
4493.9422639128270021
 20
174.6104392600931021
 30
0.0
 40
0.0301396248608591
 50
51.8701697300527726
 51
128.7887938139251105
  0
ARC
  5
10132
  8
0
 10
4493.9270082554166947
 20
174.6310741186923963
 30
0.0
 40
0.0046162899001457
 50
141.7520317105995957
 51
246.1312263532024929
  0
ARC
  5
10133
  8
0
 10
4493.5899857582480763
 20
174.5659256711101079
 30
0.0
 40
0.0413241477668385
 50
190.0681047743713066
 51
243.5673717379825121
  0
ARC
  5
10134
  8
0
 10
4493.6237886586031891
 20
174.6339239155630878
 30
0.0
 40
0.1172609459685808
 50
243.5673717379825121
 51
297.0905445314734266
  0
ARC
  5
10135
  8
0
 10
4493.6589868045757612
 20
174.5651127072721067
 30
0.0
 40
0.0399699900524961
 50
297.0905445314734266
 51
350.7697673210237213
  0
ARC
  5
10136
  8
0
 10
4493.4757424733879816
 20
174.5962360282962891
 30
0.0
 40
0.2258377766570616
 50
350.4329578533781273
 51
2.6653629785662951
  0
ARC
  5
10137
  8
0
 10
4493.688593309713724
 20
174.6077113275462978
 30
0.0
 40
0.0127797360554548
 50
355.6323282619072188
 51
48.0928363215932819
  0
ARC
  5
10138
  8
0
 10
4493.6172804004963837
 20
174.4944989199485121
 30
0.0
 40
0.1464133822296986
 50
56.9503489156623885
 51
116.8797217374460047
  0
ARC
  5
10139
  8
0
 10
4493.5668451616429593
 20
174.6105049710330945
 30
0.0
 40
0.0214763615133144
 50
137.2125395663883012
 51
183.8617771271374863
  0
ARC
  5
1013A
  8
0
 10
4493.9427018719388798
 20
174.6143443707046004
 30
0.0
 40
0.3973194703739464
 50
180.7622693948729022
 51
188.050497696828387
  0
ARC
  5
1013B
  8
0
 10
4493.6238027957024315
 20
174.5689731592173075
 30
0.0
 40
0.0330311831764074
 50
239.1589382625959956
 51
302.3396139843558217
  0
ARC
  5
1013C
  8
0
 10
4493.6389874351389153
 20
174.5449901630643126
 30
0.0
 40
0.0046453173388715
 50
302.3396139843513879
 51
38.9069318333981329
  0
ARC
  5
1013D
  8
0
 10
4493.6239926928883506
 20
174.5241994473576881
 30
0.0
 40
0.0301396248608591
 50
51.8701697300527726
 51
128.7887938139251105
  0
ARC
  5
1013E
  8
0
 10
4493.6087370354780433
 20
174.5448343059570107
 30
0.0
 40
0.0046162899001457
 50
141.7520317105995957
 51
246.1312263532024929
  0
ARC
  5
1013F
  8
0
 10
4493.3517521321373351
 20
174.432555234003388
 30
0.0
 40
0.0413241477668385
 50
190.0681047743713066
 51
243.5673717379825121
  0
ARC
  5
10140
  8
0
 10
4493.3855550324924479
 20
174.50055347845651
 30
0.0
 40
0.1172609459685808
 50
243.5673717379825121
 51
297.0905445314734266
  0
ARC
  5
10141
  8
0
 10
4493.42075317846502
 20
174.4317422701655005
 30
0.0
 40
0.0399699900524961
 50
297.0905445314734266
 51
350.7697673210237213
  0
ARC
  5
10142
  8
0
 10
4493.3707532246908158
 20
174.4441047081417935
 30
0.0
 40
0.0914012277364111
 50
348.1471524583794235
 51
5.0521920378144296
  0
ARC
  5
10143
  8
0
 10
4493.4264520598999297
 20
174.455672985152404
 30
0.0
 40
0.035522043504113
 50
354.3143368601553789
 51
43.8967020853855772
  0
ARC
  5
10144
  8
0
 10
4493.3759430040918232
 20
174.3711370976164119
 30
0.0
 40
0.1330759551600277
 50
55.1172889676726925
 51
118.2145103731887019
  0
ARC
  5
10145
  8
0
 10
4493.3195685010168745
 20
174.4778830991336918
 30
0.0
 40
0.0123859644296833
 50
121.873427757130699
 51
179.1382226869419014
  0
ARC
  5
10146
  8
0
 10
4493.700524037577452
 20
174.4804988159374091
 30
0.0
 40
0.3933476024903531
 50
180.3538775288598117
 51
188.0624324352370138
  0
ARC
  5
10147
  8
0
 10
4493.3855691695889618
 20
174.4356027221107013
 30
0.0
 40
0.0330311831764074
 50
239.1589382625959956
 51
302.3396139843558217
  0
ARC
  5
10148
  8
0
 10
4493.4007538090281741
 20
174.4116197259577064
 30
0.0
 40
0.0046453173388715
 50
302.3396139843513879
 51
38.9069318333981329
  0
ARC
  5
10149
  8
0
 10
4493.3857590667766999
 20
174.3908290102511103
 30
0.0
 40
0.0301396248608591
 50
51.8701697300527726
 51
128.7887938139251105
  0
ARC
  5
1014A
  8
0
 10
4493.3705034093663926
 20
174.4114638688504044
 30
0.0
 40
0.0046162899001457
 50
141.7520317105995957
 51
246.1312263532024929
  0
ARC
  5
1014B
  8
0
 10
4493.224933422509821
 20
174.2711997350768911
 30
0.0
 40
0.0413241477668385
 50
190.0681047743713066
 51
243.5673717379825121
  0
ARC
  5
1014C
  8
0
 10
4493.2587363228667527
 20
174.3391979795298994
 30
0.0
 40
0.1172609459685808
 50
243.5673717379825121
 51
297.0905445314734266
  0
ARC
  5
1014D
  8
0
 10
4493.2939344688393248
 20
174.2703867712388899
 30
0.0
 40
0.0399699900524961
 50
297.0905445314734266
 51
350.7697673210237213
  0
ARC
  5
1014E
  8
0
 10
4493.0487256142951082
 20
174.3102347318944112
 30
0.0
 40
0.2883955167506671
 50
350.7697673210237213
 51
355.6323282619072188
  0
ARC
  5
1014F
  8
0
 10
4493.3235409739772876
 20
174.2892448140513864
 30
0.0
 40
0.0127797360554548
 50
355.6323282619072188
 51
48.0928363215932819
  0
ARC
  5
10150
  8
0
 10
4493.2411209615129337
 20
174.2098979916547989
 30
0.0
 40
0.1271562020623245
 50
44.3315038503522132
 51
119.8125560330179979
  0
ARC
  5
10151
  8
0
 10
4493.1870938480096811
 20
174.3134665878536111
 30
0.0
 40
0.0114083966851484
 50
143.6663989691890038
 51
194.4991426885598003
  0
ARC
  5
10152
  8
0
 10
4492.8988553679737379
 20
174.2378511757968909
 30
0.0
 40
0.2865834742654496
 50
5.230219686700682
 51
14.7075050380919894
  0
ARC
  5
10153
  8
0
 10
4493.2587504599641761
 20
174.2742472231840907
 30
0.0
 40
0.0330311831764074
 50
239.1589382625959956
 51
302.3396139843558217
  0
ARC
  5
10154
  8
0
 10
4493.2739350994015695
 20
174.2502642270312094
 30
0.0
 40
0.0046453173388715
 50
302.3396139843513879
 51
38.9069318333981329
  0
ARC
  5
10155
  8
0
 10
4493.2589403571510047
 20
174.2294735113244997
 30
0.0
 40
0.0301396248608591
 50
51.8701697300527726
 51
128.7887938139251105
  0
ARC
  5
10156
  8
0
 10
4493.2436846997406974
 20
174.2501083699237938
 30
0.0
 40
0.0046162899001457
 50
141.7520317105995957
 51
246.1312263532024929
  0
ARC
  5
10157
  8
0
 10
4493.5814118821190277
 20
174.1200739457379996
 30
0.0
 40
0.0413241477668385
 50
190.0681047743713066
 51
243.5673717379825121
  0
ARC
  5
10158
  8
0
 10
4493.6152147824741405
 20
174.1880721901910931
 30
0.0
 40
0.1172609459685808
 50
243.5673717379825121
 51
297.0905445314734266
  0
ARC
  5
10159
  8
0
 10
4493.6504129284476221
 20
174.119260981900112
 30
0.0
 40
0.0399699900524961
 50
297.0905445314734266
 51
350.7697673210237213
  0
ARC
  5
1015A
  8
0
 10
4493.4052040739034055
 20
174.1591089425554912
 30
0.0
 40
0.2883955167506671
 50
350.7697673210237213
 51
355.6323282619072188
  0
ARC
  5
1015B
  8
0
 10
4493.6800194335846754
 20
174.1381190247126085
 30
0.0
 40
0.0127797360554548
 50
355.6323282619072188
 51
48.0928363215932819
  0
ARC
  5
1015C
  8
0
 10
4493.6071621155851972
 20
174.0200922770490024
 30
0.0
 40
0.1512968764080725
 50
57.4544227663922698
 51
116.9050116859262971
  0
ARC
  5
1015D
  8
0
 10
4493.547888742635223
 20
174.1482531575904886
 30
0.0
 40
0.0114083966851484
 50
143.6663989691890038
 51
194.4991426885598003
  0
ARC
  5
1015E
  8
0
 10
4500.2200110857993423
 20
174.9256874680503131
 30
0.0
 40
6.7285644725632316
 50
186.659395915927206
 51
186.9385081188598861
  0
ARC
  5
1015F
  8
0
 10
4493.6152289195715639
 20
174.1231214338453128
 30
0.0
 40
0.0330311831764074
 50
239.1589382625959956
 51
302.3396139843558217
  0
ARC
  5
10160
  8
0
 10
4493.6304135590098667
 20
174.0991384376922895
 30
0.0
 40
0.0046453173388715
 50
302.3396139843513879
 51
38.9069318333981329
  0
ARC
  5
10161
  8
0
 10
4493.615418816759302
 20
174.0783477219856081
 30
0.0
 40
0.0301396248608591
 50
51.8701697300527726
 51
128.7887938139251105
  0
ARC
  5
10162
  8
0
 10
4493.6001631593480852
 20
174.0989825805849875
 30
0.0
 40
0.0046162899001457
 50
141.7520317105995957
 51
246.1312263532024929
  0
ARC
  5
10163
  8
0
 10
4493.6753990761635578
 20
174.2823504927110889
 30
0.0
 40
0.0413241477668385
 50
190.0681047743713066
 51
243.5673717379825121
  0
ARC
  5
10164
  8
0
 10
4493.7092019765186706
 20
174.3503487371642109
 30
0.0
 40
0.1172609459685808
 50
243.5673717379825121
 51
297.0905445314734266
  0
ARC
  5
10165
  8
0
 10
4493.7444001224930616
 20
174.2815375288732014
 30
0.0
 40
0.0399699900524961
 50
297.0905445314734266
 51
350.7697673210237213
  0
ARC
  5
10166
  8
0
 10
4493.4991912679479356
 20
174.3213854895286943
 30
0.0
 40
0.2883955167506671
 50
350.7697673210237213
 51
355.6323282619072188
  0
ARC
  5
10167
  8
0
 10
4493.7740066276310245
 20
174.3003955716856979
 30
0.0
 40
0.0127797360554548
 50
355.6323282619072188
 51
48.0928363215932819
  0
ARC
  5
10168
  8
0
 10
4493.7011493096306367
 20
174.1823688240222054
 30
0.0
 40
0.1512968764080725
 50
57.4544227663922698
 51
116.9050116859262971
  0
ARC
  5
10169
  8
0
 10
4493.6418759366797531
 20
174.3105297045636064
 30
0.0
 40
0.0114083966851484
 50
143.6663989691890038
 51
194.4991426885598003
  0
ARC
  5
1016A
  8
0
 10
4500.3139982798447818
 20
175.0879640150234025
 30
0.0
 40
6.7285644725632316
 50
186.659395915927206
 51
186.9385081188598861
  0
ARC
  5
1016B
  8
0
 10
4493.7092161136170034
 20
174.2853979808184022
 30
0.0
 40
0.0330311831764074
 50
239.1589382625959956
 51
302.3396139843558217
  0
ARC
  5
1016C
  8
0
 10
4493.7244007530562158
 20
174.2614149846654072
 30
0.0
 40
0.0046453173388715
 50
302.3396139843513879
 51
38.9069318333981329
  0
ARC
  5
1016D
  8
0
 10
4493.709406010803832
 20
174.2406242689588112
 30
0.0
 40
0.0301396248608591
 50
51.8701697300527726
 51
128.7887938139251105
  0
ARC
  5
1016E
  8
0
 10
4493.6941503533944342
 20
174.2612591275581053
 30
0.0
 40
0.0046162899001457
 50
141.7520317105995957
 51
246.1312263532024929
  0
ARC
  5
1016F
  8
0
 10
4493.9271438719351863
 20
174.4005761828869083
 30
0.0
 40
0.0413241477668385
 50
190.0681047743713066
 51
243.5673717379825121
  0
ARC
  5
10170
  8
0
 10
4493.9609467722912086
 20
174.4685744273398882
 30
0.0
 40
0.1172609459685808
 50
243.5673717379825121
 51
297.0905445314734266
  0
ARC
  5
10171
  8
0
 10
4493.9961449182646902
 20
174.3997632190489071
 30
0.0
 40
0.0399699900524961
 50
297.0905445314734266
 51
350.7697673210237213
  0
ARC
  5
10172
  8
0
 10
4493.7509360637213831
 20
174.4396111797044
 30
0.0
 40
0.2883955167506671
 50
350.7697673210237213
 51
355.6323282619072188
  0
ARC
  5
10173
  8
0
 10
4494.025751423402653
 20
174.4186212618614036
 30
0.0
 40
0.0127797360554548
 50
355.6323282619072188
 51
48.0928363215932819
  0
ARC
  5
10174
  8
0
 10
4493.9528941054040843
 20
174.3005945141979112
 30
0.0
 40
0.1512968764080725
 50
57.4544227663922698
 51
116.9050116859262971
  0
ARC
  5
10175
  8
0
 10
4493.8936207324522911
 20
174.4287553947393121
 30
0.0
 40
0.0114083966851484
 50
143.6663989691890038
 51
194.4991426885598003
  0
ARC
  5
10176
  8
0
 10
4500.5657430756164104
 20
175.2061897051991082
 30
0.0
 40
6.7285644725632316
 50
186.659395915927206
 51
186.9385081188598861
  0
ARC
  5
10177
  8
0
 10
4493.960960909388632
 20
174.4036236709941079
 30
0.0
 40
0.0330311831764074
 50
239.1589382625959956
 51
302.3396139843558217
  0
ARC
  5
10178
  8
0
 10
4493.9761455488278443
 20
174.379640674841113
 30
0.0
 40
0.0046453173388715
 50
302.3396139843513879
 51
38.9069318333981329
  0
ARC
  5
10179
  8
0
 10
4493.9611508065763701
 20
174.3588499591344885
 30
0.0
 40
0.0301396248608591
 50
51.8701697300527726
 51
128.7887938139251105
  0
ARC
  5
1017A
  8
0
 10
4493.9458951491660628
 20
174.379484817733811
 30
0.0
 40
0.0046162899001457
 50
141.7520317105995957
 51
246.1312263532024929
  0
ARC
  5
1017B
  8
0
 10
4493.9978625988796921
 20
174.1618887180063098
 30
0.0
 40
0.0413241477668385
 50
190.0681047743713066
 51
243.5673717379825121
  0
ARC
  5
1017C
  8
0
 10
4494.0316654992348049
 20
174.2298869624592896
 30
0.0
 40
0.1172609459685808
 50
243.5673717379825121
 51
297.0905445314734266
  0
ARC
  5
1017D
  8
0
 10
4494.066863645209196
 20
174.1610757541683085
 30
0.0
 40
0.0399699900524961
 50
297.0905445314734266
 51
350.7697673210237213
  0
ARC
  5
1017E
  8
0
 10
4493.8216547906640699
 20
174.2009237148238014
 30
0.0
 40
0.2883955167506671
 50
350.7697673210237213
 51
355.6323282619072188
  0
ARC
  5
1017F
  8
0
 10
4494.0964701503471588
 20
174.179933796980805
 30
0.0
 40
0.0127797360554548
 50
355.6323282619072188
 51
48.0928363215932819
  0
ARC
  5
10180
  8
0
 10
4494.023612832346771
 20
174.0619070493171989
 30
0.0
 40
0.1512968764080725
 50
57.4544227663922698
 51
116.9050116859262971
  0
ARC
  5
10181
  8
0
 10
4493.9643394593967969
 20
174.1900679298587988
 30
0.0
 40
0.0114083966851484
 50
143.6663989691890038
 51
194.4991426885598003
  0
ARC
  5
10182
  8
0
 10
4500.6364618025600066
 20
174.9675022403185096
 30
0.0
 40
6.7285644725632316
 50
186.659395915927206
 51
186.9385081188598861
  0
ARC
  5
10183
  8
0
 10
4494.0316796363340472
 20
174.1649362061135093
 30
0.0
 40
0.0330311831764074
 50
239.1589382625959956
 51
302.3396139843558217
  0
ARC
  5
10184
  8
0
 10
4494.0468642757723501
 20
174.140953209960486
 30
0.0
 40
0.0046453173388715
 50
302.3396139843513879
 51
38.9069318333981329
  0
ARC
  5
10185
  8
0
 10
4494.0318695335208758
 20
174.1201624942538899
 30
0.0
 40
0.0301396248608591
 50
51.8701697300527726
 51
128.7887938139251105
  0
ARC
  5
10186
  8
0
 10
4494.0166138761105685
 20
174.1407973528532125
 30
0.0
 40
0.0046162899001457
 50
141.7520317105995957
 51
246.1312263532024929
  0
ARC
  5
10187
  8
0
 10
4493.9993424957610841
 20
174.0113378568194946
 30
0.0
 40
0.0413241477668385
 50
190.0681047743713066
 51
243.5673717379825121
  0
ARC
  5
10188
  8
0
 10
4494.0331453961161969
 20
174.0793361012725029
 30
0.0
 40
0.1172609459685808
 50
243.5673717379825121
 51
297.0905445314734266
  0
ARC
  5
10189
  8
0
 10
4494.0683435420896785
 20
174.0105248929814934
 30
0.0
 40
0.0399699900524961
 50
297.0905445314734266
 51
350.7697673210237213
  0
ARC
  5
1018A
  8
0
 10
4493.8231346875445524
 20
174.0503728536369863
 30
0.0
 40
0.2883955167506671
 50
350.7697673210237213
 51
355.6323282619072188
  0
ARC
  5
1018B
  8
0
 10
4494.0979500472267318
 20
174.0293829357939899
 30
0.0
 40
0.0127797360554548
 50
355.6323282619072188
 51
48.0928363215932819
  0
ARC
  5
1018C
  8
0
 10
4494.0250927292281631
 20
173.9113561881304122
 30
0.0
 40
0.1512968764080725
 50
57.4544227663922698
 51
116.9050116859262971
  0
ARC
  5
1018D
  8
0
 10
4493.9658193562772794
 20
174.0395170686718984
 30
0.0
 40
0.0114083966851484
 50
143.6663989691890038
 51
194.4991426885598003
  0
ARC
  5
1018E
  8
0
 10
4500.6379416994413987
 20
174.8169513791316945
 30
0.0
 40
6.7285644725632316
 50
186.659395915927206
 51
186.9385081188598861
  0
ARC
  5
1018F
  8
0
 10
4494.0331595332154393
 20
174.0143853449266942
 30
0.0
 40
0.0330311831764074
 50
239.1589382625959956
 51
302.3396139843558217
  0
ARC
  5
10190
  8
0
 10
4494.0483441726528326
 20
173.9904023487736993
 30
0.0
 40
0.0046453173388715
 50
302.3396139843513879
 51
38.9069318333981329
  0
ARC
  5
10191
  8
0
 10
4494.0333494304013584
 20
173.9696116330671032
 30
0.0
 40
0.0301396248608591
 50
51.8701697300527726
 51
128.7887938139251105
  0
ARC
  5
10192
  8
0
 10
4494.0180937729910511
 20
173.9902464916663973
 30
0.0
 40
0.0046162899001457
 50
141.7520317105995957
 51
246.1312263532024929
  0
ARC
  5
10193
  8
0
 10
4494.0329728353635801
 20
175.8729047791157996
 30
0.0
 40
2.2494306926189638
 50
250.8569101664832885
 51
256.637734753417817
  0
ARC
  5
10194
  8
0
 10
4494.3419581725356693
 20
177.1252684642078066
 30
0.0
 40
3.5405984780092221
 50
258.6331627603665879
 51
262.1634365599720127
  0
ARC
  5
10195
  8
0
 10
4494.2609034534816601
 20
172.6437009685093926
 30
0.0
 40
0.9072537364859288
 50
87.1372546756462043
 51
87.8904924882197349
  0
ARC
  5
10196
  8
0
 10
4494.2990454399086957
 20
173.6273059148695097
 30
0.0
 40
0.0771122695439947
 50
208.9997543573855125
 51
266.4711109340668145
  0
ARC
  5
10197
  8
0
 10
4492.7091325405717726
 20
173.4361746975853009
 30
0.0
 40
1.5302122050693461
 50
5.7664734963760376
 51
6.974887638648072
  0
ARC
  5
10198
  8
0
 10
4494.3122406142656473
 20
173.4147560489303999
 30
0.0
 40
0.223698488872148
 50
91.5435442718393517
 51
112.1164351825303953
  0
ARC
  5
10199
  8
0
 10
4494.3060134842016851
 20
173.6048590877894071
 30
0.0
 40
0.0359543099928062
 50
248.9424706824489135
 51
270.3209794666469179
  0
ARC
  5
1019A
  8
0
 10
4494.2975156033771782
 20
173.5827876164329098
 30
0.0
 40
0.0123034363017986
 50
213.6674987251458049
 51
248.9424706824489135
  0
ARC
  5
1019B
  8
0
 10
4494.2906587471807143
 20
173.5782202792665885
 30
0.0
 40
0.0040646836244622
 50
133.1417811626702985
 51
213.6674987251296045
  0
ARC
  5
1019C
  8
0
 10
4494.3080921582441078
 20
173.5531057864724005
 30
0.0
 40
0.0345986381367857
 50
102.224231189233393
 51
125.7471913350914008
  0
ARC
  5
1019D
  8
0
 10
4494.3061900763068479
 20
173.5470560515094007
 30
0.0
 40
0.0402311780474162
 50
89.9646161898843957
 51
97.7479268242722839
  0
ARC
  5
1019E
  8
0
 10
4494.3052246991328502
 20
166.2728868602578132
 30
0.0
 40
3.4603503293965949
 50
78.7583064848204515
 51
82.6910212268439722
  0
ARC
  5
1019F
  8
0
 10
4494.9495369577171004
 20
169.5145193676177939
 30
0.0
 40
0.155305760962768
 50
38.2521691873351699
 51
78.7583064848204515
  0
ARC
  5
101A0
  8
0
 10
4494.3182222286313845
 20
169.0167922085931025
 30
0.0
 40
0.9592277795633661
 50
0.8384388054021176
 51
38.2521691873351699
  0
ARC
  5
101A1
  8
0
 10
4493.9666293231357486
 20
168.9521994500358062
 30
0.0
 40
1.313074320166181
 50
344.1042879536836949
 51
3.4330229827070209
  0
ARC
  5
101A2
  8
0
 10
4494.3173300945145456
 20
168.8082105287610943
 30
0.0
 40
0.9373078612090997
 50
307.0893119044611126
 51
346.698872130989912
  0
ARC
  5
101A3
  8
0
 10
4494.3686484658519475
 20
168.7622224780481019
 30
0.0
 40
0.8697755558226709
 50
281.9914448340753097
 51
306.2195435642589132
  0
ARC
  5
101A4
  8
0
 10
4494.3939383279330286
 20
168.8141923840551897
 30
0.0
 40
0.8039718532650596
 50
12.7423595301319708
 51
34.4631579233670067
  0
ARC
  5
101A5
  8
0
 10
4494.2687853211382389
 20
168.785890693178402
 30
0.0
 40
0.9322849890541322
 50
351.8596305928828087
 51
12.7423595301319708
  0
ARC
  5
101A6
  8
0
 10
4494.3498740918103067
 20
168.7742917555484041
 30
0.0
 40
0.850370862781197
 50
329.0231422478182139
 51
351.8596305928828087
  0
ARC
  5
101A7
  8
0
 10
4494.2704799028042544
 20
168.8219529620926096
 30
0.0
 40
0.9429723090827563
 50
310.6282889608244204
 51
329.0231422478182139
  0
ARC
  5
101A8
  8
0
 10
4494.2902323325070029
 20
168.7989304215666095
 30
0.0
 40
0.9126375789633744
 50
295.355789571870389
 51
310.6282889608244204
  0
ARC
  5
101A9
  8
0
 10
4494.5134558413174091
 20
168.2113726779579963
 30
0.0
 40
0.2904071971923292
 50
277.1014587955478987
 51
305.2488993606639838
  0
ARC
  5
101AA
  8
0
 10
4565.6595985786480014
 20
166.4029745644359082
 30
0.0
 40
70.6609463106224922
 50
177.3981277460258923
 51
177.6753170057050113
  0
ARC
  5
101AB
  8
0
 10
4495.0049763486722441
 20
169.2879448590192908
 30
0.0
 40
0.0551346046569199
 50
295.2053853015174809
 51
340.0588255105004123
  0
ARC
  5
101AC
  8
0
 10
4494.7375824362279673
 20
170.1382061528412066
 30
0.0
 40
0.9459762354749766
 50
269.4335958647750999
 51
287.9077473771176869
  0
ARC
  5
101AD
  8
0
 10
4494.7102415919061968
 20
169.1294900796158913
 30
0.0
 40
0.0653123973389131
 50
74.0119536308848751
 51
123.0263768354159026
  0
ARC
  5
101AE
  8
0
 10
4494.7139789111515711
 20
169.2286465837534877
 30
0.0
 40
0.0439448718723159
 50
104.935853168811505
 51
152.8407632453213125
  0
ARC
  5
101AF
  8
0
 10
4494.6197880591953435
 20
169.581752467115507
 30
0.0
 40
0.3215078356794528
 50
284.9358531688114908
 51
295.6609033615280282
  0
ARC
  5
101B0
  8
0
 10
4494.2795922239056381
 20
171.6535123630289945
 30
0.0
 40
1.971936285578874
 50
270.7735617891858055
 51
275.121544970938487
  0
ARC
  5
101B1
  8
0
 10
4494.3244782586416477
 20
171.1526883324926018
 30
0.0
 40
1.4691048370046691
 50
275.1215896746713838
 51
285.0877176271226858
  0
ARC
  5
101B2
  8
0
 10
4494.2598579321484067
 20
171.392386197892904
 30
0.0
 40
1.717360457834131
 50
285.0877176271226858
 51
291.6417043103414244
  0
ARC
  5
101B3
  8
0
 10
4494.874747684749309
 20
169.8426485782927955
 30
0.0
 40
0.0500944030437164
 50
291.6417043103414244
 51
5.5932868323646208
  0
ARC
  5
101B4
  8
0
 10
4286.6078654532848304
 20
166.3789731581607896
 30
0.0
 40
208.3456125714311042
 50
0.9539097538727777
 51
1.9505574777238901
  0
ARC
  5
101B5
  8
0
 10
4495.0119677143829904
 20
173.4620317831179932
 30
0.0
 40
0.1794087299303546
 50
102.0303158081185018
 51
177.3111123948125964
  0
ARC
  5
101B6
  8
0
 10
4494.4212839720130432
 20
176.233768164752604
 30
0.0
 40
2.6545690139439571
 50
284.6414574968396778
 51
293.4286410401850844
  0
ARC
  5
101B7
  8
0
 10
4494.4212839720130432
 20
176.233768164752604
 30
0.0
 40
2.6545690139439571
 50
282.0303158081184165
 51
282.5525499683043904
  0
ARC
  5
101B8
  8
0
 10
4494.8164505312515757
 20
175.3218430772660952
 30
0.0
 40
1.6607058570017481
 50
293.4286410401850844
 51
307.7735422032291126
  0
ARC
  5
101B9
  8
0
 10
4495.4263879943073334
 20
174.534766222983194
 30
0.0
 40
0.6649580559064338
 50
307.7735422032291126
 51
334.9733909427399112
  0
ARC
  5
101BA
  8
0
 10
4495.6139406836036869
 20
174.4472029024792903
 30
0.0
 40
0.457971712491613
 50
334.9733909427399112
 51
1.948522058146946
  0
ARC
  5
101BB
  8
0
 10
4495.6052272713332059
 20
174.4327508787181955
 30
0.0
 40
0.4673856423868674
 50
3.6830854062740119
 51
38.6641273634428231
  0
ARC
  5
101BC
  8
0
 10
4495.0706475363458594
 20
173.9592318934064963
 30
0.0
 40
1.1811711794297031
 50
40.3986907115837397
 51
70.2752446484125528
  0
ARC
  5
101BD
  8
0
 10
4494.5304595405168584
 20
172.7463520209435046
 30
0.0
 40
2.507160643651245
 50
68.0089535860368386
 51
77.5506805448217165
  0
ARC
  5
101BE
  8
0
 10
4494.3640975183952833
 20
172.0414279797269046
 30
0.0
 40
3.2313905233386002
 50
77.3647584400276855
 51
82.6188706100612364
  0
ARC
  5
101BF
  8
0
 10
4494.3129036092768729
 20
171.6535286489138059
 30
0.0
 40
3.6226524874971608
 50
82.6040563963244949
 51
87.8076306228913666
  0
ARC
  5
101C0
  8
0
 10
4494.6056207863466625
 20
181.8351677201301015
 30
0.0
 40
6.5634483505640793
 50
267.385422010460104
 51
268.6543634028315068
  0
ARC
  5
101C1
  8
0
 10
4494.8721838243445745
 20
175.1415392643909001
 30
0.0
 40
1.4584633981022559
 50
290.9690016537750807
 51
303.0767859969786855
  0
ARC
  5
101C2
  8
0
 10
4495.1542859278333708
 20
174.7084120194861896
 30
0.0
 40
0.9415680440208596
 50
303.0767859969786855
 51
320.6449041375074103
  0
ARC
  5
101C3
  8
0
 10
4495.5260328123104046
 20
174.4035432954318878
 30
0.0
 40
0.4607971162131682
 50
320.6449041375074103
 51
346.5107591868815007
  0
ARC
  5
101C4
  8
0
 10
4495.3841799776928383
 20
174.4375709762921076
 30
0.0
 40
0.6066741526290726
 50
346.5107591868799091
 51
357.9514387381922802
  0
ARC
  5
101C5
  8
0
 10
4495.7031922684400342
 20
174.4261601037131868
 30
0.0
 40
0.2874578471862702
 50
357.9514387381922802
 51
24.1248804236692607
  0
ARC
  5
101C6
  8
0
 10
4495.3536077023054531
 20
174.2696011536204139
 30
0.0
 40
0.6704984112711956
 50
24.1248804236692607
 51
45.2538218111107469
  0
ARC
  5
101C7
  8
0
 10
4495.1990217083430252
 20
174.1136394160351983
 30
0.0
 40
0.8900909728933628
 50
45.2538218111119122
 51
62.3515926183713134
  0
ARC
  5
101C8
  8
0
 10
4494.2465191255341779
 20
172.2954131642445077
 30
0.0
 40
2.9427009877174011
 50
62.3515926183713134
 51
67.2113261654381375
  0
ARC
  5
101C9
  8
0
 10
4494.5339509851919502
 20
172.7957480986474934
 30
0.0
 40
2.3711595593891239
 50
68.9319964862278312
 51
76.0022678851772326
  0
ARC
  5
101CA
  8
0
 10
4494.364020188608265
 20
172.1113749816265965
 30
0.0
 40
3.0763139463508362
 50
76.0144448755521012
 51
83.645696958295332
  0
ARC
  5
101CB
  8
0
 10
4494.1819606798344466
 20
170.1563037753415983
 30
0.0
 40
5.0396484650585132
 50
84.0486067200495199
 51
88.5872099672092901
  0
ARC
  5
101CC
  8
0
 10
4494.2059905952801273
 20
169.619875556185491
 30
0.0
 40
5.5592835938509682
 50
86.5123020386796924
 51
88.9669996287250484
  0
ARC
  5
101CD
  8
0
 10
4494.3209816382841382
 20
171.8373659236060007
 30
0.0
 40
3.3389655140937009
 50
79.0155010651429706
 51
86.1670245785932138
  0
ARC
  5
101CE
  8
0
 10
4494.4762240029749591
 20
172.6371738521538077
 30
0.0
 40
2.5242306404308401
 50
67.9178850488607964
 51
79.0155010651429706
  0
ARC
  5
101CF
  8
0
 10
4494.9189542004096438
 20
173.7284639666623889
 30
0.0
 40
1.346553205075109
 50
47.7430280222305186
 51
67.9178850488607964
  0
ARC
  5
101D0
  8
0
 10
4495.4820530563565626
 20
174.3482359140112123
 30
0.0
 40
0.5091777884969682
 50
23.3710419000021012
 51
47.743028022231627
  0
ARC
  5
101D1
  8
0
 10
4495.5380752628243499
 20
174.3724452782672927
 30
0.0
 40
0.4481484436293468
 50
5.5555962896345532
 51
23.3710419000021012
  0
ARC
  5
101D2
  8
0
 10
4495.5266114163541715
 20
174.3801200578027135
 30
0.0
 40
0.4588988337269061
 50
356.2680459346318003
 51
4.463229051433351
  0
ARC
  5
101D3
  8
0
 10
4494.0841517955786912
 20
163.555538866303209
 30
0.0
 40
11.6056842700429392
 50
88.2586521764061445
 51
88.9036358311168016
  0
ARC
  5
101D4
  8
0
 10
4494.3086577518151898
 20
171.6725065246718884
 30
0.0
 40
3.4857139396267418
 50
83.9277122103728885
 51
87.8928753605968041
  0
ARC
  5
101D5
  8
0
 10
4494.3429819219545607
 20
171.9951627508125114
 30
0.0
 40
3.161237147046732
 50
77.4685390612753935
 51
83.9277122103728885
  0
ARC
  5
101D6
  8
0
 10
4494.5001364448444292
 20
172.7022034902678911
 30
0.0
 40
2.4369415227925688
 50
68.6538326272864481
 51
77.4685390612753935
  0
ARC
  5
101D7
  8
0
 10
4494.8372421670210315
 20
173.564780637581805
 30
0.0
 40
1.510831592496388
 50
52.9611619217225993
 51
68.6538326272864481
  0
ARC
  5
101D8
  8
0
 10
4495.3449643674557592
 20
174.237601364211713
 30
0.0
 40
0.6679380268561875
 50
33.3956637062050206
 51
52.9611619217225993
  0
ARC
  5
101D9
  8
0
 10
4495.5124357748345574
 20
174.3480102268040071
 30
0.0
 40
0.4673469272815615
 50
9.5039428423925205
 51
33.3956637062050206
  0
ARC
  5
101DA
  8
0
 10
4495.6069042033041114
 20
174.3738895829557123
 30
0.0
 40
0.3700352197009511
 50
350.7257003527836901
 51
7.9668382135495071
  0
ARC
  5
101DB
  8
0
 10
4495.4466879305418843
 20
174.414590835709987
 30
0.0
 40
0.5349091027085006
 50
340.4449819929973273
 51
349.1885957239377944
  0
ARC
  5
101DC
  8
0
 10
4495.5108648242712661
 20
174.3968701118415936
 30
0.0
 40
0.4685269681421923
 50
322.4524310102771096
 51
339.8601646071880964
  0
ARC
  5
101DD
  8
0
 10
4494.288862261723807
 20
171.5285688521938994
 30
0.0
 40
4.2665383018874818
 50
87.6117155477659679
 51
89.7669687116832478
  0
ARC
  5
101DE
  8
0
 10
4494.3088172989264422
 20
172.2651076197437021
 30
0.0
 40
3.5298241435498339
 50
83.319850897385507
 51
87.4371432782156717
  0
ARC
  5
101DF
  8
0
 10
4494.3352152153629504
 20
172.4904962576680987
 30
0.0
 40
3.302894885635419
 50
76.9920997390104702
 51
83.319850897385507
  0
ARC
  5
101E0
  8
0
 10
4494.5433436915918719
 20
173.3914329506571903
 30
0.0
 40
2.37823041276314
 50
66.0886938720603894
 51
76.9920997390104702
  0
ARC
  5
101E1
  8
0
 10
4494.9296167094225893
 20
174.2626433882331014
 30
0.0
 40
1.425227542439673
 50
54.3531067437148465
 51
66.0886938720603894
  0
ARC
  5
101E2
  8
0
 10
4495.2322495415355661
 20
174.6846263621966102
 30
0.0
 40
0.9059431681443291
 50
39.1706090605346233
 51
54.3531067437148465
  0
ARC
  5
101E3
  8
0
 10
4495.5090813238248302
 20
174.9101684891074058
 30
0.0
 40
0.5488646239877806
 50
21.0035802986329898
 51
39.1706090605346233
  0
ARC
  5
101E4
  8
0
 10
4495.5854121839911386
 20
174.9394746338147968
 30
0.0
 40
0.4671012438511516
 50
6.418663117182632
 51
21.0035802986329898
  0
ARC
  5
101E5
  8
0
 10
4438.1235030976922644
 20
172.3105708070872026
 30
0.0
 40
57.9880973237444906
 50
2.1269972793882839
 51
2.6500572428245741
  0
ARC
  5
101E6
  8
0
 10
4494.6845859841805577
 20
173.8400385954203955
 30
0.0
 40
0.0413241477668385
 50
296.4326282620174879
 51
349.9318952256285797
  0
ARC
  5
101E7
  8
0
 10
4494.6507830838263544
 20
173.9080368398734038
 30
0.0
 40
0.1172609459685808
 50
242.9094554685264882
 51
296.4326282620174879
  0
ARC
  5
101E8
  8
0
 10
4494.6155849378528728
 20
173.8392256315823943
 30
0.0
 40
0.0399699900524961
 50
189.2302326789763072
 51
242.9094554685264882
  0
ARC
  5
101E9
  8
0
 10
4494.8607937923970894
 20
173.8790735922378872
 30
0.0
 40
0.2883955167506671
 50
184.3676717380911896
 51
189.2302326789763072
  0
ARC
  5
101EA
  8
0
 10
4494.58597843271491
 20
173.8580836743948907
 30
0.0
 40
0.0127797360554548
 50
131.9071636784067039
 51
184.3676717380928949
  0
ARC
  5
101EB
  8
0
 10
4494.6588357507152978
 20
173.7400569267313983
 30
0.0
 40
0.1512968764080725
 50
63.09498831407371
 51
122.5455772336077018
  0
ARC
  5
101EC
  8
0
 10
4494.7181091236643624
 20
173.868217807272913
 30
0.0
 40
0.0114083966851484
 50
345.5008573114386081
 51
36.3336010308109465
  0
ARC
  5
101ED
  8
0
 10
4488.0459867805011527
 20
174.645652117732709
 30
0.0
 40
6.7285644725632316
 50
353.0614918811401139
 51
353.3406040840711739
  0
ARC
  5
101EE
  8
0
 10
4494.6507689467280215
 20
173.8430860835275951
 30
0.0
 40
0.0330311831764074
 50
237.6603860156002099
 51
300.8410617374040044
  0
ARC
  5
101EF
  8
0
 10
4494.6355843072897187
 20
173.8191030873747138
 30
0.0
 40
0.0046453173388715
 50
141.0930681666019098
 51
237.6603860156484984
  0
ARC
  5
101F0
  8
0
 10
4494.6505790495411929
 20
173.7983123716680041
 30
0.0
 40
0.0301396248608591
 50
51.2112061860749535
 51
128.129830269947206
  0
ARC
  5
101F1
  8
0
 10
4494.6658347069505908
 20
173.8189472302672982
 30
0.0
 40
0.0046162899001457
 50
293.8687736467974219
 51
38.2479682894003901
  0
ARC
  5
101F2
  8
0
 10
4494.7042143326716541
 20
173.7145126155579931
 30
0.0
 40
0.0413241477668385
 50
296.4326282620174879
 51
349.9318952256285797
  0
ARC
  5
101F3
  8
0
 10
4494.6704114323156318
 20
173.7825108600110866
 30
0.0
 40
0.1172609459685808
 50
242.9094554685264882
 51
296.4326282620174879
  0
ARC
  5
101F4
  8
0
 10
4494.6352132863421502
 20
173.7136996517199918
 30
0.0
 40
0.0399699900524961
 50
189.2302326789763072
 51
242.9094554685264882
  0
ARC
  5
101F5
  8
0
 10
4494.8804221408863668
 20
173.7535476123755132
 30
0.0
 40
0.2883955167506671
 50
184.3676717380911896
 51
189.2302326789763072
  0
ARC
  5
101F6
  8
0
 10
4494.6056067812050969
 20
173.7325576945324883
 30
0.0
 40
0.0127797360554548
 50
131.9071636784067039
 51
184.3676717380928949
  0
ARC
  5
101F7
  8
0
 10
4494.6784640992045752
 20
173.6145309468689959
 30
0.0
 40
0.1512968764080725
 50
63.09498831407371
 51
122.5455772336077018
  0
ARC
  5
101F8
  8
0
 10
4494.7377374721545493
 20
173.7426918274105105
 30
0.0
 40
0.0114083966851484
 50
345.5008573114386081
 51
36.3336010308109465
  0
ARC
  5
101F9
  8
0
 10
4488.0656151289913396
 20
174.5201261378703066
 30
0.0
 40
6.7285644725632316
 50
353.0614918811401139
 51
353.3406040840711739
  0
ARC
  5
101FA
  8
0
 10
4494.670397295219118
 20
173.7175601036653063
 30
0.0
 40
0.0330311831764074
 50
237.6603860156002099
 51
300.8410617374040044
  0
ARC
  5
101FB
  8
0
 10
4494.6552126557808151
 20
173.6935771075123114
 30
0.0
 40
0.0046453173388715
 50
141.0930681666019098
 51
237.6603860156484984
  0
ARC
  5
101FC
  8
0
 10
4494.6702073980331988
 20
173.6727863918056016
 30
0.0
 40
0.0301396248608591
 50
51.2112061860749535
 51
128.129830269947206
  0
ARC
  5
101FD
  8
0
 10
4494.6854630554416872
 20
173.6934212504048958
 30
0.0
 40
0.0046162899001457
 50
293.8687736467974219
 51
38.2479682894003901
  0
ARC
  5
101FE
  8
0
 10
4494.7121016815335679
 20
173.6213772888490041
 30
0.0
 40
0.0413241477668385
 50
296.4326282620174879
 51
349.9318952256285797
  0
ARC
  5
101FF
  8
0
 10
4494.6782987811775456
 20
173.6893755333020124
 30
0.0
 40
0.1172609459685808
 50
242.9094554685264882
 51
296.4326282620174879
  0
ARC
  5
10200
  8
0
 10
4494.6431006352049735
 20
173.6205643250110029
 30
0.0
 40
0.0399699900524961
 50
189.2302326789763072
 51
242.9094554685264882
  0
ARC
  5
10201
  8
0
 10
4494.8883094897482806
 20
173.6604122856664958
 30
0.0
 40
0.2883955167506671
 50
184.3676717380911896
 51
189.2302326789763072
  0
ARC
  5
10202
  8
0
 10
4494.6134941300661012
 20
173.6394223678234994
 30
0.0
 40
0.0127797360554548
 50
131.9071636784067039
 51
184.3676717380928949
  0
ARC
  5
10203
  8
0
 10
4494.6863514480673985
 20
173.5213956201598933
 30
0.0
 40
0.1512968764080725
 50
104.9712413330094023
 51
122.5455772336077018
  0
ARC
  5
10204
  8
0
 10
4494.6863514480673985
 20
173.5213956201598933
 30
0.0
 40
0.1512968764080725
 50
63.09498831407371
 51
82.0154336830406265
  0
ARC
  5
10205
  8
0
 10
4494.7456248210173726
 20
173.6495565007014079
 30
0.0
 40
0.0114083966851484
 50
345.5008573114386081
 51
36.3336010308109465
  0
ARC
  5
10206
  8
0
 10
4488.0735024778532534
 20
174.426990811161204
 30
0.0
 40
6.7285644725632316
 50
353.0614918811401139
 51
353.3406040840711739
  0
ARC
  5
10207
  8
0
 10
4494.6782846440810317
 20
173.6244247769562037
 30
0.0
 40
0.0330311831764074
 50
237.6603860156002099
 51
300.8410617374040044
  0
ARC
  5
10208
  8
0
 10
4494.6631000046418194
 20
173.6004417808032088
 30
0.0
 40
0.0046453173388715
 50
141.0930681666019098
 51
237.6603860156484984
  0
ARC
  5
10209
  8
0
 10
4494.6780947468942031
 20
173.5796510650966127
 30
0.0
 40
0.0301396248608591
 50
51.2112061860749535
 51
128.129830269947206
  0
ARC
  5
1020A
  8
0
 10
4494.693350404303601
 20
173.6002859236959068
 30
0.0
 40
0.0046162899001457
 50
293.8687736467974219
 51
38.2479682894003901
  0
ARC
  5
1020B
  8
0
 10
4495.0583050468749207
 20
173.6889292398238069
 30
0.0
 40
0.0413241477668385
 50
296.4326282620174879
 51
349.9318952256285797
  0
ARC
  5
1020C
  8
0
 10
4495.0245021465198079
 20
173.7569274842767868
 30
0.0
 40
0.1172609459685808
 50
242.9094554685264882
 51
296.4326282620174879
  0
ARC
  5
1020D
  8
0
 10
4494.9893040005463263
 20
173.6881162759858057
 30
0.0
 40
0.0399699900524961
 50
189.2302326789763072
 51
242.9094554685264882
  0
ARC
  5
1020E
  8
0
 10
4495.2345128550914524
 20
173.7279642366412986
 30
0.0
 40
0.2883955167506671
 50
184.3676717380911896
 51
189.2302326789763072
  0
ARC
  5
1020F
  8
0
 10
4494.959697495409273
 20
173.7069743187983022
 30
0.0
 40
0.0127797360554548
 50
131.9071636784067039
 51
184.3676717380928949
  0
ARC
  5
10210
  8
0
 10
4495.0325548134078417
 20
173.5889475711348098
 30
0.0
 40
0.1512968764080725
 50
63.09498831407371
 51
122.5455772336077018
  0
ARC
  5
10211
  8
0
 10
4495.0918281863587254
 20
173.7171084516762107
 30
0.0
 40
0.0114083966851484
 50
345.5008573114386081
 51
36.3336010308109465
  0
ARC
  5
10212
  8
0
 10
4488.4197058431946061
 20
174.4945427621360921
 30
0.0
 40
6.7285644725632316
 50
353.0614918811401139
 51
353.3406040840711739
  0
ARC
  5
10213
  8
0
 10
4495.024488009423294
 20
173.6919767279310065
 30
0.0
 40
0.0330311831764074
 50
237.6603860156002099
 51
300.8410617374040044
  0
ARC
  5
10214
  8
0
 10
4495.0093033699840817
 20
173.6679937317780968
 30
0.0
 40
0.0046453173388715
 50
141.0930681666019098
 51
237.6603860156484984
  0
ARC
  5
10215
  8
0
 10
4495.0242981122355559
 20
173.6472030160713871
 30
0.0
 40
0.0301396248608591
 50
51.2112061860749535
 51
128.129830269947206
  0
ARC
  5
10216
  8
0
 10
4495.0395537696458632
 20
173.6678378746707097
 30
0.0
 40
0.0046162899001457
 50
293.8687736467974219
 51
38.2479682894003901
  0
ARC
  5
10217
  8
0
 10
4495.0237104415136855
 20
173.7995266396725924
 30
0.0
 40
0.0413241477668385
 50
296.4326282620174879
 51
349.9318952256285797
  0
ARC
  5
10218
  8
0
 10
4494.9899075411585727
 20
173.8675248841256007
 30
0.0
 40
0.1172609459685808
 50
242.9094554685264882
 51
296.4326282620174879
  0
ARC
  5
10219
  8
0
 10
4494.9547093951860006
 20
173.7987136758345912
 30
0.0
 40
0.0399699900524961
 50
189.2302326789763072
 51
242.9094554685264882
  0
ARC
  5
1021A
  8
0
 10
4495.1999182497302172
 20
173.8385616364901125
 30
0.0
 40
0.2883955167506671
 50
184.3676717380911896
 51
189.2302326789763072
  0
ARC
  5
1021B
  8
0
 10
4494.9251028900480378
 20
173.8175717186470877
 30
0.0
 40
0.0127797360554548
 50
131.9071636784067039
 51
184.3676717380928949
  0
ARC
  5
1021C
  8
0
 10
4494.9979602080484256
 20
173.6995449709835952
 30
0.0
 40
0.1512968764080725
 50
63.09498831407371
 51
122.5455772336077018
  0
ARC
  5
1021D
  8
0
 10
4495.0572335809993092
 20
173.8277058515251099
 30
0.0
 40
0.0114083966851484
 50
345.5008573114386081
 51
36.3336010308109465
  0
ARC
  5
1021E
  8
0
 10
4488.38511123783519
 20
174.6051401619847923
 30
0.0
 40
6.7285644725632316
 50
353.0614918811401139
 51
353.3406040840711739
  0
ARC
  5
1021F
  8
0
 10
4494.9898934040620588
 20
173.802574127779792
 30
0.0
 40
0.0330311831764074
 50
237.6603860156002099
 51
300.8410617374040044
  0
ARC
  5
10220
  8
0
 10
4494.9747087646228465
 20
173.7785911316269107
 30
0.0
 40
0.0046453173388715
 50
141.0930681666019098
 51
237.6603860156484984
  0
ARC
  5
10221
  8
0
 10
4494.9897035068752302
 20
173.757800415920201
 30
0.0
 40
0.0301396248608591
 50
51.2112061860749535
 51
128.129830269947206
  0
ARC
  5
10222
  8
0
 10
4495.004959164286447
 20
173.7784352745194951
 30
0.0
 40
0.0046162899001457
 50
293.8687736467974219
 51
38.2479682894003901
  0
ARC
  5
10223
  8
0
 10
4494.937021197658396
 20
173.9585345574494966
 30
0.0
 40
0.0413241477668385
 50
296.4326282620174879
 51
349.9318952256285797
  0
ARC
  5
10224
  8
0
 10
4494.9032182973005547
 20
174.0265328019025048
 30
0.0
 40
0.1172609459685808
 50
242.9094554685264882
 51
296.4326282620174879
  0
ARC
  5
10225
  8
0
 10
4494.8680201513279826
 20
173.9577215936114953
 30
0.0
 40
0.0399699900524961
 50
189.2302326789763072
 51
242.9094554685264882
  0
ARC
  5
10226
  8
0
 10
4495.1132290058721992
 20
173.9975695542669882
 30
0.0
 40
0.2883955167506671
 50
184.3676717380911896
 51
189.2302326789763072
  0
ARC
  5
10227
  8
0
 10
4494.8384136461909293
 20
173.9765796364239918
 30
0.0
 40
0.0127797360554548
 50
131.9071636784067039
 51
184.3676717380928949
  0
ARC
  5
10228
  8
0
 10
4494.9112709641904075
 20
173.8585528887604141
 30
0.0
 40
0.1512968764080725
 50
63.09498831407371
 51
122.5455772336077018
  0
ARC
  5
10229
  8
0
 10
4494.9705443371412912
 20
173.9867137693019004
 30
0.0
 40
0.0114083966851484
 50
345.5008573114386081
 51
36.3336010308109465
  0
ARC
  5
1022A
  8
0
 10
4488.2984219939762625
 20
174.7641480797616964
 30
0.0
 40
6.7285644725632316
 50
353.0614918811401139
 51
353.3406040840711739
  0
ARC
  5
1022B
  8
0
 10
4494.9032041602040408
 20
173.9615820455566961
 30
0.0
 40
0.0330311831764074
 50
237.6603860156002099
 51
300.8410617374040044
  0
ARC
  5
1022C
  8
0
 10
4494.8880195207648285
 20
173.9375990494037012
 30
0.0
 40
0.0046453173388715
 50
141.0930681666019098
 51
237.6603860156484984
  0
ARC
  5
1022D
  8
0
 10
4494.9030142630172122
 20
173.9168083336969914
 30
0.0
 40
0.0301396248608591
 50
51.2112061860749535
 51
128.129830269947206
  0
ARC
  5
1022E
  8
0
 10
4494.918269920428429
 20
173.9374431922963993
 30
0.0
 40
0.0046162899001457
 50
293.8687736467974219
 51
38.2479682894003901
  0
ARC
  5
1022F
  8
0
 10
4495.356595620994085
 20
173.7969867416007048
 30
0.0
 40
0.0413241477668385
 50
296.4326282620174879
 51
349.9318952256285797
  0
ARC
  5
10230
  8
0
 10
4495.3227927206389722
 20
173.8649849860537984
 30
0.0
 40
0.1172609459685808
 50
242.9094554685264882
 51
296.4326282620174879
  0
ARC
  5
10231
  8
0
 10
4495.2875945746645812
 20
173.7961737777627889
 30
0.0
 40
0.0399699900524961
 50
189.2302326789763072
 51
242.9094554685264882
  0
ARC
  5
10232
  8
0
 10
4495.5328034292097072
 20
173.8360217384181965
 30
0.0
 40
0.2883955167506671
 50
184.3676717380911896
 51
189.2302326789763072
  0
ARC
  5
10233
  8
0
 10
4495.2579880695284373
 20
173.8150318205752001
 30
0.0
 40
0.0127797360554548
 50
131.9071636784067039
 51
184.3676717380928949
  0
ARC
  5
10234
  8
0
 10
4495.3308453875279156
 20
173.6970050729117077
 30
0.0
 40
0.1512968764080725
 50
63.09498831407371
 51
122.5455772336077018
  0
ARC
  5
10235
  8
0
 10
4495.3901187604778897
 20
173.8251659534531939
 30
0.0
 40
0.0114083966851484
 50
345.5008573114386081
 51
36.3336010308109465
  0
ARC
  5
10236
  8
0
 10
4488.717996417312861
 20
174.6026002639129899
 30
0.0
 40
6.7285644725632316
 50
353.0614918811401139
 51
353.3406040840711739
  0
ARC
  5
10237
  8
0
 10
4495.3227785835406394
 20
173.8000342297079897
 30
0.0
 40
0.0330311831764074
 50
237.6603860156002099
 51
300.8410617374040044
  0
ARC
  5
10238
  8
0
 10
4495.3075939441041555
 20
173.7760512335549947
 30
0.0
 40
0.0046453173388715
 50
141.0930681666019098
 51
237.6603860156484984
  0
ARC
  5
10239
  8
0
 10
4495.3225886863547203
 20
173.7552605178483134
 30
0.0
 40
0.0301396248608591
 50
51.2112061860749535
 51
128.129830269947206
  0
ARC
  5
1023A
  8
0
 10
4495.3378443437641181
 20
173.7758953764476075
 30
0.0
 40
0.0046162899001457
 50
293.8687736467974219
 51
38.2479682894003901
  0
ARC
  5
1023B
  8
0
 10
4495.5870670098702249
 20
173.9358643364251975
 30
0.0
 40
0.0413241477668385
 50
296.4326282620174879
 51
349.9318952256285797
  0
ARC
  5
1023C
  8
0
 10
4495.5532641095151121
 20
174.0038625808782911
 30
0.0
 40
0.1172609459685808
 50
242.9094554685264882
 51
296.4326282620174879
  0
ARC
  5
1023D
  8
0
 10
4495.5180659635416305
 20
173.93505137258731
 30
0.0
 40
0.0399699900524961
 50
189.2302326789763072
 51
242.9094554685264882
  0
ARC
  5
1023E
  8
0
 10
4495.7632748180849376
 20
173.9748993332426892
 30
0.0
 40
0.2883955167506671
 50
184.3676717380911896
 51
189.2302326789763072
  0
ARC
  5
1023F
  8
0
 10
4495.4884594584036677
 20
173.9539094153996928
 30
0.0
 40
0.0127797360554548
 50
131.9071636784067039
 51
184.3676717380928949
  0
ARC
  5
10240
  8
0
 10
4495.5613167764040554
 20
173.8358826677362003
 30
0.0
 40
0.1512968764080725
 50
63.09498831407371
 51
122.5455772336077018
  0
ARC
  5
10241
  8
0
 10
4495.6205901493540296
 20
173.9640435482776866
 30
0.0
 40
0.0114083966851484
 50
345.5008573114386081
 51
36.3336010308109465
  0
ARC
  5
10242
  8
0
 10
4488.9484678061908198
 20
174.741477858737511
 30
0.0
 40
6.7285644725632316
 50
353.0614918811401139
 51
353.3406040840711739
  0
ARC
  5
10243
  8
0
 10
4495.5532499724176887
 20
173.9389118245325108
 30
0.0
 40
0.0330311831764074
 50
237.6603860156002099
 51
300.8410617374040044
  0
ARC
  5
10244
  8
0
 10
4495.5380653329793859
 20
173.9149288283794874
 30
0.0
 40
0.0046453173388715
 50
141.0930681666019098
 51
237.6603860156484984
  0
ARC
  5
10245
  8
0
 10
4495.5530600752308601
 20
173.8941381126728061
 30
0.0
 40
0.0301396248608591
 50
51.2112061860749535
 51
128.129830269947206
  0
ARC
  5
10246
  8
0
 10
4495.5683157326411674
 20
173.9147729712721002
 30
0.0
 40
0.0046162899001457
 50
293.8687736467974219
 51
38.2479682894003901
  0
ARC
  5
10247
  8
0
 10
4495.2610707672029093
 20
173.9334353450446997
 30
0.0
 40
0.0413241477668385
 50
296.4326282620174879
 51
349.9318952256285797
  0
ARC
  5
10248
  8
0
 10
4495.2272678668477965
 20
174.001433589497708
 30
0.0
 40
0.1172609459685808
 50
242.9094554685264882
 51
296.4326282620174879
  0
ARC
  5
10249
  8
0
 10
4495.1920697208752244
 20
173.9326223812066985
 30
0.0
 40
0.0399699900524961
 50
189.2302326789763072
 51
242.9094554685264882
  0
ARC
  5
1024A
  8
0
 10
4495.437278575419441
 20
173.9724703418621914
 30
0.0
 40
0.2883955167506671
 50
184.3676717380911896
 51
189.2302326789763072
  0
ARC
  5
1024B
  8
0
 10
4495.1624632157372616
 20
173.951480424019195
 30
0.0
 40
0.0127797360554548
 50
131.9071636784067039
 51
184.3676717380928949
  0
ARC
  5
1024C
  8
0
 10
4495.2353205337358304
 20
173.8334536763557026
 30
0.0
 40
0.1512968764080725
 50
63.09498831407371
 51
122.5455772336077018
  0
ARC
  5
1024D
  8
0
 10
4495.294593906686714
 20
173.9616145568971035
 30
0.0
 40
0.0114083966851484
 50
345.5008573114386081
 51
36.3336010308109465
  0
ARC
  5
1024E
  8
0
 10
4488.6224715635225948
 20
174.7390488673568996
 30
0.0
 40
6.7285644725632316
 50
353.0614918811401139
 51
353.3406040840711739
  0
ARC
  5
1024F
  8
0
 10
4495.2272537297503732
 20
173.9364828331518993
 30
0.0
 40
0.0330311831764074
 50
237.6603860156002099
 51
300.8410617374040044
  0
ARC
  5
10250
  8
0
 10
4495.2120690903120703
 20
173.9124998369989044
 30
0.0
 40
0.0046453173388715
 50
141.0930681666019098
 51
237.6603860156484984
  0
ARC
  5
10251
  8
0
 10
4495.2270638325626351
 20
173.8917091212923083
 30
0.0
 40
0.0301396248608591
 50
51.2112061860749535
 51
128.129830269947206
  0
ARC
  5
10252
  8
0
 10
4495.2423194899738519
 20
173.9123439798916024
 30
0.0
 40
0.0046162899001457
 50
293.8687736467974219
 51
38.2479682894003901
  0
ARC
  5
10253
  8
0
 10
4495.3860725228469164
 20
174.0970181638379017
 30
0.0
 40
0.0413241477668385
 50
296.4326282620174879
 51
349.9318952256285797
  0
ARC
  5
10254
  8
0
 10
4495.3522696224908941
 20
174.16501640829091
 30
0.0
 40
0.1172609459685808
 50
242.9094554685264882
 51
296.4326282620174879
  0
ARC
  5
10255
  8
0
 10
4495.317071476518322
 20
174.0962051999999005
 30
0.0
 40
0.0399699900524961
 50
189.2302326789763072
 51
242.9094554685264882
  0
ARC
  5
10256
  8
0
 10
4495.5622803310607196
 20
174.1360531606553934
 30
0.0
 40
0.2883955167506671
 50
184.3676717380911896
 51
189.2302326789763072
  0
ARC
  5
10257
  8
0
 10
4495.2874649713803592
 20
174.115063242812397
 30
0.0
 40
0.0127797360554548
 50
131.9071636784067039
 51
184.3676717380928949
  0
ARC
  5
10258
  8
0
 10
4495.360322289378928
 20
173.9970364951489046
 30
0.0
 40
0.1512968764080725
 50
63.09498831407371
 51
122.5455772336077018
  0
ARC
  5
10259
  8
0
 10
4495.4195956623298116
 20
174.1251973756903055
 30
0.0
 40
0.0114083966851484
 50
345.5008573114386081
 51
36.3336010308109465
  0
ARC
  5
1025A
  8
0
 10
4488.7474733191666019
 20
174.9026316861501869
 30
0.0
 40
6.7285644725632316
 50
353.0614918811401139
 51
353.3406040840711739
  0
ARC
  5
1025B
  8
0
 10
4495.3522554853925612
 20
174.1000656519451013
 30
0.0
 40
0.0330311831764074
 50
237.6603860156002099
 51
300.8410617374040044
  0
ARC
  5
1025C
  8
0
 10
4495.3370708459551679
 20
174.0760826557921064
 30
0.0
 40
0.0046453173388715
 50
141.0930681666019098
 51
237.6603860156484984
  0
ARC
  5
1025D
  8
0
 10
4495.3520655882057326
 20
174.0552919400855103
 30
0.0
 40
0.0301396248608591
 50
51.2112061860749535
 51
128.129830269947206
  0
ARC
  5
1025E
  8
0
 10
4495.3673212456169495
 20
174.0759267986848045
 30
0.0
 40
0.0046162899001457
 50
293.8687736467974219
 51
38.2479682894003901
  0
ARC
  5
1025F
  8
0
 10
4495.727741743585284
 20
174.099599609781194
 30
0.0
 40
0.0413241477668385
 50
296.4326282620174879
 51
349.9318952256285797
  0
ARC
  5
10260
  8
0
 10
4495.6939388432301712
 20
174.1675978542342023
 30
0.0
 40
0.1172609459685808
 50
242.9094554685264882
 51
296.4326282620174879
  0
ARC
  5
10261
  8
0
 10
4495.6587406972566896
 20
174.0987866459431928
 30
0.0
 40
0.0399699900524961
 50
189.2302326789763072
 51
242.9094554685264882
  0
ARC
  5
10262
  8
0
 10
4495.9039495518009062
 20
174.1386346065987141
 30
0.0
 40
0.2883955167506671
 50
184.3676717380911896
 51
189.2302326789763072
  0
ARC
  5
10263
  8
0
 10
4495.6291341921187268
 20
174.1176446887556892
 30
0.0
 40
0.0127797360554548
 50
131.9071636784067039
 51
184.3676717380928949
  0
ARC
  5
10264
  8
0
 10
4495.7019915101191145
 20
173.9996179410921968
 30
0.0
 40
0.1512968764080725
 50
63.09498831407371
 51
122.5455772336077018
  0
ARC
  5
10265
  8
0
 10
4495.7612648830690887
 20
174.1277788216337115
 30
0.0
 40
0.0114083966851484
 50
345.5008573114386081
 51
36.3336010308109465
  0
ARC
  5
10266
  8
0
 10
4489.0891425399049695
 20
174.9052131320935075
 30
0.0
 40
6.7285644725632316
 50
353.0614918811401139
 51
353.3406040840711739
  0
ARC
  5
10267
  8
0
 10
4495.6939247061327478
 20
174.1026470978883935
 30
0.0
 40
0.0330311831764074
 50
237.6603860156002099
 51
300.8410617374040044
  0
ARC
  5
10268
  8
0
 10
4495.678740066694445
 20
174.0786641017355123
 30
0.0
 40
0.0046453173388715
 50
141.0930681666019098
 51
237.6603860156484984
  0
ARC
  5
10269
  8
0
 10
4495.6937348089459192
 20
174.0578733860288025
 30
0.0
 40
0.0301396248608591
 50
51.2112061860749535
 51
128.129830269947206
  0
ARC
  5
1026A
  8
0
 10
4495.7089904663562265
 20
174.0785082446280967
 30
0.0
 40
0.0046162899001457
 50
293.8687736467974219
 51
38.2479682894003901
  0
ARC
  5
1026B
  8
0
 10
4495.0310179611469721
 20
174.1200739457379996
 30
0.0
 40
0.0413241477668385
 50
296.4326282620174879
 51
349.9318952256285797
  0
ARC
  5
1026C
  8
0
 10
4494.9972150607909498
 20
174.1880721901910931
 30
0.0
 40
0.1172609459685808
 50
242.9094554685264882
 51
296.4326282620174879
  0
ARC
  5
1026D
  8
0
 10
4494.9620169148183777
 20
174.119260981900112
 30
0.0
 40
0.0399699900524961
 50
189.2302326789763072
 51
242.9094554685264882
  0
ARC
  5
1026E
  8
0
 10
4495.2072257693616848
 20
174.1591089425554912
 30
0.0
 40
0.2883955167506671
 50
184.3676717380911896
 51
189.2302326789763072
  0
ARC
  5
1026F
  8
0
 10
4494.9324104096804149
 20
174.1381190247126085
 30
0.0
 40
0.0127797360554548
 50
131.9071636784067039
 51
184.3676717380928949
  0
ARC
  5
10270
  8
0
 10
4495.0052677276789836
 20
174.0200922770490024
 30
0.0
 40
0.1512968764080725
 50
63.09498831407371
 51
122.5455772336077018
  0
ARC
  5
10271
  8
0
 10
4495.0645411006307768
 20
174.1482531575904886
 30
0.0
 40
0.0114083966851484
 50
345.5008573114386081
 51
36.3336010308109465
  0
ARC
  5
10272
  8
0
 10
4488.3924187574666576
 20
174.9256874680503131
 30
0.0
 40
6.7285644725632316
 50
353.0614918811401139
 51
353.3406040840711739
  0
ARC
  5
10273
  8
0
 10
4494.9972009236944359
 20
174.1231214338453128
 30
0.0
 40
0.0330311831764074
 50
237.6603860156002099
 51
300.8410617374040044
  0
ARC
  5
10274
  8
0
 10
4494.9820162842552236
 20
174.0991384376922895
 30
0.0
 40
0.0046453173388715
 50
141.0930681666019098
 51
237.6603860156484984
  0
ARC
  5
10275
  8
0
 10
4494.9970110265066978
 20
174.0783477219856081
 30
0.0
 40
0.0301396248608591
 50
51.2112061860749535
 51
128.129830269947206
  0
ARC
  5
10276
  8
0
 10
4495.0122666839170051
 20
174.0989825805849875
 30
0.0
 40
0.0046162899001457
 50
293.8687736467974219
 51
38.2479682894003901
  0
ARC
  5
10277
  8
0
 10
4494.9370307671006231
 20
174.2823504927110889
 30
0.0
 40
0.0413241477668385
 50
296.4326282620174879
 51
349.9318952256285797
  0
ARC
  5
10278
  8
0
 10
4494.9032278667464197
 20
174.3503487371642109
 30
0.0
 40
0.1172609459685808
 50
242.9094554685264882
 51
296.4326282620174879
  0
ARC
  5
10279
  8
0
 10
4494.8680297207720287
 20
174.2815375288732014
 30
0.0
 40
0.0399699900524961
 50
189.2302326789763072
 51
242.9094554685264882
  0
ARC
  5
1027A
  8
0
 10
4495.1132385753162453
 20
174.3213854895286943
 30
0.0
 40
0.2883955167506671
 50
184.3676717380911896
 51
189.2302326789763072
  0
ARC
  5
1027B
  8
0
 10
4494.8384232156349753
 20
174.3003955716856979
 30
0.0
 40
0.0127797360554548
 50
131.9071636784067039
 51
184.3676717380928949
  0
ARC
  5
1027C
  8
0
 10
4494.9112805336353631
 20
174.1823688240222054
 30
0.0
 40
0.1512968764080725
 50
63.09498831407371
 51
122.5455772336077018
  0
ARC
  5
1027D
  8
0
 10
4494.9705539065853372
 20
174.3105297045636064
 30
0.0
 40
0.0114083966851484
 50
345.5008573114386081
 51
36.3336010308109465
  0
ARC
  5
1027E
  8
0
 10
4488.2984315634203085
 20
175.0879640150234025
 30
0.0
 40
6.7285644725632316
 50
353.0614918811401139
 51
353.3406040840711739
  0
ARC
  5
1027F
  8
0
 10
4494.9032137296480869
 20
174.2853979808184022
 30
0.0
 40
0.0330311831764074
 50
237.6603860156002099
 51
300.8410617374040044
  0
ARC
  5
10280
  8
0
 10
4494.8880290902088745
 20
174.2614149846654072
 30
0.0
 40
0.0046453173388715
 50
141.0930681666019098
 51
237.6603860156484984
  0
ARC
  5
10281
  8
0
 10
4494.9030238324612583
 20
174.2406242689588112
 30
0.0
 40
0.0301396248608591
 50
51.2112061860749535
 51
128.129830269947206
  0
ARC
  5
10282
  8
0
 10
4494.9182794898715656
 20
174.2612591275581053
 30
0.0
 40
0.0046162899001457
 50
293.8687736467974219
 51
38.2479682894003901
  0
ARC
  5
10283
  8
0
 10
4494.685285971329904
 20
174.4005761828869083
 30
0.0
 40
0.0413241477668385
 50
296.4326282620174879
 51
349.9318952256285797
  0
ARC
  5
10284
  8
0
 10
4494.6514830709729722
 20
174.4685744273398882
 30
0.0
 40
0.1172609459685808
 50
242.9094554685264882
 51
296.4326282620174879
  0
ARC
  5
10285
  8
0
 10
4494.6162849250013096
 20
174.3997632190489071
 30
0.0
 40
0.0399699900524961
 50
189.2302326789763072
 51
242.9094554685264882
  0
ARC
  5
10286
  8
0
 10
4494.8614937795446167
 20
174.4396111797044
 30
0.0
 40
0.2883955167506671
 50
184.3676717380911896
 51
189.2302326789763072
  0
ARC
  5
10287
  8
0
 10
4494.5866784198633468
 20
174.4186212618614036
 30
0.0
 40
0.0127797360554548
 50
131.9071636784067039
 51
184.3676717380928949
  0
ARC
  5
10288
  8
0
 10
4494.6595357378619155
 20
174.3005945141979112
 30
0.0
 40
0.1512968764080725
 50
63.09498831407371
 51
122.5455772336077018
  0
ARC
  5
10289
  8
0
 10
4494.7188091108127992
 20
174.4287553947393121
 30
0.0
 40
0.0114083966851484
 50
345.5008573114386081
 51
36.3336010308109465
  0
ARC
  5
1028A
  8
0
 10
4488.04668676764868
 20
175.2061897051991082
 30
0.0
 40
6.7285644725632316
 50
353.0614918811401139
 51
353.3406040840711739
  0
ARC
  5
1028B
  8
0
 10
4494.6514689338755488
 20
174.4036236709941079
 30
0.0
 40
0.0330311831764074
 50
237.6603860156002099
 51
300.8410617374040044
  0
ARC
  5
1028C
  8
0
 10
4494.6362842944381555
 20
174.379640674841113
 30
0.0
 40
0.0046453173388715
 50
141.0930681666019098
 51
237.6603860156484984
  0
ARC
  5
1028D
  8
0
 10
4494.6512790366887202
 20
174.3588499591344885
 30
0.0
 40
0.0301396248608591
 50
51.2112061860749535
 51
128.129830269947206
  0
ARC
  5
1028E
  8
0
 10
4494.666534694099937
 20
174.379484817733811
 30
0.0
 40
0.0046162899001457
 50
293.8687736467974219
 51
38.2479682894003901
  0
ARC
  5
1028F
  8
0
 10
4494.6145672443863077
 20
174.1618887180063098
 30
0.0
 40
0.0413241477668385
 50
296.4326282620174879
 51
349.9318952256285797
  0
ARC
  5
10290
  8
0
 10
4494.5807643440293759
 20
174.2298869624592896
 30
0.0
 40
0.1172609459685808
 50
242.9094554685264882
 51
296.4326282620174879
  0
ARC
  5
10291
  8
0
 10
4494.5455661980558943
 20
174.1610757541683085
 30
0.0
 40
0.0399699900524961
 50
189.2302326789763072
 51
242.9094554685264882
  0
ARC
  5
10292
  8
0
 10
4494.7907750526010204
 20
174.2009237148238014
 30
0.0
 40
0.2883955167506671
 50
184.3676717380911896
 51
189.2302326789763072
  0
ARC
  5
10293
  8
0
 10
4494.5159596929179315
 20
174.179933796980805
 30
0.0
 40
0.0127797360554548
 50
131.9071636784067039
 51
184.3676717380928949
  0
ARC
  5
10294
  8
0
 10
4494.5888170109183193
 20
174.0619070493171989
 30
0.0
 40
0.1512968764080725
 50
63.09498831407371
 51
122.5455772336077018
  0
ARC
  5
10295
  8
0
 10
4494.6480903838692029
 20
174.1900679298587988
 30
0.0
 40
0.0114083966851484
 50
345.5008573114386081
 51
36.3336010308109465
  0
ARC
  5
10296
  8
0
 10
4487.9759680407050837
 20
174.9675022403185096
 30
0.0
 40
6.7285644725632316
 50
353.0614918811401139
 51
353.3406040840711739
  0
ARC
  5
10297
  8
0
 10
4494.5807502069319526
 20
174.1649362061135093
 30
0.0
 40
0.0330311831764074
 50
237.6603860156002099
 51
300.8410617374040044
  0
ARC
  5
10298
  8
0
 10
4494.5655655674927402
 20
174.140953209960486
 30
0.0
 40
0.0046453173388715
 50
141.0930681666019098
 51
237.6603860156484984
  0
ARC
  5
10299
  8
0
 10
4494.580560309745124
 20
174.1201624942538899
 30
0.0
 40
0.0301396248608591
 50
51.2112061860749535
 51
128.129830269947206
  0
ARC
  5
1029A
  8
0
 10
4494.5958159671554313
 20
174.1407973528532125
 30
0.0
 40
0.0046162899001457
 50
293.8687736467974219
 51
38.2479682894003901
  0
ARC
  5
1029B
  8
0
 10
4494.6130873475049157
 20
174.0113378568194946
 30
0.0
 40
0.0413241477668385
 50
296.4326282620174879
 51
349.9318952256285797
  0
ARC
  5
1029C
  8
0
 10
4494.5792844471498029
 20
174.0793361012725029
 30
0.0
 40
0.1172609459685808
 50
242.9094554685264882
 51
296.4326282620174879
  0
ARC
  5
1029D
  8
0
 10
4494.5440863011763213
 20
174.0105248929814934
 30
0.0
 40
0.0399699900524961
 50
189.2302326789763072
 51
242.9094554685264882
  0
ARC
  5
1029E
  8
0
 10
4494.7892951557214474
 20
174.0503728536369863
 30
0.0
 40
0.2883955167506671
 50
184.3676717380911896
 51
189.2302326789763072
  0
ARC
  5
1029F
  8
0
 10
4494.5144797960383585
 20
174.0293829357939899
 30
0.0
 40
0.0127797360554548
 50
131.9071636784067039
 51
184.3676717380928949
  0
ARC
  5
102A0
  8
0
 10
4494.5873371140378367
 20
173.9113561881304122
 30
0.0
 40
0.1512968764080725
 50
63.09498831407371
 51
122.5455772336077018
  0
ARC
  5
102A1
  8
0
 10
4494.6466104869887204
 20
174.0395170686718984
 30
0.0
 40
0.0114083966851484
 50
345.5008573114386081
 51
36.3336010308109465
  0
ARC
  5
102A2
  8
0
 10
4487.9744881438246011
 20
174.8169513791316945
 30
0.0
 40
6.7285644725632316
 50
353.0614918811401139
 51
353.3406040840711739
  0
ARC
  5
102A3
  8
0
 10
4494.5792703100505605
 20
174.0143853449266942
 30
0.0
 40
0.0330311831764074
 50
237.6603860156002099
 51
300.8410617374040044
  0
ARC
  5
102A4
  8
0
 10
4494.5640856706131672
 20
173.9904023487736993
 30
0.0
 40
0.0046453173388715
 50
141.0930681666019098
 51
237.6603860156484984
  0
ARC
  5
102A5
  8
0
 10
4494.5790804128637319
 20
173.9696116330671032
 30
0.0
 40
0.0301396248608591
 50
51.2112061860749535
 51
128.129830269947206
  0
ARC
  5
102A6
  8
0
 10
4494.5943360702740392
 20
173.9902464916663973
 30
0.0
 40
0.0046162899001457
 50
293.8687736467974219
 51
38.2479682894003901
  0
ARC
  5
102A7
  8
0
 10
4494.5794570079006007
 20
175.8729047791157996
 30
0.0
 40
2.2494306926189638
 50
283.362265246582183
 51
289.1430898335166262
  0
ARC
  5
102A8
  8
0
 10
4494.2704716707303305
 20
177.1252684642078066
 30
0.0
 40
3.5405984780092221
 50
277.8365634400279873
 51
281.3668372396334121
  0
ARC
  5
102A9
  8
0
 10
4494.3515263897843397
 20
172.6437009685093926
 30
0.0
 40
0.9072537364859288
 50
92.1095075117802793
 51
92.8627453243537957
  0
ARC
  5
102AA
  8
0
 10
4494.3133844033573041
 20
173.6273059148695097
 30
0.0
 40
0.0771122695439947
 50
273.5288890659331855
 51
331.0002456426145159
  0
ARC
  5
102AB
  8
0
 10
4495.9032973026933178
 20
173.4361746975853009
 30
0.0
 40
1.5302122050693461
 50
173.0251123613518871
 51
174.2335265036238923
  0
ARC
  5
102AC
  8
0
 10
4494.300189228999443
 20
173.4147560489303999
 30
0.0
 40
0.223698488872148
 50
67.8835648174695905
 51
88.4564557281606341
  0
ARC
  5
102AD
  8
0
 10
4494.3064163590643147
 20
173.6048590877894071
 30
0.0
 40
0.0359543099928062
 50
269.6790205333530821
 51
291.0575293175512002
  0
ARC
  5
102AE
  8
0
 10
4494.3149142398888216
 20
173.5827876164329098
 30
0.0
 40
0.0123034363017986
 50
291.0575293175512002
 51
326.3325012748541099
  0
ARC
  5
102AF
  8
0
 10
4494.321771096084376
 20
173.5782202792665885
 30
0.0
 40
0.0040646836244622
 50
326.3325012748704239
 51
46.8582188373297228
  0
ARC
  5
102B0
  8
0
 10
4494.3043376850209825
 20
173.5531057864724005
 30
0.0
 40
0.0345986381367857
 50
54.2528086649085779
 51
77.7757688107665643
  0
ARC
  5
102B1
  8
0
 10
4494.3062397669591519
 20
173.5470560515094007
 30
0.0
 40
0.0402311780474162
 50
82.2520731757277161
 51
90.0353838101156185
  0
ARC
  5
102B2
  8
0
 10
4494.2821176142024342
 20
176.5547994216350105
 30
0.0
 40
2.9652000459534751
 50
264.6379325961237896
 51
269.0236289180592735
  0
ARC
  5
102B3
  8
0
 10
4494.2098964593233177
 20
178.7319727160272009
 30
0.0
 40
5.14523682969278
 50
271.9016095453742992
 51
274.4335118243594138
  0
ARC
  5
102B4
  8
0
 10
4494.2609034534816601
 20
172.7285454997114869
 30
0.0
 40
0.9072537364859288
 50
87.1372546756462043
 51
87.8904924882197349
  0
ARC
  5
102B5
  8
0
 10
4494.2990454399086957
 20
173.7121504460716039
 30
0.0
 40
0.0771122695439947
 50
208.9997543573855125
 51
266.4711109340668145
  0
ARC
  5
102B6
  8
0
 10
4492.7091325405717726
 20
173.5210192287873951
 30
0.0
 40
1.5302122050693461
 50
5.7664734963760376
 51
6.974887638648072
  0
ARC
  5
102B7
  8
0
 10
4494.3122406142656473
 20
173.4996005801324088
 30
0.0
 40
0.223698488872148
 50
91.5435442718393517
 51
112.1164351825303953
  0
ARC
  5
102B8
  8
0
 10
4494.3060134842016851
 20
173.6897036189915013
 30
0.0
 40
0.0359543099928062
 50
248.9424706824489135
 51
270.3209794666469179
  0
ARC
  5
102B9
  8
0
 10
4494.2975156033771782
 20
173.667632147635004
 30
0.0
 40
0.0123034363017986
 50
213.6674987251458049
 51
248.9424706824489135
  0
ARC
  5
102BA
  8
0
 10
4494.2906587471807143
 20
173.6630648104685974
 30
0.0
 40
0.0040646836244622
 50
133.1417811626702985
 51
213.6674987251296045
  0
ARC
  5
102BB
  8
0
 10
4494.3080921582441078
 20
173.6379503176744095
 30
0.0
 40
0.0345986381367857
 50
102.224231189233393
 51
125.7471913350914008
  0
ARC
  5
102BC
  8
0
 10
4494.3061900763068479
 20
173.6319005827114097
 30
0.0
 40
0.0402311780474162
 50
89.9646161898843957
 51
97.7479268242722839
  0
ARC
  5
102BD
  8
0
 10
4494.3515263897843397
 20
172.7285454997114869
 30
0.0
 40
0.9072537364859288
 50
92.1095075117802793
 51
92.8627453243537957
  0
ARC
  5
102BE
  8
0
 10
4494.3133844033573041
 20
173.7121504460716039
 30
0.0
 40
0.0771122695439947
 50
273.5288890659331855
 51
331.0002456426145159
  0
ARC
  5
102BF
  8
0
 10
4495.9032973026933178
 20
173.5210192287873951
 30
0.0
 40
1.5302122050693461
 50
173.0251123613518871
 51
174.2335265036238923
  0
ARC
  5
102C0
  8
0
 10
4494.300189228999443
 20
173.4996005801324088
 30
0.0
 40
0.223698488872148
 50
67.8835648174695905
 51
88.4564557281606341
  0
ARC
  5
102C1
  8
0
 10
4494.3064163590643147
 20
173.6897036189915013
 30
0.0
 40
0.0359543099928062
 50
269.6790205333530821
 51
291.0575293175512002
  0
ARC
  5
102C2
  8
0
 10
4494.3149142398888216
 20
173.667632147635004
 30
0.0
 40
0.0123034363017986
 50
291.0575293175512002
 51
326.3325012748541099
  0
ARC
  5
102C3
  8
0
 10
4494.321771096084376
 20
173.6630648104685974
 30
0.0
 40
0.0040646836244622
 50
326.3325012748704239
 51
46.8582188373297228
  0
ARC
  5
102C4
  8
0
 10
4494.3043376850209825
 20
173.6379503176744095
 30
0.0
 40
0.0345986381367857
 50
54.2528086649085779
 51
77.7757688107665643
  0
ARC
  5
102C5
  8
0
 10
4494.3062397669591519
 20
173.6319005827114097
 30
0.0
 40
0.0402311780474162
 50
82.2520731757277161
 51
90.0353838101156185
  0
ARC
  5
102C6
  8
0
 10
4494.2609034534816601
 20
172.8444699826968929
 30
0.0
 40
0.9072537364859288
 50
87.1372546756462043
 51
87.8904924882197349
  0
ARC
  5
102C7
  8
0
 10
4494.2990454399086957
 20
173.82807492905701
 30
0.0
 40
0.0771122695439947
 50
208.9997543573855125
 51
266.4711109340668145
  0
ARC
  5
102C8
  8
0
 10
4492.7091325405717726
 20
173.6369437117728012
 30
0.0
 40
1.5302122050693461
 50
5.7664734963760376
 51
6.974887638648072
  0
ARC
  5
102C9
  8
0
 10
4494.3122406142656473
 20
173.6155250631179001
 30
0.0
 40
0.223698488872148
 50
91.5435442718393517
 51
112.1164351825303953
  0
ARC
  5
102CA
  8
0
 10
4494.3060134842016851
 20
173.8056281019769074
 30
0.0
 40
0.0359543099928062
 50
248.9424706824489135
 51
270.3209794666469179
  0
ARC
  5
102CB
  8
0
 10
4494.2975156033771782
 20
173.78355663062041
 30
0.0
 40
0.0123034363017986
 50
213.6674987251458049
 51
248.9424706824489135
  0
ARC
  5
102CC
  8
0
 10
4494.2906587471807143
 20
173.7789892934540035
 30
0.0
 40
0.0040646836244622
 50
133.1417811626702985
 51
213.6674987251296045
  0
ARC
  5
102CD
  8
0
 10
4494.3080921582441078
 20
173.7538748006597871
 30
0.0
 40
0.0345986381367857
 50
102.224231189233393
 51
125.7471913350914008
  0
ARC
  5
102CE
  8
0
 10
4494.3061900763068479
 20
173.7478250656967873
 30
0.0
 40
0.0402311780474162
 50
89.9646161898843957
 51
97.7479268242722839
  0
ARC
  5
102CF
  8
0
 10
4494.3515263897843397
 20
172.8444699826968929
 30
0.0
 40
0.9072537364859288
 50
92.1095075117802793
 51
92.8627453243537957
  0
ARC
  5
102D0
  8
0
 10
4494.3133844033573041
 20
173.82807492905701
 30
0.0
 40
0.0771122695439947
 50
273.5288890659331855
 51
331.0002456426145159
  0
ARC
  5
102D1
  8
0
 10
4495.9032973026933178
 20
173.6369437117728012
 30
0.0
 40
1.5302122050693461
 50
173.0251123613518871
 51
174.2335265036238923
  0
ARC
  5
102D2
  8
0
 10
4494.300189228999443
 20
173.6155250631179001
 30
0.0
 40
0.223698488872148
 50
67.8835648174695905
 51
88.4564557281606341
  0
ARC
  5
102D3
  8
0
 10
4494.3064163590643147
 20
173.8056281019769074
 30
0.0
 40
0.0359543099928062
 50
269.6790205333530821
 51
291.0575293175512002
  0
ARC
  5
102D4
  8
0
 10
4494.3149142398888216
 20
173.78355663062041
 30
0.0
 40
0.0123034363017986
 50
291.0575293175512002
 51
326.3325012748541099
  0
ARC
  5
102D5
  8
0
 10
4494.321771096084376
 20
173.7789892934540035
 30
0.0
 40
0.0040646836244622
 50
326.3325012748704239
 51
46.8582188373297228
  0
ARC
  5
102D6
  8
0
 10
4494.3043376850209825
 20
173.7538748006597871
 30
0.0
 40
0.0345986381367857
 50
54.2528086649085779
 51
77.7757688107665643
  0
ARC
  5
102D7
  8
0
 10
4494.3062397669591519
 20
173.7478250656967873
 30
0.0
 40
0.0402311780474162
 50
82.2520731757277161
 51
90.0353838101156185
  0
ARC
  5
102D8
  8
0
 10
4494.2609034534816601
 20
172.981654217807602
 30
0.0
 40
0.9072537364859288
 50
87.1372546756462043
 51
87.8904924882197349
  0
ARC
  5
102D9
  8
0
 10
4494.2990454399086957
 20
173.9652591641676906
 30
0.0
 40
0.0771122695439947
 50
208.9997543573855125
 51
266.4711109340668145
  0
ARC
  5
102DA
  8
0
 10
4492.7091325405717726
 20
173.7741279468835103
 30
0.0
 40
1.5302122050693461
 50
5.7664734963760376
 51
6.974887638648072
  0
ARC
  5
102DB
  8
0
 10
4494.3122406142656473
 20
173.7527092982286092
 30
0.0
 40
0.223698488872148
 50
91.5435442718393517
 51
112.1164351825303953
  0
ARC
  5
102DC
  8
0
 10
4494.3060134842016851
 20
173.9428123370877017
 30
0.0
 40
0.0359543099928062
 50
248.9424706824489135
 51
270.3209794666469179
  0
ARC
  5
102DD
  8
0
 10
4494.2975156033771782
 20
173.9207408657310907
 30
0.0
 40
0.0123034363017986
 50
213.6674987251458049
 51
248.9424706824489135
  0
ARC
  5
102DE
  8
0
 10
4494.2906587471807143
 20
173.9161735285647978
 30
0.0
 40
0.0040646836244622
 50
133.1417811626702985
 51
213.6674987251296045
  0
ARC
  5
102DF
  8
0
 10
4494.3080921582441078
 20
173.8910590357706099
 30
0.0
 40
0.0345986381367857
 50
102.224231189233393
 51
125.7471913350914008
  0
ARC
  5
102E0
  8
0
 10
4494.3061900763068479
 20
173.8850093008076101
 30
0.0
 40
0.0402311780474162
 50
89.9646161898843957
 51
97.7479268242722839
  0
ARC
  5
102E1
  8
0
 10
4494.3515263897843397
 20
172.981654217807602
 30
0.0
 40
0.9072537364859288
 50
92.1095075117802793
 51
92.8627453243537957
  0
ARC
  5
102E2
  8
0
 10
4494.3133844033573041
 20
173.9652591641676906
 30
0.0
 40
0.0771122695439947
 50
273.5288890659331855
 51
331.0002456426145159
  0
ARC
  5
102E3
  8
0
 10
4495.9032973026933178
 20
173.7741279468835103
 30
0.0
 40
1.5302122050693461
 50
173.0251123613518871
 51
174.2335265036238923
  0
ARC
  5
102E4
  8
0
 10
4494.300189228999443
 20
173.7527092982286092
 30
0.0
 40
0.223698488872148
 50
67.8835648174695905
 51
88.4564557281606341
  0
ARC
  5
102E5
  8
0
 10
4494.3064163590643147
 20
173.9428123370877017
 30
0.0
 40
0.0359543099928062
 50
269.6790205333530821
 51
291.0575293175512002
  0
ARC
  5
102E6
  8
0
 10
4494.3149142398888216
 20
173.9207408657310907
 30
0.0
 40
0.0123034363017986
 50
291.0575293175512002
 51
326.3325012748541099
  0
ARC
  5
102E7
  8
0
 10
4494.321771096084376
 20
173.9161735285647978
 30
0.0
 40
0.0040646836244622
 50
326.3325012748704239
 51
46.8582188373297228
  0
ARC
  5
102E8
  8
0
 10
4494.3043376850209825
 20
173.8910590357706099
 30
0.0
 40
0.0345986381367857
 50
54.2528086649085779
 51
77.7757688107665643
  0
ARC
  5
102E9
  8
0
 10
4494.3062397669591519
 20
173.8850093008076101
 30
0.0
 40
0.0402311780474162
 50
82.2520731757277161
 51
90.0353838101156185
  0
ARC
  5
102EA
  8
0
 10
4494.2609034534816601
 20
173.4908598377321027
 30
0.0
 40
0.9072537364859288
 50
87.1372546756462043
 51
87.8904924882197349
  0
ARC
  5
102EB
  8
0
 10
4494.2990454399086957
 20
174.4744647840921061
 30
0.0
 40
0.0771122695439947
 50
208.9997543573855125
 51
266.4711109340668145
  0
ARC
  5
102EC
  8
0
 10
4492.7091325405717726
 20
174.283333566808011
 30
0.0
 40
1.5302122050693461
 50
5.7664734963760376
 51
6.974887638648072
  0
ARC
  5
102ED
  8
0
 10
4494.3129224090780554
 20
174.3711508935512029
 30
0.0
 40
0.1296646873593222
 50
92.9652045985867375
 51
130.9030871318377081
  0
ARC
  5
102EE
  8
0
 10
4494.3060134842016851
 20
174.4520179570120888
 30
0.0
 40
0.0359543099928062
 50
248.9424706824489135
 51
270.3209794666469179
  0
ARC
  5
102EF
  8
0
 10
4494.2975156033771782
 20
174.4299464856555062
 30
0.0
 40
0.0123034363017986
 50
213.6674987251458049
 51
248.9424706824489135
  0
ARC
  5
102F0
  8
0
 10
4494.2906587471807143
 20
174.4253791484892133
 30
0.0
 40
0.0040646836244622
 50
133.1417811626702985
 51
213.6674987251296045
  0
ARC
  5
102F1
  8
0
 10
4494.3080921582441078
 20
174.4002646556949969
 30
0.0
 40
0.0345986381367857
 50
102.224231189233393
 51
125.7471913350914008
  0
ARC
  5
102F2
  8
0
 10
4494.3061900763068479
 20
174.3942149207319972
 30
0.0
 40
0.0402311780474162
 50
89.9646161898843957
 51
97.7479268242722839
  0
ARC
  5
102F3
  8
0
 10
4494.3515263897843397
 20
173.4908598377321027
 30
0.0
 40
0.9072537364859288
 50
92.1095075117802793
 51
92.8627453243537957
  0
ARC
  5
102F4
  8
0
 10
4494.3133844033573041
 20
174.4744647840921061
 30
0.0
 40
0.0771122695439947
 50
273.5288890659331855
 51
331.0002456426145159
  0
ARC
  5
102F5
  8
0
 10
4495.9032973026933178
 20
174.283333566808011
 30
0.0
 40
1.5302122050693461
 50
173.0251123613518871
 51
174.2335265036238923
  0
ARC
  5
102F6
  8
0
 10
4494.2863956495257298
 20
174.3385903894184139
 30
0.0
 40
0.1632590599903636
 50
53.1044821408049188
 51
83.027226128723882
  0
ARC
  5
102F7
  8
0
 10
4494.3064163590643147
 20
174.4520179570120888
 30
0.0
 40
0.0359543099928062
 50
269.6790205333530821
 51
291.0575293175512002
  0
ARC
  5
102F8
  8
0
 10
4494.3149142398888216
 20
174.4299464856555062
 30
0.0
 40
0.0123034363017986
 50
291.0575293175512002
 51
326.3325012748541099
  0
ARC
  5
102F9
  8
0
 10
4494.321771096084376
 20
174.4253791484892133
 30
0.0
 40
0.0040646836244622
 50
326.3325012748704239
 51
46.8582188373297228
  0
ARC
  5
102FA
  8
0
 10
4494.3043376850209825
 20
174.4002646556949969
 30
0.0
 40
0.0345986381367857
 50
54.2528086649085779
 51
77.7757688107665643
  0
ARC
  5
102FB
  8
0
 10
4494.3062397669591519
 20
174.3942149207319972
 30
0.0
 40
0.0402311780474162
 50
82.2520731757277161
 51
90.0353838101156185
  0
ARC
  5
102FC
  8
0
 10
4494.2609034534816601
 20
173.7273444916723975
 30
0.0
 40
0.9072537364859288
 50
87.1372546756462043
 51
87.8904924882197349
  0
ARC
  5
102FD
  8
0
 10
4494.2990454399086957
 20
174.7109494380324861
 30
0.0
 40
0.0771122695439947
 50
208.9997543573855125
 51
266.4711109340668145
  0
ARC
  5
102FE
  8
0
 10
4492.7091325405717726
 20
174.5198182207483057
 30
0.0
 40
1.5302122050693461
 50
5.7664734963760376
 51
6.974887638648072
  0
ARC
  5
102FF
  8
0
 10
4494.314583392426357
 20
174.6183969193417056
 30
0.0
 40
0.1228993367291414
 50
93.9044096127944528
 51
134.7763192209916099
  0
ARC
  5
10300
  8
0
 10
4494.3060134842016851
 20
174.6885026109524972
 30
0.0
 40
0.0359543099928062
 50
248.9424706824489135
 51
270.3209794666469179
  0
ARC
  5
10301
  8
0
 10
4494.2975156033771782
 20
174.6664311395958862
 30
0.0
 40
0.0123034363017986
 50
213.6674987251458049
 51
248.9424706824489135
  0
ARC
  5
10302
  8
0
 10
4494.2906587471807143
 20
174.6618638024295933
 30
0.0
 40
0.0040646836244622
 50
133.1417811626702985
 51
213.6674987251296045
  0
ARC
  5
10303
  8
0
 10
4494.3080921582441078
 20
174.6367493096354053
 30
0.0
 40
0.0345986381367857
 50
102.224231189233393
 51
125.7471913350914008
  0
ARC
  5
10304
  8
0
 10
4494.3061900763068479
 20
174.6306995746724056
 30
0.0
 40
0.0402311780474162
 50
89.9646161898843957
 51
97.7479268242722839
  0
ARC
  5
10305
  8
0
 10
4494.3515263897843397
 20
173.7273444916723975
 30
0.0
 40
0.9072537364859288
 50
92.1095075117802793
 51
92.8627453243537957
  0
ARC
  5
10306
  8
0
 10
4494.3133844033573041
 20
174.7109494380324861
 30
0.0
 40
0.0771122695439947
 50
273.5288890659331855
 51
331.0002456426145159
  0
ARC
  5
10307
  8
0
 10
4495.9032973026933178
 20
174.5198182207483057
 30
0.0
 40
1.5302122050693461
 50
173.0251123613518871
 51
174.2335265036238923
  0
ARC
  5
10308
  8
0
 10
4494.3101892887589202
 20
174.6456820074099028
 30
0.0
 40
0.0954118161901386
 50
38.9319319936030013
 51
92.3873391726098845
  0
ARC
  5
10309
  8
0
 10
4494.3064163590643147
 20
174.6885026109524972
 30
0.0
 40
0.0359543099928062
 50
269.6790205333530821
 51
291.0575293175512002
  0
ARC
  5
1030A
  8
0
 10
4494.3149142398888216
 20
174.6664311395958862
 30
0.0
 40
0.0123034363017986
 50
291.0575293175512002
 51
326.3325012748541099
  0
ARC
  5
1030B
  8
0
 10
4494.321771096084376
 20
174.6618638024295933
 30
0.0
 40
0.0040646836244622
 50
326.3325012748704239
 51
46.8582188373297228
  0
ARC
  5
1030C
  8
0
 10
4494.3043376850209825
 20
174.6367493096354053
 30
0.0
 40
0.0345986381367857
 50
54.2528086649085779
 51
77.7757688107665643
  0
ARC
  5
1030D
  8
0
 10
4494.3062397669591519
 20
174.6306995746724056
 30
0.0
 40
0.0402311780474162
 50
82.2520731757277161
 51
90.0353838101156185
  0
ARC
  5
1030E
  8
0
 10
4494.2609034534816601
 20
173.9921432841217097
 30
0.0
 40
0.9072537364859288
 50
87.1372546756462043
 51
87.8904924882197349
  0
ARC
  5
1030F
  8
0
 10
4494.2990454399086957
 20
174.9757482304817131
 30
0.0
 40
0.0771122695439947
 50
208.9997543573855125
 51
266.4711109340668145
  0
ARC
  5
10310
  8
0
 10
4492.7091325405717726
 20
174.7846170131975896
 30
0.0
 40
1.5302122050693461
 50
5.7664734963760376
 51
6.974887638648072
  0
ARC
  5
10311
  8
0
 10
4494.3024545657708586
 20
174.9610326714283985
 30
0.0
 40
0.0750259729557614
 50
87.4223506791801839
 51
172.79896079345869
  0
ARC
  5
10312
  8
0
 10
4494.3060134842016851
 20
174.9533014034016958
 30
0.0
 40
0.0359543099928062
 50
248.9424706824489135
 51
270.3209794666469179
  0
ARC
  5
10313
  8
0
 10
4494.2975156033771782
 20
174.9312299320451132
 30
0.0
 40
0.0123034363017986
 50
213.6674987251458049
 51
248.9424706824489135
  0
ARC
  5
10314
  8
0
 10
4494.2906587471807143
 20
174.9266625948787919
 30
0.0
 40
0.0040646836244622
 50
133.1417811626702985
 51
213.6674987251296045
  0
ARC
  5
10315
  8
0
 10
4494.3080921582441078
 20
174.9015481020846039
 30
0.0
 40
0.0345986381367857
 50
102.224231189233393
 51
125.7471913350914008
  0
ARC
  5
10316
  8
0
 10
4494.3061900763068479
 20
174.8954983671216041
 30
0.0
 40
0.0402311780474162
 50
89.9646161898843957
 51
97.7479268242722839
  0
ARC
  5
10317
  8
0
 10
4494.3515263897843397
 20
173.9921432841217097
 30
0.0
 40
0.9072537364859288
 50
92.1095075117802793
 51
92.8627453243537957
  0
ARC
  5
10318
  8
0
 10
4494.3133844033573041
 20
174.9757482304817131
 30
0.0
 40
0.0771122695439947
 50
273.5288890659331855
 51
331.0002456426145159
  0
ARC
  5
10319
  8
0
 10
4495.9032973026933178
 20
174.7846170131975896
 30
0.0
 40
1.5302122050693461
 50
173.0251123613518871
 51
174.2335265036238923
  0
ARC
  5
1031A
  8
0
 10
4494.3094833118866518
 20
174.960487178365895
 30
0.0
 40
0.0755839574883056
 50
7.5645392050409104
 51
92.771404798563907
  0
ARC
  5
1031B
  8
0
 10
4494.3064163590643147
 20
174.9533014034016958
 30
0.0
 40
0.0359543099928062
 50
269.6790205333530821
 51
291.0575293175512002
  0
ARC
  5
1031C
  8
0
 10
4494.3149142398888216
 20
174.9312299320451132
 30
0.0
 40
0.0123034363017986
 50
291.0575293175512002
 51
326.3325012748541099
  0
ARC
  5
1031D
  8
0
 10
4494.321771096084376
 20
174.9266625948787919
 30
0.0
 40
0.0040646836244622
 50
326.3325012748704239
 51
46.8582188373297228
  0
ARC
  5
1031E
  8
0
 10
4494.3043376850209825
 20
174.9015481020846039
 30
0.0
 40
0.0345986381367857
 50
54.2528086649085779
 51
77.7757688107665643
  0
ARC
  5
1031F
  8
0
 10
4494.3062397669591519
 20
174.8954983671216041
 30
0.0
 40
0.0402311780474162
 50
82.2520731757277161
 51
90.0353838101156185
  0
ARC
  5
10320
  8
0
 10
4494.2609034534816601
 20
173.2751542954740103
 30
0.0
 40
0.9072537364859288
 50
87.1372546756462043
 51
87.8904924882197349
  0
ARC
  5
10321
  8
0
 10
4494.2990454399086957
 20
174.2587592418340137
 30
0.0
 40
0.0771122695439947
 50
208.9997543573855125
 51
266.4711109340668145
  0
ARC
  5
10322
  8
0
 10
4492.7091325405717726
 20
174.0676280245498901
 30
0.0
 40
1.5302122050693461
 50
5.7664734963760376
 51
6.974887638648072
  0
ARC
  5
10323
  8
0
 10
4494.3129224090780554
 20
174.1554453512931104
 30
0.0
 40
0.1296646873593222
 50
92.9652045985867375
 51
130.9030871318377081
  0
ARC
  5
10324
  8
0
 10
4494.3060134842016851
 20
174.2363124147539963
 30
0.0
 40
0.0359543099928062
 50
248.9424706824489135
 51
270.3209794666469179
  0
ARC
  5
10325
  8
0
 10
4494.2975156033771782
 20
174.214240943397499
 30
0.0
 40
0.0123034363017986
 50
213.6674987251458049
 51
248.9424706824489135
  0
ARC
  5
10326
  8
0
 10
4494.2906587471807143
 20
174.2096736062310924
 30
0.0
 40
0.0040646836244622
 50
133.1417811626702985
 51
213.6674987251296045
  0
ARC
  5
10327
  8
0
 10
4494.3080921582441078
 20
174.1845591134369045
 30
0.0
 40
0.0345986381367857
 50
102.224231189233393
 51
125.7471913350914008
  0
ARC
  5
10328
  8
0
 10
4494.3061900763068479
 20
174.1785093784739047
 30
0.0
 40
0.0402311780474162
 50
89.9646161898843957
 51
97.7479268242722839
  0
ARC
  5
10329
  8
0
 10
4494.3515263897843397
 20
173.2751542954740103
 30
0.0
 40
0.9072537364859288
 50
92.1095075117802793
 51
92.8627453243537957
  0
ARC
  5
1032A
  8
0
 10
4494.3133844033573041
 20
174.2587592418340137
 30
0.0
 40
0.0771122695439947
 50
273.5288890659331855
 51
331.0002456426145159
  0
ARC
  5
1032B
  8
0
 10
4495.9032973026933178
 20
174.0676280245498901
 30
0.0
 40
1.5302122050693461
 50
173.0251123613518871
 51
174.2335265036238923
  0
ARC
  5
1032C
  8
0
 10
4494.2863956495257298
 20
174.122884847160293
 30
0.0
 40
0.1632590599903636
 50
53.1044821408049188
 51
83.027226128723882
  0
ARC
  5
1032D
  8
0
 10
4494.3064163590643147
 20
174.2363124147539963
 30
0.0
 40
0.0359543099928062
 50
269.6790205333530821
 51
291.0575293175512002
  0
ARC
  5
1032E
  8
0
 10
4494.3149142398888216
 20
174.214240943397499
 30
0.0
 40
0.0123034363017986
 50
291.0575293175512002
 51
326.3325012748541099
  0
ARC
  5
1032F
  8
0
 10
4494.321771096084376
 20
174.2096736062310924
 30
0.0
 40
0.0040646836244622
 50
326.3325012748704239
 51
46.8582188373297228
  0
ARC
  5
10330
  8
0
 10
4494.3043376850209825
 20
174.1845591134369045
 30
0.0
 40
0.0345986381367857
 50
54.2528086649085779
 51
77.7757688107665643
  0
ARC
  5
10331
  8
0
 10
4494.3062397669591519
 20
174.1785093784739047
 30
0.0
 40
0.0402311780474162
 50
82.2520731757277161
 51
90.0353838101156185
  0
LINE
  5
10332
  8
0
 10
4494.6748793414481042
 20
169.2487058811701104
 30
0.0
 11
4494.6702131668898801
 21
167.9669069726735984
 31
0.0
  0
ARC
  5
10333
  8
0
 10
4494.3057369111938897
 20
169.48809706006341
 30
0.0
 40
1.122773019019651
 50
251.0186884572675012
 51
289.021126041224079
  0
ARC
  5
10335
  8
0
 10
4494.306214904531771
 20
161.1000037323159972
 30
0.0
 40
0.8267716534999996
 50
301.0546805855672119
 51
238.9453194213051859
  0
LINE
  5
10336
  8
0
 10
4494.661685984133328
 20
158.4228565076591906
 30
0.0
 11
4494.661685984133328
 21
160.2660545330350033
 31
0.0
  0
LINE
  5
10337
  8
0
 10
4493.9507438250329869
 20
158.4228565076591906
 30
0.0
 11
4493.9507438250329869
 21
160.2660545329746924
 31
0.0
  0
ARC
  5
10338
  8
0
 10
4494.3062149045817932
 20
158.4228565076591906
 30
0.0
 40
0.35547107955
 50
180.0
 51
0.0
  0
ARC
  5
10339
  8
0
 10
4494.8083859841317462
 20
160.2660545330350033
 30
0.0
 40
0.1467
 50
121.0546805855671977
 51
180.0
  0
ARC
  5
1033A
  8
0
 10
4493.8040438250318402
 20
160.2660545329746924
 30
0.0
 40
0.1467
 50
0.0
 51
58.9453194213052001
  0
LINE
  5
1033B
  8
0
 10
4494.4636952195332924
 20
161.9267753858158869
 30
0.0
 11
4494.4636952195332924
 21
161.9346189381934948
 31
0.0
  0
LINE
  5
1033C
  8
0
 10
4494.1487345896330226
 20
161.9267753858158869
 30
0.0
 11
4494.1487345896330226
 21
161.9346189382289083
 31
0.0
  0
ARC
  5
1033D
  8
0
 10
4494.306214904531771
 20
161.544885622016011
 30
0.0
 40
0.4330708660999252
 50
70.5302456335559214
 51
109.4697543517421963
  0
ARC
  5
1033E
  8
0
 10
4494.4439952195325532
 20
161.9346189381936085
 30
0.0
 40
0.0197
 50
359.9999999999575948
 51
70.530245633722302
  0
ARC
  5
1033F
  8
0
 10
4494.1684345896319428
 20
161.9346189382289083
 30
0.0
 40
0.0197
 50
109.4697543516265057
 51
180.0000000000406999
  0
LINE
  5
10340
  8
0
 10
4494.4636952195332924
 20
161.9267753858158869
 30
0.0
 11
4494.1487345896330226
 21
161.9267753858158869
 31
0.0
  0
LINE
  5
10341
  8
0
 10
4493.8436164793329226
 20
160.0763816850158889
 30
0.0
 11
4493.9507438250329869
 21
160.0763816850158889
 31
0.0
  0
LINE
  5
10342
  8
0
 10
4494.7688133297333479
 20
160.0763816850158889
 30
0.0
 11
4494.7688133297333479
 21
160.3544946433061966
 31
0.0
  0
LINE
  5
10343
  8
0
 10
4493.8436164793329226
 20
160.0763816850158889
 30
0.0
 11
4493.8436164793329226
 21
160.3446413886381094
 31
0.0
  0
ARC
  5
10344
  8
0
 10
4494.9114764718133301
 20
160.3425826096492131
 30
0.0
 40
0.1431595915543845
 50
132.4873365971864985
 51
175.227010089005006
  0
ARC
  5
10345
  8
0
 10
4493.7053571907199512
 20
160.3448613558634008
 30
0.0
 40
0.1382594635929697
 50
359.9088438604675275
 51
50.9277971334646224
  0
ARC
  5
10346
  8
0
 10
4493.4100100590612783
 20
160.5708255249853096
 30
0.0
 40
0.2165677175828101
 50
38.4189890752981071
 51
89.4702383237294754
  0
ARC
  5
10347
  8
0
 10
4495.2093203885451658
 20
160.5638020774850077
 30
0.0
 40
0.2262698834217737
 50
91.0244449558784936
 51
141.3754288560556063
  0
LINE
  5
10348
  8
0
 10
4494.7688133297333479
 20
160.0763816850158889
 30
0.0
 11
4494.661685984133328
 21
160.0763816850158889
 31
0.0
  0
LINE
  5
10349
  8
0
 10
4493.8689968606331604
 20
169.6274457357158951
 30
0.0
 11
4493.8689968606331604
 21
169.7445142026572
 31
0.0
  0
ARC
  5
1034A
  8
0
 10
4494.0369388633980634
 20
169.7289899749150948
 30
0.0
 40
0.1962542962774181
 50
211.1587828537790017
 51
258.1951543702313074
  0
ARC
  5
1034B
  8
0
 10
4494.3278461270847401
 20
170.9583281150673884
 30
0.0
 40
1.4594844988493081
 50
256.8894124948006947
 51
269.1507808692747972
  0
ARC
  5
1034C
  8
0
 10
4493.9061433673650754
 20
169.599973732556208
 30
0.0
 40
0.0603528169967197
 50
127.9874746519511035
 51
178.7917375965990914
  0
ARC
  5
1034D
  8
0
 10
4493.9392698289757391
 20
169.6289620160304139
 30
0.0
 40
0.0974885840139662
 50
196.5167923432977091
 51
231.4501381050110922
  0
ARC
  5
1034E
  8
0
 10
4494.28747976980776
 20
170.4954560857773913
 30
0.0
 40
1.027620621636552
 50
246.5485313692448983
 51
271.044650702340391
  0
ARC
  5
1034F
  8
0
 10
4493.8527441617989098
 20
169.4644159611135024
 30
0.0
 40
0.0427772478620902
 50
94.6841329505787854
 51
269.5072209460150248
  0
ARC
  5
10350
  8
0
 10
4493.8474016485934044
 20
169.3275386636454982
 30
0.0
 40
0.0360890558162615
 50
152.5579293516825885
 51
279.5911941397280884
  0
ARC
  5
10351
  8
0
 10
4493.9120747643064533
 20
169.268770749533104
 30
0.0
 40
0.1226223833335471
 50
118.2591771446106037
 51
142.0558739233509016
  0
ARC
  5
10352
  8
0
 10
4494.3095496823452777
 20
170.1269555629151
 30
0.0
 40
1.2397320266391061
 50
252.5922741630463122
 51
287.084608942446323
  0
ARC
  5
10353
  8
0
 10
4494.3111055172466877
 20
169.8530252329640859
 30
0.0
 40
1.026167194130797
 50
248.7289220639474081
 51
290.6853584376677873
  0
ARC
  5
10354
  8
0
 10
4494.3082077607468818
 20
170.0085018001105936
 30
0.0
 40
1.210953388659159
 50
252.2475980620884002
 51
287.5542721583038883
  0
LINE
  5
10355
  8
0
 10
4494.063071872132241
 20
168.3918612592175066
 30
0.0
 11
4494.063071872132241
 21
161.9275258613361927
 31
0.0
  0
LINE
  5
10356
  8
0
 10
4494.063071872132241
 20
158.1635475140483891
 30
0.0
 11
4494.063071872132241
 21
152.0116992322357135
 31
0.0
  0
LINE
  5
10357
  8
0
 10
4494.5493579370331645
 20
168.3920733157916061
 30
0.0
 11
4494.5493579370331645
 21
161.9275320524278925
 31
0.0
  0
LINE
  5
10358
  8
0
 10
4494.5493579370331645
 20
158.1635475140483891
 30
0.0
 11
4494.5493579370331645
 21
152.0420158322243935
 31
0.0
  0
LINE
  5
10359
  8
0
 10
4494.7666258736326199
 20
169.6012463679159907
 30
0.0
 11
4494.7552427883647397
 21
169.2901717668814001
 31
0.0
  0
ARC
  5
1035A
  8
0
 10
4494.2795922239056381
 20
171.6535123630289945
 30
0.0
 40
1.971936285578874
 50
270.7735617891858055
 51
275.121544970938487
  0
ARC
  5
1035B
  8
0
 10
4494.3244782586416477
 20
171.1526883324926018
 30
0.0
 40
1.4691048370046691
 50
275.1215896746713838
 51
285.0877176271226858
  0
LINE
  5
1035C
  8
0
 10
4494.7434329826328394
 20
169.6274457357158951
 30
0.0
 11
4494.7434329826328394
 21
169.7445142026572
 31
0.0
  0
ARC
  5
1035D
  8
0
 10
4494.5754909798679364
 20
169.7289899749150948
 30
0.0
 40
0.1962542962774181
 50
281.8048456297688062
 51
328.8412171462210267
  0
ARC
  5
1035E
  8
0
 10
4494.2641814103826619
 20
171.1249747697966939
 30
0.0
 40
1.6265140657238271
 50
271.4808423675166864
 51
282.4789642683800253
  0
ARC
  5
1035F
  8
0
 10
4494.7062864759009244
 20
169.599973732556208
 30
0.0
 40
0.0603528169967197
 50
1.20826240340086
 51
52.0125253480488894
  0
ARC
  5
10360
  8
0
 10
4494.6731600142902607
 20
169.6289620160304139
 30
0.0
 40
0.0974885840139662
 50
308.5498618949889078
 51
343.4832076567022909
  0
ARC
  5
10361
  8
0
 10
4494.3209337778225745
 20
170.515733528906992
 30
0.0
 40
1.047830647663105
 50
269.1951408587192986
 51
293.2116770697218726
  0
ARC
  5
10362
  8
0
 10
4494.75968568146709
 20
169.4644159611135024
 30
0.0
 40
0.0427772478620902
 50
270.4927790539849752
 51
85.3158670494212288
  0
ARC
  5
10363
  8
0
 10
4494.7650281946725954
 20
169.3275386636454982
 30
0.0
 40
0.0360890558162615
 50
260.4088058602719116
 51
27.4420706483173795
  0
ARC
  5
10364
  8
0
 10
4494.700355078958637
 20
169.268770749533104
 30
0.0
 40
0.1226223833335471
 50
37.9441260766490487
 51
61.7408228553893466
  0
LINE
  5
10365
  8
0
 10
4494.4216874193316471
 20
161.9267753858158869
 30
0.0
 11
4494.4216874193316471
 21
161.9186718368351023
 31
0.0
  0
LINE
  5
10366
  8
0
 10
4494.4126528355318442
 20
161.9267753858158869
 30
0.0
 11
4494.4126528355318442
 21
161.9198953921562065
 31
0.0
  0
LINE
  5
10367
  8
0
 10
4494.4143114976332072
 20
161.9267753858158869
 30
0.0
 11
4494.4143114976332072
 21
161.9196783589765971
 31
0.0
  0
LINE
  5
10368
  8
0
 10
4494.3966911659326797
 20
161.9267753858158869
 30
0.0
 11
4494.3966911659326797
 21
161.9218099218485918
 31
0.0
  0
LINE
  5
10369
  8
0
 10
4494.19074238963276
 20
161.9267753858158869
 30
0.0
 11
4494.19074238963276
 21
161.9186718368351023
 31
0.0
  0
LINE
  5
1036A
  8
0
 10
4494.1997769734343819
 20
161.9267753858158869
 30
0.0
 11
4494.1997769734343819
 21
161.9198953921562065
 31
0.0
  0
LINE
  5
1036B
  8
0
 10
4494.1981183113330189
 20
161.9267753858158869
 30
0.0
 11
4494.1981183113330189
 21
161.9196783589765971
 31
0.0
  0
LINE
  5
1036C
  8
0
 10
4494.2157386430335464
 20
161.9267753858158869
 30
0.0
 11
4494.2157386430335464
 21
161.9218099218485918
 31
0.0
  0
ARC
  5
1036D
  8
0
 10
4491.3534589990331369
 20
161.3576518892159868
 30
0.0
 40
0.6496062991999998
 50
93.3725216019174269
 51
146.6274931161480879
  0
ARC
  5
1036E
  8
0
 10
4491.3534589990331369
 20
161.3576518892159868
 30
0.0
 40
0.6496062991999998
 50
153.3725216255006956
 51
206.6274783744993044
  0
ARC
  5
1036F
  8
0
 10
4491.3534589990331369
 20
161.3576518892159868
 30
0.0
 40
0.6496062991999998
 50
213.3725363384724858
 51
266.6274783975082983
  0
ARC
  5
10370
  8
0
 10
4491.3534589990331369
 20
161.3576518892159868
 30
0.0
 40
0.6496062991999998
 50
273.372521612514106
 51
302.8904251965872731
  0
ARC
  5
10371
  8
0
 10
4491.3534589990331369
 20
161.3576518892159868
 30
0.0
 40
0.6496062991999998
 50
56.2229799676530035
 51
86.6274783881642918
  0
ARC
  5
10372
  8
0
 10
4497.258970810133178
 20
161.3576518892159868
 30
0.0
 40
0.6496062991999999
 50
93.3725068869830181
 51
123.7768670468944947
  0
ARC
  5
10373
  8
0
 10
4497.258970810133178
 20
161.3576518892159868
 30
0.0
 40
0.6496062991999999
 50
237.034000817382406
 51
266.6274636422223807
  0
ARC
  5
10374
  8
0
 10
4497.258970810133178
 20
161.3576518892159868
 30
0.0
 40
0.6496062991999999
 50
273.3725363276055873
 51
326.6274636812128165
  0
ARC
  5
10375
  8
0
 10
4497.258970810133178
 20
161.3576518892159868
 30
0.0
 40
0.6496062991999999
 50
333.3725215861599054
 51
26.6274784138400413
  0
ARC
  5
10376
  8
0
 10
4497.258970810133178
 20
161.3576518892159868
 30
0.0
 40
0.6496062991999999
 50
33.3725068641965308
 51
86.6274931428758634
  0
ARC
  5
10377
  8
0
 10
4494.3062149035649782
 20
159.8007911342754994
 30
0.0
 40
0.5266768968349235
 50
148.4504220200267923
 51
173.0415057026195882
  0
ARC
  5
10378
  8
0
 10
4494.0142474002723247
 20
159.8861317932021109
 30
0.0
 40
0.2228337058683063
 50
133.0567463820968896
 51
159.5338459361543073
  0
ARC
  5
10379
  8
0
 10
4493.9152184989216039
 20
159.9921166439710873
 30
0.0
 40
0.0777836734821034
 50
92.3442608230306661
 51
133.0567463820968896
  0
ARC
  5
1037A
  8
0
 10
4493.9147833778006316
 20
160.0027454487380112
 30
0.0
 40
0.0671459659677852
 50
57.6183516626956305
 51
92.3442608230306661
  0
LINE
  5
1037B
  8
0
 10
4493.8573897383876101
 20
159.5252107915981981
 30
0.0
 11
4493.9507438250329869
 21
159.5252107915981981
 31
0.0
  0
LINE
  5
1037C
  8
0
 10
4493.7834174166773664
 20
159.736984069401899
 30
0.0
 11
4493.7834174167319361
 21
159.864598198315889
 31
0.0
  0
ARC
  5
1037D
  8
0
 10
4494.3062149035649782
 20
159.8007911334424023
 30
0.0
 40
0.5266768968349235
 50
186.9584942973802981
 51
211.5495779799732077
  0
ARC
  5
1037E
  8
0
 10
4494.0142474002723247
 20
159.7154504745157908
 30
0.0
 40
0.2228337058683063
 50
200.4661540638456927
 51
226.9432536179031104
  0
ARC
  5
1037F
  8
0
 10
4493.9152184989216039
 20
159.6094656237467007
 30
0.0
 40
0.0777836734821034
 50
226.9432536179031104
 51
267.6557391769692913
  0
ARC
  5
10380
  8
0
 10
4493.9147833778006316
 20
159.5988368189798905
 30
0.0
 40
0.0671459659677852
 50
267.6557391769692913
 51
302.3816483373042843
  0
ARC
  5
10381
  8
0
 10
4494.3062149397001122
 20
159.8007911342754994
 30
0.0
 40
0.5266768968349235
 50
6.9584942973803523
 51
31.5495779799732006
  0
ARC
  5
10382
  8
0
 10
4494.5981824429927656
 20
159.8861317932021109
 30
0.0
 40
0.2228337058683063
 50
20.4661540638457211
 51
46.9432536179030819
  0
ARC
  5
10383
  8
0
 10
4494.6972113443443959
 20
159.9921166439710873
 30
0.0
 40
0.0777836734821034
 50
46.9432536179030819
 51
87.6557391769693481
  0
ARC
  5
10384
  8
0
 10
4494.6976464654653682
 20
160.0027454487380112
 30
0.0
 40
0.0671459659677852
 50
87.6557391769693481
 51
122.381648337304398
  0
LINE
  5
10385
  8
0
 10
4494.7550401048765707
 20
159.5252107915981981
 30
0.0
 11
4494.6616860182330129
 21
159.5252107915981981
 31
0.0
  0
LINE
  5
10386
  8
0
 10
4494.8290124265877239
 20
159.736984069401899
 30
0.0
 11
4494.8290124265331542
 21
159.864598198315889
 31
0.0
  0
ARC
  5
10387
  8
0
 10
4494.3062149397001122
 20
159.8007911334424023
 30
0.0
 40
0.5266768968349235
 50
328.4504220200267923
 51
353.0415057026197019
  0
ARC
  5
10388
  8
0
 10
4494.5981824429927656
 20
159.7154504745157908
 30
0.0
 40
0.2228337058683063
 50
313.0567463820968896
 51
339.5338459361543073
  0
ARC
  5
10389
  8
0
 10
4494.6972113443443959
 20
159.6094656237467007
 30
0.0
 40
0.0777836734821034
 50
272.344260823030595
 51
313.0567463820968896
  0
ARC
  5
1038A
  8
0
 10
4494.6976464654653682
 20
159.5988368189798905
 30
0.0
 40
0.0671459659677852
 50
237.618351662695602
 51
272.344260823030595
  0
ARC
  5
1038B
  8
0
 10
4494.3035279971309137
 20
152.0699562191643963
 30
0.0
 40
0.2474126604982564
 50
193.6190261272714963
 51
353.515737501787612
  0
LINE
  5
1038C
  8
0
 10
4492.9930751407509888
 20
174.4402015164455122
 30
0.0
 11
4492.99478126223039
 21
174.4523188082332013
 31
0.0
  0
ARC
  5
1038D
  8
0
 10
4495.7771062207912109
 20
174.2731874594090868
 30
0.0
 40
0.0413241477668385
 50
296.4326282620174879
 51
349.9318952256285797
  0
ARC
  5
1038E
  8
0
 10
4495.7433033204360981
 20
174.3411857038620951
 30
0.0
 40
0.1172609459685808
 50
242.9094554685264882
 51
296.4326282620174879
  0
ARC
  5
1038F
  8
0
 10
4495.7081051744626166
 20
174.272374495571114
 30
0.0
 40
0.0399699900524961
 50
189.2302326789763072
 51
242.9094554685264882
  0
ARC
  5
10390
  8
0
 10
4495.7076034380988858
 20
174.2776262672603025
 30
0.0
 40
0.0406593718982365
 50
171.6751530800472096
 51
196.6693147578874061
  0
ARC
  5
10391
  8
0
 10
4495.7096118878707784
 20
174.2687032078916047
 30
0.0
 40
0.0447604849257428
 50
133.6509323038696095
 51
160.6783599398073932
  0
ARC
  5
10392
  8
0
 10
4495.7859538352222444
 20
174.1810027375626078
 30
0.0
 40
0.1610001434505077
 50
81.8536581328852435
 51
131.7649849152813886
  0
ARC
  5
10393
  8
0
 10
4495.8055878527511595
 20
174.3226639987802002
 30
0.0
 40
0.0179974592881438
 50
357.9535300861713267
 51
79.8228394763627307
  0
ARC
  5
10394
  8
0
 10
4494.6611805815518892
 20
174.4135420561752881
 30
0.0
 40
1.165990616830616
 50
352.7285995713486955
 51
355.4981181605444931
  0
ARC
  5
10395
  8
0
 10
4495.7432891833377653
 20
174.2762349475162864
 30
0.0
 40
0.0330311831764074
 50
237.6603860156442067
 51
300.8410617374040044
  0
ARC
  5
10396
  8
0
 10
4495.7281045439003719
 20
174.2522519513632915
 30
0.0
 40
0.0046453173388715
 50
141.0930681666019098
 51
237.6603860156484984
  0
ARC
  5
10397
  8
0
 10
4495.7430992861509367
 20
174.2314612356566954
 30
0.0
 40
0.0301396248608591
 50
51.2112061860749535
 51
128.129830269947206
  0
ARC
  5
10398
  8
0
 10
4495.7583549435621535
 20
174.2520960942559896
 30
0.0
 40
0.0046162899001457
 50
293.8687736467974219
 51
38.2479682894003901
  0
ARC
  5
10399
  8
0
 10
4495.7278081638605727
 20
174.4474257481276993
 30
0.0
 40
0.0413241477668385
 50
296.4326282620174879
 51
349.9318952256285797
  0
ARC
  5
1039A
  8
0
 10
4495.6940052635063694
 20
174.5154239925807929
 30
0.0
 40
0.1172609459685808
 50
242.9094554685264882
 51
296.4326282620174879
  0
ARC
  5
1039B
  8
0
 10
4495.6588071175328878
 20
174.4466127842898118
 30
0.0
 40
0.0399699900524961
 50
189.2302326789763072
 51
242.9094554685264882
  0
ARC
  5
1039C
  8
0
 10
4495.6816167566348668
 20
174.4409234123797034
 30
0.0
 40
0.064975279233715
 50
115.5649035093524049
 51
169.8991993805348102
  0
ARC
  5
1039D
  8
0
 10
4495.7325670963646189
 20
174.3775785412470896
 30
0.0
 40
0.145304103832219
 50
84.7401484279972124
 51
122.9299944522536947
  0
ARC
  5
1039E
  8
0
 10
4495.7452391258448188
 20
174.4927857893846976
 30
0.0
 40
0.0294921350372708
 50
7.1712276706018461
 51
88.7402011310390861
  0
ARC
  5
1039F
  8
0
 10
4494.2984777718584155
 20
174.625532949072408
 30
0.0
 40
1.4816548768295921
 50
352.8143888565695079
 51
355.0026870601109863
  0
ARC
  5
103A0
  8
0
 10
4495.693991126408946
 20
174.4504732362350126
 30
0.0
 40
0.0330311831764074
 50
237.6603860156442067
 51
300.8410617374040044
  0
ARC
  5
103A1
  8
0
 10
4495.6788064869697337
 20
174.4264902400819892
 30
0.0
 40
0.0046453173388715
 50
141.0930681666019098
 51
237.6603860156484984
  0
ARC
  5
103A2
  8
0
 10
4495.6938012292212079
 20
174.4056995243753079
 30
0.0
 40
0.0301396248608591
 50
51.2112061860749535
 51
128.129830269947206
  0
ARC
  5
103A3
  8
0
 10
4495.7090568866324247
 20
174.4263343829746873
 30
0.0
 40
0.0046162899001457
 50
293.8687736467974219
 51
38.2479682894003901
  0
ARC
  5
103A4
  8
0
 10
4495.5842913051119467
 20
174.6104232728700083
 30
0.0
 40
0.0413241477668385
 50
296.4326282620174879
 51
349.9318952256285797
  0
ARC
  5
103A5
  8
0
 10
4495.5504884047568339
 20
174.6784215173229882
 30
0.0
 40
0.1172609459685808
 50
242.9094554685264882
 51
296.4326282620174879
  0
ARC
  5
103A6
  8
0
 10
4495.5152902587833523
 20
174.6096103090320071
 30
0.0
 40
0.0399699900524961
 50
189.2302326789763072
 51
242.9094554685264882
  0
ARC
  5
103A7
  8
0
 10
4495.5559226568257145
 20
174.6206537899088005
 30
0.0
 40
0.0819649377100501
 50
177.3509305908341105
 51
192.2955115724325879
  0
ARC
  5
103A8
  8
0
 10
4495.5273224412867421
 20
174.6123379498336874
 30
0.0
 40
0.0546348130303671
 50
135.9328166592160017
 51
167.2001324609962865
  0
ARC
  5
103A9
  8
0
 10
4495.5716894267679891
 20
174.5759674767543004
 30
0.0
 40
0.1119090651136399
 50
60.3771316736149117
 51
138.3522627126457962
  0
ARC
  5
103AA
  8
0
 10
4495.6001474913746279
 20
174.6587626228995873
 30
0.0
 40
0.0305154747505869
 50
355.5499904097566741
 51
28.3429175226286496
  0
ARC
  5
103AB
  8
0
 10
4494.4191496133380497
 20
174.756706414542208
 30
0.0
 40
1.2155612840613681
 50
352.7450207485568967
 51
355.1697906507134235
  0
ARC
  5
103AC
  8
0
 10
4495.5504742676575916
 20
174.6134707609772079
 30
0.0
 40
0.0330311831764074
 50
237.6603860156442067
 51
300.8410617374040044
  0
ARC
  5
103AD
  8
0
 10
4495.5352896282201982
 20
174.5894877648242129
 30
0.0
 40
0.0046453173388715
 50
141.0930681666019098
 51
237.6603860156484984
  0
ARC
  5
103AE
  8
0
 10
4495.550284370470763
 20
174.5686970491175884
 30
0.0
 40
0.0301396248608591
 50
51.2112061860749535
 51
128.129830269947206
  0
ARC
  5
103AF
  8
0
 10
4495.5655400278819798
 20
174.589331907716911
 30
0.0
 40
0.0046162899001457
 50
293.8687736467974219
 51
38.2479682894003901
  0
ARC
  5
103B0
  8
0
 10
4495.3567965451302371
 20
174.7510941682143937
 30
0.0
 40
0.0413241477668385
 50
296.4326282620174879
 51
349.9318952256285797
  0
ARC
  5
103B1
  8
0
 10
4495.3229936447760338
 20
174.8190924126674872
 30
0.0
 40
0.1172609459685808
 50
242.9094554685264882
 51
296.4326282620174879
  0
ARC
  5
103B2
  8
0
 10
4495.2877954988016427
 20
174.7502812043765061
 30
0.0
 40
0.0399699900524961
 50
189.2302326789763072
 51
242.9094554685264882
  0
ARC
  5
103B3
  8
0
 10
4495.5330043533458593
 20
174.790129165031999
 30
0.0
 40
0.2883955167506671
 50
184.3676717380928949
 51
189.2302326789763072
  0
ARC
  5
103B4
  8
0
 10
4495.3351756271849808
 20
174.7366154790900055
 30
0.0
 40
0.0951145306316062
 50
129.3041722108002887
 51
160.6273582172973988
  0
ARC
  5
103B5
  8
0
 10
4495.3376685692019237
 20
174.7339717873130098
 30
0.0
 40
0.0987396537132419
 50
54.3083435122548792
 51
129.451799765621189
  0
ARC
  5
103B6
  8
0
 10
4495.3691805409243898
 20
174.7946861569928103
 30
0.0
 40
0.0325634101380406
 50
4.682686135497371
 51
36.7398484993660901
  0
ARC
  5
103B7
  8
0
 10
4494.9622180282203772
 20
174.8045555952236043
 30
0.0
 40
0.4394763938957222
 50
352.0628776057009759
 51
359.0598330838423067
  0
ARC
  5
103B8
  8
0
 10
4495.3229795076758819
 20
174.7541416563215932
 30
0.0
 40
0.0330311831764074
 50
237.6603860156442067
 51
300.8410617374040044
  0
ARC
  5
103B9
  8
0
 10
4495.3077948682375791
 20
174.730158660168712
 30
0.0
 40
0.0046453173388715
 50
141.0930681666019098
 51
237.6603860156484984
  0
ARC
  5
103BA
  8
0
 10
4495.3227896104890533
 20
174.7093679444620022
 30
0.0
 40
0.0301396248608591
 50
51.2112061860749535
 51
128.129830269947206
  0
ARC
  5
103BB
  8
0
 10
4495.3380452679002701
 20
174.7300028030614101
 30
0.0
 40
0.0046162899001457
 50
293.8687736467974219
 51
38.2479682894003901
  0
ARC
  5
103BC
  8
0
 10
4495.0587278403572782
 20
174.8574050581545123
 30
0.0
 40
0.0413241477668385
 50
296.4326282620174879
 51
349.9318952256285797
  0
ARC
  5
103BD
  8
0
 10
4495.0249249400003464
 20
174.9254033026074922
 30
0.0
 40
0.1172609459685808
 50
242.9094554685264882
 51
296.4326282620174879
  0
ARC
  5
103BE
  8
0
 10
4494.9897267940268648
 20
174.8565920943165111
 30
0.0
 40
0.0399699900524961
 50
189.2302326789763072
 51
242.9094554685264882
  0
ARC
  5
103BF
  8
0
 10
4495.0383381374249439
 20
174.8752295494489886
 30
0.0
 40
0.0915569226929111
 50
176.7412162126115049
 51
195.87778669886589
  0
ARC
  5
103C0
  8
0
 10
4495.0076311942011671
 20
174.8688637615603056
 30
0.0
 40
0.0617948118016714
 50
132.6847427446936933
 51
169.2082821799176884
  0
ARC
  5
103C1
  8
0
 10
4495.0368034470202474
 20
174.836611176643089
 30
0.0
 40
0.1052821109483531
 50
60.7470061017632901
 51
132.4552436087973035
  0
ARC
  5
103C2
  8
0
 10
4495.0636983954209427
 20
174.8971034114888994
 30
0.0
 40
0.0398309266587332
 50
355.7093841372325755
 51
51.944192766017693
  0
ARC
  5
103C3
  8
0
 10
4495.5212959582040639
 20
174.8339116771510078
 30
0.0
 40
0.4221939155904169
 50
171.8007267556893964
 51
177.7915729970050904
  0
ARC
  5
103C4
  8
0
 10
4495.024910802902923
 20
174.8604525462617119
 30
0.0
 40
0.0330311831764074
 50
237.6603860156442067
 51
300.8410617374040044
  0
ARC
  5
103C5
  8
0
 10
4495.0097261634637107
 20
174.8364695501088022
 30
0.0
 40
0.0046453173388715
 50
141.0930681666019098
 51
237.6603860156484984
  0
ARC
  5
103C6
  8
0
 10
4495.0247209057160944
 20
174.8156788344020924
 30
0.0
 40
0.0301396248608591
 50
51.2112061860749535
 51
128.129830269947206
  0
ARC
  5
103C7
  8
0
 10
4495.0399765631264017
 20
174.8363136930013866
 30
0.0
 40
0.0046162899001457
 50
293.8687736467974219
 51
38.2479682894003901
  0
ARC
  5
103C8
  8
0
 10
4494.7133424853118413
 20
174.9250227440982997
 30
0.0
 40
0.0413241477668385
 50
296.4326282620174879
 51
349.9318952256285797
  0
ARC
  5
103C9
  8
0
 10
4494.679539584955819
 20
174.9930209885513932
 30
0.0
 40
0.1172609459685808
 50
242.9094554685264882
 51
296.4326282620174879
  0
ARC
  5
103CA
  8
0
 10
4494.6536109863973252
 20
174.9350590566077983
 30
0.0
 40
0.0539520471807646
 50
198.6445519207971984
 51
239.3901611667764939
  0
ARC
  5
103CB
  8
0
 10
4496.1250177511819857
 20
175.1052603032061086
 30
0.0
 40
1.534023156983868
 50
185.9614695022044089
 51
187.0187823216203071
  0
ARC
  5
103CC
  8
0
 10
4494.6471646372156101
 20
174.9472319638049953
 30
0.0
 40
0.0478914959840341
 50
153.3027492938157934
 51
181.5491875523482861
  0
ARC
  5
103CD
  8
0
 10
4494.6799151592122143
 20
174.9236155393533068
 30
0.0
 40
0.0879928190181274
 50
31.3480014702117487
 51
149.1417367015745867
  0
ARC
  5
103CE
  8
0
 10
4494.7183675345477241
 20
174.9542091570905029
 30
0.0
 40
0.0397126623731283
 50
354.8249422194718932
 51
22.4780284519574316
  0
ARC
  5
103CF
  8
0
 10
4489.6385550580480412
 20
175.5402936029350087
 30
0.0
 40
5.1532113057791333
 50
353.0618686726550095
 51
353.4294238267523269
  0
ARC
  5
103D0
  8
0
 10
4494.6795254478593051
 20
174.9280702322056129
 30
0.0
 40
0.0330311831764074
 50
237.6603860156442067
 51
300.8410617374040044
  0
ARC
  5
103D1
  8
0
 10
4494.6643408084191833
 20
174.9040872360525896
 30
0.0
 40
0.0046453173388715
 50
141.0930681666019098
 51
237.6603860156484984
  0
ARC
  5
103D2
  8
0
 10
4494.679335550673386
 20
174.8832965203459082
 30
0.0
 40
0.0301396248608591
 50
51.2112061860749535
 51
128.129830269947206
  0
ARC
  5
103D3
  8
0
 10
4494.6945912080827839
 20
174.9039313789452876
 30
0.0
 40
0.0046162899001457
 50
293.8687736467974219
 51
38.2479682894003901
  0
LINE
  5
103D4
  8
0
 10
4495.6193546683125533
 20
174.4402015164455122
 30
0.0
 11
4495.6176485468349711
 21
174.4523188082332013
 31
0.0
  0
ARC
  5
103D5
  8
0
 10
4494.7041728650801815
 20
174.6521654838454936
 30
0.0
 40
0.0413241477668385
 50
296.4326282620174879
 51
349.9318952256285797
  0
ARC
  5
103D6
  8
0
 10
4494.6703699647232497
 20
174.7201637282985018
 30
0.0
 40
0.1172609459685808
 50
242.9094554685264882
 51
296.4326282620174879
  0
ARC
  5
103D7
  8
0
 10
4494.6351718187497681
 20
174.6513525200074923
 30
0.0
 40
0.0399699900524961
 50
189.2302326789763072
 51
242.9094554685264882
  0
ARC
  5
103D8
  8
0
 10
4494.817715492964453
 20
174.6823771881371101
 30
0.0
 40
0.2251304691106846
 50
177.3670435545413113
 51
189.5719207819219037
  0
ARC
  5
103D9
  8
0
 10
4494.6055653136118053
 20
174.6936923978936136
 30
0.0
 40
0.0127797360554548
 50
131.9071636784067039
 51
184.3676717380928949
  0
ARC
  5
103DA
  8
0
 10
4494.6784226316121931
 20
174.5756656502300075
 30
0.0
 40
0.1512968764080725
 50
63.09498831407371
 51
122.5455772336077018
  0
ARC
  5
103DB
  8
0
 10
4494.7376960045621672
 20
174.7038265307714937
 30
0.0
 40
0.0114083966851484
 50
345.5008573114400861
 51
36.3336010308109465
  0
ARC
  5
103DC
  8
0
 10
4494.3563003652670886
 20
174.7000007237573129
 30
0.0
 40
0.3924418920021939
 50
351.934812237735116
 51
0.1415508531789382
  0
ARC
  5
103DD
  8
0
 10
4494.6703558276258264
 20
174.6552129719526931
 30
0.0
 40
0.0330311831764074
 50
237.6603860156442067
 51
300.8410617374040044
  0
ARC
  5
103DE
  8
0
 10
4494.655171188186614
 20
174.6312299757996982
 30
0.0
 40
0.0046453173388715
 50
141.0930681666019098
 51
237.6603860156484984
  0
ARC
  5
103DF
  8
0
 10
4494.6701659304389977
 20
174.6104392600931021
 30
0.0
 40
0.0301396248608591
 50
51.2112061860749535
 51
128.129830269947206
  0
ARC
  5
103E0
  8
0
 10
4494.6854215878493051
 20
174.6310741186923963
 30
0.0
 40
0.0046162899001457
 50
293.8687736467974219
 51
38.2479682894003901
  0
ARC
  5
103E1
  8
0
 10
4495.0224440850179235
 20
174.5659256711101079
 30
0.0
 40
0.0413241477668385
 50
296.4326282620174879
 51
349.9318952256285797
  0
ARC
  5
103E2
  8
0
 10
4494.9886411846619012
 20
174.6339239155630878
 30
0.0
 40
0.1172609459685808
 50
242.9094554685264882
 51
296.4326282620174879
  0
ARC
  5
103E3
  8
0
 10
4494.9534430386893291
 20
174.5651127072721067
 30
0.0
 40
0.0399699900524961
 50
189.2302326789763072
 51
242.9094554685264882
  0
ARC
  5
103E4
  8
0
 10
4495.1366873698771087
 20
174.5962360282962891
 30
0.0
 40
0.2258377766570616
 50
177.3346370214337071
 51
189.5670421466217874
  0
ARC
  5
103E5
  8
0
 10
4494.9238365335513663
 20
174.6077113275462978
 30
0.0
 40
0.0127797360554548
 50
131.9071636784067039
 51
184.3676717380928949
  0
ARC
  5
103E6
  8
0
 10
4494.9951494427687066
 20
174.4944989199485121
 30
0.0
 40
0.1464133822296986
 50
63.1202782625539314
 51
123.0496510843375972
  0
ARC
  5
103E7
  8
0
 10
4495.0455846816230405
 20
174.6105049710330945
 30
0.0
 40
0.0214763615133144
 50
356.1382228728624
 51
42.7874604336116704
  0
ARC
  5
103E8
  8
0
 10
4494.6697279713262105
 20
174.6143443707046004
 30
0.0
 40
0.3973194703739464
 50
351.9495023031715846
 51
359.2377306051271262
  0
ARC
  5
103E9
  8
0
 10
4494.9886270475635683
 20
174.5689731592173075
 30
0.0
 40
0.0330311831764074
 50
237.6603860156442067
 51
300.8410617374040044
  0
ARC
  5
103EA
  8
0
 10
4494.973442408126175
 20
174.5449901630643126
 30
0.0
 40
0.0046453173388715
 50
141.0930681666019098
 51
237.6603860156484984
  0
ARC
  5
103EB
  8
0
 10
4494.9884371503776492
 20
174.5241994473576881
 30
0.0
 40
0.0301396248608591
 50
51.2112061860749535
 51
128.129830269947206
  0
ARC
  5
103EC
  8
0
 10
4495.0036928077870471
 20
174.5448343059570107
 30
0.0
 40
0.0046162899001457
 50
293.8687736467974219
 51
38.2479682894003901
  0
ARC
  5
103ED
  8
0
 10
4495.2606777111286647
 20
174.432555234003388
 30
0.0
 40
0.0413241477668385
 50
296.4326282620174879
 51
349.9318952256285797
  0
ARC
  5
103EE
  8
0
 10
4495.2268748107726424
 20
174.50055347845651
 30
0.0
 40
0.1172609459685808
 50
242.9094554685264882
 51
296.4326282620174879
  0
ARC
  5
103EF
  8
0
 10
4495.1916766648000703
 20
174.4317422701655005
 30
0.0
 40
0.0399699900524961
 50
189.2302326789763072
 51
242.9094554685264882
  0
ARC
  5
103F0
  8
0
 10
4495.241676618575184
 20
174.4441047081417935
 30
0.0
 40
0.0914012277364111
 50
174.9478079621856068
 51
191.8528475416206049
  0
ARC
  5
103F1
  8
0
 10
4495.1859777833660701
 20
174.455672985152404
 30
0.0
 40
0.035522043504113
 50
136.1032979146143873
 51
185.6856631398445927
  0
ARC
  5
103F2
  8
0
 10
4495.2364868391732671
 20
174.3711370976164119
 30
0.0
 40
0.1330759551600277
 50
61.7854896268113407
 51
124.8827110323272933
  0
ARC
  5
103F3
  8
0
 10
4495.2928613422491253
 20
174.4778830991336918
 30
0.0
 40
0.0123859644296833
 50
0.8617773130581335
 51
58.126572242869301
  0
ARC
  5
103F4
  8
0
 10
4494.9119058056885478
 20
174.4804988159374091
 30
0.0
 40
0.3933476024903531
 50
351.9375675647629009
 51
359.6461224711400746
  0
ARC
  5
103F5
  8
0
 10
4495.2268606736761285
 20
174.4356027221107013
 30
0.0
 40
0.0330311831764074
 50
237.6603860156442067
 51
300.8410617374040044
  0
ARC
  5
103F6
  8
0
 10
4495.2116760342369162
 20
174.4116197259577064
 30
0.0
 40
0.0046453173388715
 50
141.0930681666019098
 51
237.6603860156484984
  0
ARC
  5
103F7
  8
0
 10
4495.2266707764892999
 20
174.3908290102511103
 30
0.0
 40
0.0301396248608591
 50
51.2112061860749535
 51
128.129830269947206
  0
ARC
  5
103F8
  8
0
 10
4495.2419264338996072
 20
174.4114638688504044
 30
0.0
 40
0.0046162899001457
 50
293.8687736467974219
 51
38.2479682894003901
  0
ARC
  5
103F9
  8
0
 10
4495.3874964207552694
 20
174.2711997350768911
 30
0.0
 40
0.0413241477668385
 50
296.4326282620174879
 51
349.9318952256285797
  0
ARC
  5
103FA
  8
0
 10
4495.3536935203992471
 20
174.3391979795298994
 30
0.0
 40
0.1172609459685808
 50
242.9094554685264882
 51
296.4326282620174879
  0
ARC
  5
103FB
  8
0
 10
4495.3184953744257655
 20
174.2703867712388899
 30
0.0
 40
0.0399699900524961
 50
189.2302326789763072
 51
242.9094554685264882
  0
ARC
  5
103FC
  8
0
 10
4495.5637042289699821
 20
174.3102347318944112
 30
0.0
 40
0.2883955167506671
 50
184.3676717380928949
 51
189.2302326789763072
  0
ARC
  5
103FD
  8
0
 10
4495.2888888692878027
 20
174.2892448140513864
 30
0.0
 40
0.0127797360554548
 50
131.9071636784067039
 51
184.3676717380928949
  0
ARC
  5
103FE
  8
0
 10
4495.3713088817521566
 20
174.2098979916547989
 30
0.0
 40
0.1271562020623245
 50
60.1874439669819594
 51
135.6684961496476944
  0
ARC
  5
103FF
  8
0
 10
4495.4253359952554092
 20
174.3134665878536111
 30
0.0
 40
0.0114083966851484
 50
345.5008573114400861
 51
36.3336010308109465
  0
ARC
  5
10400
  8
0
 10
4495.7135744752913524
 20
174.2378511757968909
 30
0.0
 40
0.2865834742654496
 50
165.2924949619080053
 51
174.7697803132992931
  0
ARC
  5
10401
  8
0
 10
4495.3536793833018237
 20
174.2742472231840907
 30
0.0
 40
0.0330311831764074
 50
237.6603860156442067
 51
300.8410617374040044
  0
ARC
  5
10402
  8
0
 10
4495.3384947438626114
 20
174.2502642270312094
 30
0.0
 40
0.0046453173388715
 50
141.0930681666019098
 51
237.6603860156484984
  0
ARC
  5
10403
  8
0
 10
4495.3534894861149951
 20
174.2294735113244997
 30
0.0
 40
0.0301396248608591
 50
51.2112061860749535
 51
128.129830269947206
  0
ARC
  5
10404
  8
0
 10
4495.3687451435253024
 20
174.2501083699237938
 30
0.0
 40
0.0046162899001457
 50
293.8687736467974219
 51
38.2479682894003901
  0
ARC
  5
10405
  8
0
 10
4497.258970810133178
 20
161.3576518892159868
 30
0.0
 40
0.5807086613999968
 50
60.0291056669677019
 51
112.0751839293345995
  0
ARC
  5
10406
  8
0
 10
4497.2591072441437063
 20
161.3585754465773903
 30
0.0
 40
0.5816206939212646
 50
249.2725095755783968
 51
298.5731190885596789
  0
ARC
  5
10407
  8
0
 10
4491.3534589990331369
 20
161.3576518892159868
 30
0.0
 40
0.5807086614000057
 50
67.9246466165317884
 51
119.9709137602700935
  0
ARC
  5
10408
  8
0
 10
4491.3533509264179884
 20
161.358391919898196
 30
0.0
 40
0.5814392302185306
 50
241.273618813698306
 51
290.6525732262419979
  0
ENDSEC
  0
EOF
