  0
SECTION
  2
HEADER
  9
$ACADVER
  1
AC1009
  9
$INSBASE
 10
521.3533264539710217
 20
-5.1777202434452221
 30
0.0
  9
$EXTMIN
 10
513.1716746147734511
 20
-8.2928787841344072
 30
-0.0000000000112498
  9
$EXTMAX
 10
521.3661273448940392
 20
9.19979728490555
 30
0.0000000000002956
  9
$LIMMIN
 10
0.0
 20
0.0
  9
$LIMMAX
 10
11.6929133858000007
 20
8.2677165353999982
  9
$ORTHOMODE
 70
     0
  9
$REGENMODE
 70
     1
  9
$FILLMODE
 70
     1
  9
$QTEXTMODE
 70
     0
  9
$MIRRTEXT
 70
     0
  9
$DRAGMODE
 70
     2
  9
$LTSCALE
 40
0.6431102362
  9
$OSMODE
 70
  4095
  9
$ATTMODE
 70
     1
  9
$TEXTSIZE
 40
0.2
  9
$TRACEWID
 40
0.05
  9
$TEXTSTYLE
  7
STANDARD
  9
$CLAYER
  8
0
  9
$CELTYPE
  6
BYLAYER
  9
$CECOLOR
 62
   256
  9
$DIMSCALE
 40
1.0
  9
$DIMASZ
 40
0.1875
  9
$DIMEXO
 40
0.0625
  9
$DIMDLI
 40
0.4443307087
  9
$DIMRND
 40
0.0
  9
$DIMDLE
 40
0.0
  9
$DIMEXE
 40
0.125
  9
$DIMTP
 40
0.01
  9
$DIMTM
 40
0.01
  9
$DIMTXT
 40
0.15625
  9
$DIMCEN
 40
0.1052362205
  9
$DIMTSZ
 40
0.0
  9
$DIMTOL
 70
     1
  9
$DIMLIM
 70
     0
  9
$DIMTIH
 70
     1
  9
$DIMTOH
 70
     1
  9
$DIMSE1
 70
     0
  9
$DIMSE2
 70
     0
  9
$DIMTAD
 70
     0
  9
$DIMZIN
 70
     0
  9
$DIMBLK
  1

  9
$DIMASO
 70
     1
  9
$DIMSHO
 70
     1
  9
$DIMPOST
  1
\X
  9
$DIMAPOST
  1

  9
$DIMALT
 70
     1
  9
$DIMALTD
 70
     2
  9
$DIMALTF
 40
25.3999999999999986
  9
$DIMLFAC
 40
1.0
  9
$DIMTOFL
 70
     0
  9
$DIMTVP
 40
0.0
  9
$DIMTIX
 70
     0
  9
$DIMSOXD
 70
     0
  9
$DIMSAH
 70
     0
  9
$DIMBLK1
  1

  9
$DIMBLK2
  1

  9
$DIMSTYLE
  2
STANDARD
  9
$DIMCLRD
 70
     0
  9
$DIMCLRE
 70
     0
  9
$DIMCLRT
 70
     0
  9
$DIMTFAC
 40
1.0
  9
$DIMGAP
 40
0.09
  9
$LUNITS
 70
     2
  9
$LUPREC
 70
     4
  9
$SKETCHINC
 40
0.1
  9
$FILLETRAD
 40
0.0
  9
$AUNITS
 70
     0
  9
$AUPREC
 70
     0
  9
$MENU
  1
.
  9
$ELEVATION
 40
0.0
  9
$PELEVATION
 40
0.0
  9
$THICKNESS
 40
0.0
  9
$LIMCHECK
 70
     0
  9
$BLIPMODE
 70
     0
  9
$CHAMFERA
 40
0.0
  9
$CHAMFERB
 40
0.0
  9
$SKPOLY
 70
     0
  9
$TDCREATE
 40
2458018.639108797069639
  9
$TDUPDATE
 40
2460237.6068171299993992
  9
$TDINDWG
 40
0.4321060185
  9
$TDUSRTIMER
 40
0.4321060185
  9
$USRTIMER
 70
     1
  9
$ANGBASE
 50
0.0
  9
$ANGDIR
 70
     0
  9
$PDMODE
 70
     0
  9
$PDSIZE
 40
0.3125
  9
$PLINEWID
 40
0.0
  9
$COORDS
 70
     1
  9
$SPLFRAME
 70
     0
  9
$SPLINETYPE
 70
     6
  9
$SPLINESEGS
 70
     8
  9
$ATTDIA
 70
     1
  9
$ATTREQ
 70
     1
  9
$HANDLING
 70
     1
  9
$HANDSEED
  5
D5E7
  9
$SURFTAB1
 70
     6
  9
$SURFTAB2
 70
     6
  9
$SURFTYPE
 70
     6
  9
$SURFU
 70
     6
  9
$SURFV
 70
     6
  9
$UCSNAME
  2

  9
$UCSORG
 10
0.0
 20
0.0
 30
0.0
  9
$UCSXDIR
 10
1.0
 20
0.0
 30
0.0
  9
$UCSYDIR
 10
0.0
 20
1.0
 30
0.0
  9
$PUCSNAME
  2

  9
$PUCSORG
 10
0.0
 20
0.0
 30
0.0
  9
$PUCSXDIR
 10
1.0
 20
0.0
 30
0.0
  9
$PUCSYDIR
 10
0.0
 20
1.0
 30
0.0
  9
$USERI1
 70
     0
  9
$USERI2
 70
     0
  9
$USERI3
 70
     0
  9
$USERI4
 70
     0
  9
$USERI5
 70
     0
  9
$USERR1
 40
0.0
  9
$USERR2
 40
0.0
  9
$USERR3
 40
0.0
  9
$USERR4
 40
0.0
  9
$USERR5
 40
0.0
  9
$WORLDVIEW
 70
     1
  9
$SHADEDGE
 70
     3
  9
$SHADEDIF
 70
    70
  9
$TILEMODE
 70
     1
  9
$MAXACTVP
 70
    64
  9
$PLIMCHECK
 70
     0
  9
$PEXTMIN
 10
1.0000000000000000E+20
 20
1.0000000000000000E+20
 30
1.0000000000000000E+20
  9
$PEXTMAX
 10
-1.0000000000000000E+20
 20
-1.0000000000000000E+20
 30
-1.0000000000000000E+20
  9
$PLIMMIN
 10
0.0
 20
0.0
  9
$PLIMMAX
 10
12.0
 20
9.0
  9
$UNITMODE
 70
     0
  9
$VISRETAIN
 70
     1
  9
$PLINEGEN
 70
     0
  9
$PSLTSCALE
 70
     1
  0
ENDSEC
  0
SECTION
  2
TABLES
  0
TABLE
  2
VPORT
 70
     1
  0
VPORT
  2
*ACTIVE
 70
     0
 10
0.0
 20
0.0
 11
1.0
 21
1.0
 12
421.944639982096021
 22
-6.5828727608372679
 13
0.0
 23
0.0
 14
1.0
 24
1.0
 15
0.0
 25
0.0
 16
-0.0000000000000142
 26
0.0
 36
39.3282560748450578
 17
95.3242609977377526
 27
7.0363320112228394
 37
0.0
 40
17.6493268995089707
 41
2.8325859491778771
 42
50.0
 43
0.0
 44
0.0
 50
0.0
 51
0.0
 71
     0
 72
   100
 73
     1
 74
     1
 75
     0
 76
     0
 77
     0
 78
     0
  0
ENDTAB
  0
TABLE
  2
LTYPE
 70
     2
  0
LTYPE
  2
CONTINUOUS
 70
     0
  3
Solid line
 72
    65
 73
     0
 40
0.0
  0
LTYPE
  2
PHANTOM2
 70
     0
  3
___ _ _ ___ _ _ ___ _ _ ___ _ _
 72
    65
 73
     6
 40
1.25
 49
0.625
 49
-0.125
 49
0.125
 49
-0.125
 49
0.125
 49
-0.125
  0
ENDTAB
  0
TABLE
  2
LAYER
 70
     2
  0
LAYER
  2
0
 70
     0
 62
   255
  6
CONTINUOUS
  0
LAYER
  2
DEFPOINTS
 70
     0
 62
     7
  6
CONTINUOUS
  0
ENDTAB
  0
TABLE
  2
STYLE
 70
     1
  0
STYLE
  2
STANDARD
 70
     0
 40
0.0
 41
0.8
 50
0.0
 71
     0
 42
0.2
  3
txt
  4

  0
ENDTAB
  0
TABLE
  2
VIEW
 70
     0
  0
ENDTAB
  0
TABLE
  2
UCS
 70
     0
  0
ENDTAB
  0
TABLE
  2
APPID
 70
    10
  0
APPID
  2
ACAD
 70
     0
  0
APPID
  2
ACAD_MLEADERVER
 70
     0
  0
APPID
  2
ACAD_DSTYLE_DIMJAG
 70
     0
  0
APPID
  2
ACAD_DSTYLE_DIMTALN
 70
     0
  0
APPID
  2
ACAD_NAV_VCDISPLAY
 70
     0
  0
APPID
  2
ACAD_EXEMPT_FROM_CAD_STANDARDS
 70
     0
  0
APPID
  2
ACAECLAYERSTANDARD
 70
     0
  0
APPID
  2
ACCMTRANSPARENCY
 70
     0
  0
APPID
  2
DCO15
 70
     0
  0
APPID
  2
ACDBATTR
 70
     0
  0
ENDTAB
  0
TABLE
  2
DIMSTYLE
 70
     1
  0
DIMSTYLE
  2
STANDARD
 70
     0
  3

  4

  5

  6

  7

 40
1.0
 41
0.1875
 42
0.0625
 43
0.38
 44
0.125
 45
0.0
 46
0.0
 47
0.01
 48
0.01
140
0.15625
141
0.09
142
0.0
143
25.3999999999999986
144
1.0
145
0.0
146
1.0
147
0.09
 71
     1
 72
     0
 73
     1
 74
     1
 75
     0
 76
     0
 77
     0
 78
     4
170
     0
171
     2
172
     0
173
     0
174
     0
175
     0
176
     0
177
     0
178
     0
  0
ENDTAB
  0
ENDSEC
  0
SECTION
  2
BLOCKS
  0
BLOCK
  8
0
  2
$MODEL_SPACE
 70
     0
 10
0.0
 20
0.0
 30
0.0
  3
$MODEL_SPACE
  1

  0
ENDBLK
  5
21
  8
0
  0
BLOCK
 67
     1
  8
0
  2
$PAPER_SPACE
 70
     0
 10
0.0
 20
0.0
 30
0.0
  3
$PAPER_SPACE
  1

  0
ENDBLK
  5
1D
 67
     1
  8
0
  0
BLOCK
  8
0
  2
_FILLED
 70
     0
 10
0.0
 20
0.0
 30
0.0
  3
_FILLED
  1

  0
SOLID
  5
9EE8
  8
0
  6
BYBLOCK
 62
     0
 10
0.0
 20
0.0
 30
0.0
 11
-1.0
 21
0.1666666667
 31
0.0
 12
-1.0
 22
-0.1666666667
 32
0.0
 13
-1.0
 23
-0.1666666667
 33
0.0
  0
ENDBLK
  5
9EE9
  8
0
  6
BYBLOCK
 62
     0
  0
ENDSEC
  0
SECTION
  2
ENTITIES
  0
ATTDEF
  5
7A6E
  8
DEFPOINTS
 10
521.353965417676477
 20
-5.17386392877654
 30
0.0
 40
0.001
  1
K-31879T-4
  3

  2
MODELNUMBER
 70
     0
1001
ACDBATTR
1070
     0
1070
     1
  0
ATTDEF
  5
7A6F
  8
DEFPOINTS
 10
521.353965417676477
 20
-5.175530595443206
 30
0.0
 40
0.001
  1
ATOM
  3

  2
TRADENAME
 70
     0
1001
ACDBATTR
1070
     0
1070
     1
  0
ATTDEF
  5
7A70
  8
DEFPOINTS
 10
521.353965417676477
 20
-5.1771972621098712
 30
0.0
 40
0.001
  1
BATH SHOWER FAUCET
  3

  2
PRODUCT
 70
     0
1001
ACDBATTR
1070
     0
1070
     1
  0
LINE
  5
CC63
  8
0
 10
513.4800738998461611
 20
9.1701016448277812
 30
0.0
 11
513.1974690460943975
 21
8.6806156797504581
 31
0.0
  0
LINE
  5
CC64
  8
0
 10
513.2208650686750389
 20
8.5990221195302468
 30
0.0
 11
516.2335494306518058
 21
6.9971009116517564
 31
0.0
  0
LINE
  5
CC65
  8
0
 10
513.5416087389763788
 20
9.1986707430940822
 30
0.0
 11
516.6852302190847013
 21
7.5426234106274697
 31
0.0
  0
ARC
  5
CC66
  8
0
 10
511.1344262691176823
 20
-0.7540942356468463
 30
0.0
 40
10.2397293990244798
 50
51.3859355661886781
 51
76.4035066969676677
  0
ARC
  5
CC67
  8
0
 10
513.0714061249423139
 20
1.5748582097512689
 30
0.0
 40
7.2113984473936501
 50
30.7886783469990597
 51
51.8631285186457802
  0
ARC
  5
CC68
  8
0
 10
511.0011069155600012
 20
0.3487773132045078
 30
0.0
 40
9.6175119039624217
 50
18.9701529287441311
 51
30.7502399085707587
  0
ARC
  5
CC69
  8
0
 10
513.5311693986673163
 20
9.1406016448238603
 30
0.0
 40
0.059000000000028
 50
79.8085441657120356
 51
149.9999999956075101
  0
ARC
  5
CC6A
  8
0
 10
513.248564544915439
 20
8.6511156797465372
 30
0.0
 40
0.059
 50
149.9999999956089027
 51
241.9992806523810884
  0
LINE
  5
CC6B
  8
0
 10
513.335879640983876
 20
8.3998633294284986
 30
0.0
 11
513.3597000513365174
 21
8.4588209138879336
 31
0.0
  0
LINE
  5
CC6C
  8
0
 10
513.3450338868068457
 20
8.3747122457034493
 30
0.0
 11
513.4853356519433873
 21
8.3001124737942575
 31
0.0
  0
LINE
  5
CC6D
  8
0
 10
513.5150212085426347
 20
8.2843283833436061
 30
0.0
 11
513.6118391753362857
 21
8.2328493571709611
 31
0.0
  0
LINE
  5
CC6E
  8
0
 10
513.7166575769095971
 20
8.1771164243625805
 30
0.0
 11
513.8134755436379919
 21
8.1256373982246544
 31
0.0
  0
LINE
  5
CC6F
  8
0
 10
513.9794352082278692
 20
8.0373950791598077
 30
0.0
 11
514.0762531749649042
 21
7.98591605301739
 31
0.0
  0
LINE
  5
CC70
  8
0
 10
514.2854462412295788
 20
7.8746861264861252
 30
0.0
 11
514.3822642079527441
 21
7.8232071003510271
 31
0.0
  0
LINE
  5
CC71
  8
0
 10
514.6138365297639439
 20
7.70007791255503
 30
0.0
 11
514.7106544965200783
 21
7.6485988864023389
 31
0.0
  0
LINE
  5
CC72
  8
0
 10
513.3791130426467362
 20
8.3768757219373384
 30
0.0
 11
513.4022167424748204
 21
8.4340593858291584
 31
0.0
  0
ARC
  5
CC73
  8
0
 10
513.397656719746351
 20
8.3693835900895266
 30
0.0
 40
0.02
 50
158.000000063355202
 51
241.999999965809991
  0
ARC
  5
CC74
  8
0
 10
513.354423318073259
 20
8.3923711975550201
 30
0.0
 40
0.02
 50
157.999999984059599
 51
241.9999999658141121
  0
LINE
  5
CC75
  8
0
 10
513.2580219907139281
 20
8.5702785750348056
 30
0.0
 11
513.3961000078406869
 21
8.4189199363026574
 31
0.0
  0
ARC
  5
CC76
  8
0
 10
513.2902566137603344
 20
8.5986156618731826
 30
0.0
 40
0.0429192428709814
 50
200.6498710363304951
 51
221.3183318167704954
  0
ARC
  5
CC77
  8
0
 10
513.1542865946427128
 20
8.1015906558552615
 30
0.0
 40
0.4159058815612928
 50
44.5136448899329125
 51
52.9371445425872125
  0
ARC
  5
CC78
  8
0
 10
512.3920600287246998
 20
7.3521957936096101
 30
0.0
 40
1.484822153937928
 50
40.9998320177276909
 51
44.5136448899329125
  0
ARC
  5
CC79
  8
0
 10
513.4028942871884738
 20
8.4305565269047236
 30
0.0
 40
0.003567784674491
 50
54.8321044221835265
 51
100.9473148319360973
  0
LINE
  5
CC7A
  8
0
 10
513.5058669627253494
 20
8.3094794670830368
 30
0.0
 11
513.5283236632471926
 21
8.3650617511470813
 31
0.0
  0
LINE
  5
CC7B
  8
0
 10
513.6378093580345876
 20
8.2393244509249115
 30
0.0
 11
513.6462914039366296
 21
8.2518996010660146
 31
0.0
  0
ARC
  5
CC7C
  8
0
 10
513.5244106398089343
 20
8.3019873351951912
 30
0.0
 40
0.02
 50
157.9999999396505928
 51
241.9999999658068077
  0
LINE
  5
CC7D
  8
0
 10
513.7075033310857179
 20
8.2022675080852991
 30
0.0
 11
513.7284619598990503
 21
8.2541419347042062
 31
0.0
  0
LINE
  5
CC7E
  8
0
 10
513.839445726324584
 20
8.1321124919611805
 30
0.0
 11
513.8507509470857713
 21
8.1488731709024478
 31
0.0
  0
ARC
  5
CC7F
  8
0
 10
513.726047008175783
 20
8.1947753762141531
 30
0.0
 40
0.02
 50
157.9999999912733131
 51
241.9999999657991054
  0
ARC
  5
CC80
  8
0
 10
513.6212286066026991
 20
8.2505083090225355
 30
0.0
 40
0.02
 50
241.9999999658141121
 51
325.9999999025041006
  0
LINE
  5
CC81
  8
0
 10
513.9702809624110387
 20
8.0625461628999346
 30
0.0
 11
513.9892278431664181
 21
8.1094413382233625
 31
0.0
  0
LINE
  5
CC82
  8
0
 10
514.1022233576784402
 20
7.9923911467939339
 30
0.0
 11
514.1163495148313132
 21
8.0133340360084873
 31
0.0
  0
ARC
  5
CC83
  8
0
 10
513.8228649749044052
 20
8.1432963500762252
 30
0.0
 40
0.02
 50
241.9999999657995033
 51
325.9999998422927092
  0
ARC
  5
CC84
  8
0
 10
513.9888246394940552
 20
8.0550540310113945
 30
0.0
 40
0.02
 50
157.9999999374915944
 51
241.9999999658103889
  0
LINE
  5
CC85
  8
0
 10
514.2762919954273002
 20
7.8998372102626462
 30
0.0
 11
514.2930057911241875
 21
7.9412053058990182
 31
0.0
  0
LINE
  5
CC86
  8
0
 10
514.4082343906627557
 20
7.8296821941223547
 30
0.0
 11
514.4255159042359082
 21
7.8553030915864346
 31
0.0
  0
LINE
  5
CC87
  8
0
 10
514.6046822839360857
 20
7.7252289962679148
 30
0.0
 11
514.6188590742458473
 21
7.7603177836254096
 31
0.0
  0
ARC
  5
CC88
  8
0
 10
514.6232259610302435
 20
7.7177368644066169
 30
0.0
 40
0.02
 50
158.000000021669905
 51
241.9999999658068077
  0
ARC
  5
CC89
  8
0
 10
514.3916536392190437
 20
7.840866052202613
 30
0.0
 40
0.02
 50
241.9999999658176932
 51
325.9999999625497935
  0
ARC
  5
CC8A
  8
0
 10
514.2948356724957648
 20
7.8923450783376969
 30
0.0
 40
0.02
 50
157.9999998250407884
 51
241.9999999658028003
  0
ARC
  5
CC8B
  8
0
 10
514.0856426062310902
 20
8.0035750048689636
 30
0.0
 40
0.02
 50
241.9999999658137142
 51
325.9999999805972948
  0
ARC
  5
CC8C
  8
0
 10
513.494577218170889
 20
8.317493331954779
 30
0.0
 40
0.0196850393999971
 50
241.9999999658141121
 51
300.1623735169243901
  0
ARC
  5
CC8D
  8
0
 10
513.3206507487873296
 20
8.0346948827554456
 30
0.0
 40
0.3936019877134985
 50
34.7710878030722128
 51
56.329594239287303
  0
ARC
  5
CC8E
  8
0
 10
513.5297400383564081
 20
8.3491147382570432
 30
0.0
 40
0.016009788835736
 50
55.2330765750409824
 51
95.0755542221451151
  0
ARC
  5
CC8F
  8
0
 10
513.6269730420145834
 20
8.2497316869829405
 30
0.0
 40
0.0194396234228088
 50
6.4029659152302303
 51
29.032192324351179
  0
ARC
  5
CC90
  8
0
 10
513.7336630839857889
 20
8.2453817207459821
 30
0.0
 40
0.0101878869428146
 50
72.7709572936736606
 51
120.6984993439068035
  0
ARC
  5
CC91
  8
0
 10
513.6237576608253903
 20
8.0118293959784523
 30
0.0
 40
0.2682130729083706
 50
33.8804381220060904
 51
65.1010157986500957
  0
ARC
  5
CC92
  8
0
 10
513.7985205020147532
 20
8.1377631686329437
 30
0.0
 40
0.0533989844728613
 50
12.0084785602549999
 51
26.210496626982291
  0
ARC
  5
CC93
  8
0
 10
513.9975655620713724
 20
8.0991969206405088
 30
0.0
 40
0.0132085445129972
 50
78.5450375269458902
 51
129.1414278496050088
  0
ARC
  5
CC94
  8
0
 10
513.9478534650320398
 20
7.9321235386819486
 30
0.0
 40
0.1874720241692505
 50
47.2153785257918699
 51
73.7897342858963441
  0
ARC
  5
CC95
  8
0
 10
513.972926221797934
 20
7.9420493205307698
 30
0.0
 40
0.1635728946598321
 50
30.591494198081719
 51
51.3027809379670714
  0
ARC
  5
CC96
  8
0
 10
514.0921973618344509
 20
8.0143155707616245
 30
0.0
 40
0.0241720893770877
 50
357.6728008869256996
 51
27.0115098025647917
  0
ARC
  5
CC97
  8
0
 10
514.3040737683386396
 20
7.9283284486433976
 30
0.0
 40
0.0169797989504888
 50
84.6845150611850812
 51
130.6798736762956139
  0
ARC
  5
CC98
  8
0
 10
514.2961752805945252
 20
7.8434347955435149
 30
0.0
 40
0.1022400971278234
 50
63.5485178490045399
 51
84.6845150611850812
  0
ARC
  5
CC99
  8
0
 10
514.217068628708148
 20
7.6844343627106184
 30
0.0
 40
0.2798323267261786
 50
47.4044260524242418
 51
63.5485178490045399
  0
ARC
  5
CC9A
  8
0
 10
514.3543449385575741
 20
7.8337443758564262
 30
0.0
 40
0.0770066250227669
 50
23.5599615528530499
 51
47.4044260524247889
  0
ARC
  5
CC9B
  8
0
 10
514.4096270672475839
 20
7.8589270181768986
 30
0.0
 40
0.0162968703979873
 50
347.1517578401600872
 51
20.0887270383393286
  0
ARC
  5
CC9C
  8
0
 10
514.6379928158108896
 20
7.7264742536256392
 30
0.0
 40
0.0388778161569086
 50
81.7387598609652457
 51
119.4820342687957009
  0
ARC
  5
CC9D
  8
0
 10
514.6210433526520092
 20
7.620384756630556
 30
0.0
 40
0.1463098583413365
 50
67.6877237394623279
 51
81.1396213477717367
  0
ARC
  5
CC9E
  8
0
 10
514.5919342957513436
 20
7.542562834594519
 30
0.0
 40
0.229371425558519
 50
61.9459844385501199
 51
68.3411557898717206
  0
LINE
  5
CC9F
  8
0
 10
514.1933106688327371
 20
7.8077322218529721
 30
0.0
 11
514.0964927020255573
 21
7.8592112479801131
 31
0.0
  0
ARC
  5
CCA0
  8
0
 10
514.2027001000915334
 20
7.8253911737085238
 30
0.0
 40
0.02
 50
241.999999990077896
 51
326.0000001795958724
  0
ARC
  5
CCA1
  8
0
 10
514.1058821332843536
 20
7.8768701998356638
 30
0.0
 40
0.02
 50
158.0000000104948015
 51
241.999999990077896
  0
LINE
  5
CCA2
  8
0
 10
513.9436103098458943
 20
7.9405002578710357
 30
0.0
 11
513.8467923430671362
 21
7.9919792839830697
 31
0.0
  0
ARC
  5
CCA3
  8
0
 10
513.952999741104577
 20
7.9581592097265883
 30
0.0
 40
0.02
 50
241.999999990077896
 51
326.0000000262842832
  0
ARC
  5
CCA4
  8
0
 10
513.8561817743259326
 20
8.0096382358386222
 30
0.0
 40
0.02
 50
158.0000000250932999
 51
241.999999990077896
  0
LINE
  5
CCA5
  8
0
 10
513.7806299755020518
 20
8.0271584388532062
 30
0.0
 11
513.6272095326569342
 21
8.1087335353577288
 31
0.0
  0
LINE
  5
CCA6
  8
0
 10
514.402795537113775
 20
7.6963471415510858
 30
0.0
 11
514.4996135037929434
 21
7.6448681154919882
 31
0.0
  0
ARC
  5
CCA7
  8
0
 10
514.5090029350517398
 20
7.662527067347539
 30
0.0
 40
0.02
 50
241.999999990077896
 51
325.9999999650390805
  0
ARC
  5
CCA8
  8
0
 10
514.4121849683725713
 20
7.7140060934066383
 30
0.0
 40
0.02
 50
158.0000000434995115
 51
241.999999990077896
  0
LINE
  5
CCA9
  8
0
 10
513.9239958817713614
 20
7.8702335615162582
 30
0.0
 11
514.1023146192126205
 21
7.7754198068370783
 31
0.0
  0
ARC
  5
CCAA
  8
0
 10
514.1117040504791476
 20
7.7930787586885231
 30
0.0
 40
0.02
 50
241.9999999650025018
 51
325.999999995065707
  0
LINE
  5
CCAB
  8
0
 10
514.228160898883516
 20
7.7085061528979528
 30
0.0
 11
514.3249788656468127
 21
7.6570271267397914
 31
0.0
  0
ARC
  5
CCAC
  8
0
 10
514.3343682969133397
 20
7.6746860785912361
 30
0.0
 40
0.02
 50
241.9999999650025018
 51
326.0000000346994966
  0
LINE
  5
CCAD
  8
0
 10
514.5323259160280713
 20
7.5467787442623404
 30
0.0
 11
514.6291438827386173
 21
7.4952997181323289
 31
0.0
  0
LINE
  5
CCAE
  8
0
 10
513.6380306615833433
 20
8.1833254066345944
 30
0.0
 11
513.6180552868194127
 21
8.1338846190692902
 31
0.0
  0
LINE
  5
CCAF
  8
0
 10
513.6943554120327917
 20
8.1525419411083107
 30
0.0
 11
513.6746577629168087
 21
8.1037885486631751
 31
0.0
  0
LINE
  5
CCB0
  8
0
 10
513.8066001581927367
 20
8.0336335326108355
 30
0.0
 11
513.8169918752761305
 21
8.0490398866974147
 31
0.0
  0
ARC
  5
CCB1
  8
0
 10
513.7900194067608481
 20
8.0448173907087561
 30
0.0
 40
0.02
 50
241.999999990077896
 51
325.9999999015153094
  0
LINE
  5
CCB2
  8
0
 10
513.8560562756284753
 20
8.0627169589708814
 30
0.0
 11
513.83763809723132
 21
8.0171303676988117
 31
0.0
  0
LINE
  5
CCB3
  8
0
 10
513.9809300223522541
 20
7.963801721561083
 30
0.0
 11
513.9695804925609082
 21
7.9469753516647748
 31
0.0
  0
LINE
  5
CCB4
  8
0
 10
514.08733845619156
 20
7.8843623317005864
 30
0.0
 11
514.1039738868562381
 21
7.9255364674609856
 31
0.0
  0
LINE
  5
CCB5
  8
0
 10
514.2192808515776505
 20
7.8142073156910916
 30
0.0
 11
514.2333592677663319
 21
7.8350794261718866
 31
0.0
  0
LINE
  5
CCB6
  8
0
 10
514.4081973837078294
 20
7.7575258183558873
 30
0.0
 11
514.3936412912754577
 21
7.7214982252608726
 31
0.0
  0
LINE
  5
CCB7
  8
0
 10
514.5435794870672908
 20
7.6780230807569998
 30
0.0
 11
514.5255836864960202
 21
7.6513432092680063
 31
0.0
  0
ARC
  5
CCB8
  8
0
 10
514.4175897556747259
 20
7.727484585401057
 30
0.0
 40
0.0314752653461507
 50
70.6744096026995692
 51
107.3618201373911063
  0
ARC
  5
CCB9
  8
0
 10
514.3245181059966171
 20
7.4620937207521223
 30
0.0
 40
0.3127129637667259
 50
47.4678163545211405
 51
70.6744096026992992
  0
ARC
  5
CCBA
  8
0
 10
514.5193924768218494
 20
7.6745220967588059
 30
0.0
 40
0.0244390743188905
 50
8.2361588192847712
 51
47.4678163545205791
  0
ARC
  5
CCBB
  8
0
 10
514.1095196853077596
 20
7.911454678639501
 30
0.0
 40
0.0151344856826665
 50
72.5481857268373034
 51
111.4958940616125034
  0
ARC
  5
CCBC
  8
0
 10
514.0066856069596497
 20
7.6445228309788291
 30
0.0
 40
0.3011608434215019
 50
45.1836135759803383
 51
69.1127379864392566
  0
ARC
  5
CCBD
  8
0
 10
514.17214482483746
 20
7.8085340127184111
 30
0.0
 40
0.0682175467030065
 50
27.3614514830111908
 51
46.6708216466569965
  0
ARC
  5
CCBE
  8
0
 10
514.2244455653921023
 20
7.8363585389329273
 30
0.0
 40
0.0090050107979452
 50
351.8338267881263164
 51
23.0683174888365414
  0
ARC
  5
CCBF
  8
0
 10
513.857425103319656
 20
8.0437752235631024
 30
0.0
 40
0.01899113028512
 50
63.935829422075301
 51
94.1333040685363329
  0
ARC
  5
CCC0
  8
0
 10
513.7340222229910296
 20
7.791479384819155
 30
0.0
 40
0.2998495663715147
 50
47.2597727896341766
 51
63.935829422075301
  0
ARC
  5
CCC1
  8
0
 10
513.7712638444788809
 20
7.8055094021872264
 30
0.0
 40
0.2648711996855833
 50
38.8364680271002527
 51
51.1195653284893226
  0
ARC
  5
CCC2
  8
0
 10
513.9682250050642551
 20
7.9629764821229676
 30
0.0
 40
0.0127317903067955
 50
3.716359322350367
 51
42.6962605659532528
  0
LINE
  5
CCC3
  8
0
 10
513.8077757318352496
 20
8.0353763922026644
 30
0.0
 11
513.8363272401820723
 21
8.0120460302507581
 31
0.0
  0
ARC
  5
CCC4
  8
0
 10
513.29205489285971
 20
7.5514630361681858
 30
0.0
 40
0.7232852533343755
 50
43.4672616951618309
 51
56.2057095718521111
  0
LINE
  5
CCC5
  8
0
 10
513.5434996669921475
 20
8.2691861183650275
 30
0.0
 11
513.6883332356433129
 21
8.1376365314744987
 31
0.0
  0
ARC
  5
CCC6
  8
0
 10
513.6932014400122171
 20
8.0962964168047602
 30
0.0
 40
0.02
 50
158.0000000306260972
 51
241.9999999900745991
  0
ARC
  5
CCC7
  8
0
 10
513.6365989639157306
 20
8.1263924872132804
 30
0.0
 40
0.02
 50
158.0000000380518088
 51
241.9999999900597061
  0
LINE
  5
CCC8
  8
0
 10
513.9317603460483497
 20
7.9372599221427
 30
0.0
 11
513.9148416359493012
 21
7.8953846452426291
 31
0.0
  0
LINE
  5
CCC9
  8
0
 10
514.0129656126021018
 20
7.8931937952360149
 30
0.0
 11
513.9963424066370408
 21
7.852049916712601
 31
0.0
  0
LINE
  5
CCCA
  8
0
 10
514.1418894241350017
 20
7.8020645824875174
 30
0.0
 11
514.1282848019293397
 21
7.7818949006176856
 31
0.0
  0
LINE
  5
CCCB
  8
0
 10
514.2348115341011408
 20
7.772775689747049
 30
0.0
 11
514.2190066530693002
 21
7.7336572366438068
 31
0.0
  0
LINE
  5
CCCC
  8
0
 10
514.3677448892759685
 20
7.6884030787234394
 30
0.0
 11
514.3509490483711488
 21
7.6635022205318668
 31
0.0
  0
LINE
  5
CCCD
  8
0
 10
514.5366236346269488
 20
7.6052246083124677
 30
0.0
 11
514.5231716702007816
 21
7.5719298279757501
 31
0.0
  0
ARC
  5
CCCE
  8
0
 10
513.9333853130378884
 20
7.887892513367702
 30
0.0
 40
0.02
 50
157.9999999795709016
 51
241.9999999650061966
  0
ARC
  5
CCCF
  8
0
 10
514.0148860837269922
 20
7.844557784840787
 30
0.0
 40
0.02
 50
157.9999999892042979
 51
241.9999999649915878
  0
ARC
  5
CCD0
  8
0
 10
514.237550330150043
 20
7.7261651047493984
 30
0.0
 40
0.02
 50
157.9999999193694862
 51
241.9999999650021891
  0
ARC
  5
CCD1
  8
0
 10
514.541715347294712
 20
7.5644376961137851
 30
0.0
 40
0.02
 50
158.0000000196073984
 51
241.9999999650098061
  0
ARC
  5
CCD2
  8
0
 10
514.4722982265968767
 20
7.3353935052219148
 30
0.0
 40
0.2773924698208269
 50
60.2257483852004114
 51
76.5914461215567286
  0
ARC
  5
CCD3
  8
0
 10
514.0666815801247367
 20
7.3609704170349337
 30
0.0
 40
0.4448047482408348
 50
47.4025086577481432
 51
67.7910153557693462
  0
ARC
  5
CCD4
  8
0
 10
513.6743311143134179
 20
7.2773540459236719
 30
0.0
 40
0.7028029028570839
 50
48.2964528426919131
 51
61.1947326046469726
  0
LINE
  5
CCD5
  8
0
 10
513.8878814868123754
 20
7.9701317987057223
 30
0.0
 11
514.0077647387762454
 21
7.8803211808103413
 31
0.0
  0
LINE
  5
CCD6
  8
0
 10
514.1337541659496537
 20
7.790003566235427
 30
0.0
 11
514.2187526454684985
 21
7.733017435311111
 31
0.0
  0
LINE
  5
CCD7
  8
0
 10
514.2267796392582113
 20
7.6853807884622682
 30
0.0
 11
514.2347149269005513
 21
7.7050213143807289
 31
0.0
  0
LINE
  5
CCD8
  8
0
 10
514.3327518519214436
 20
7.6087506785681143
 30
0.0
 11
514.2359338850709491
 21
7.6602297046678274
 31
0.0
  0
LINE
  5
CCD9
  8
0
 10
514.3749807500965971
 20
7.5862971751323443
 30
0.0
 11
514.4717987169601656
 21
7.534818149025682
 31
0.0
  0
LINE
  5
CCDA
  8
0
 10
514.3587220346181539
 20
7.6152257723491479
 30
0.0
 11
514.3731007057709803
 21
7.6365430289547751
 31
0.0
  0
LINE
  5
CCDB
  8
0
 10
514.3658265042731728
 20
7.6114482589005092
 30
0.0
 11
514.3789567860717398
 21
7.6439468465572409
 31
0.0
  0
LINE
  5
CCDC
  8
0
 10
514.4977688996608549
 20
7.54129324281294
 30
0.0
 11
514.5143886137607296
 21
7.5659329822363333
 31
0.0
  0
ARC
  5
CCDD
  8
0
 10
514.342141283172964
 20
7.6264096304274744
 30
0.0
 40
0.02
 50
242.000000013371789
 51
325.9999999692105916
  0
ARC
  5
CCDE
  8
0
 10
514.2453233163225832
 20
7.6778886565272009
 30
0.0
 40
0.02
 50
157.9999997937881062
 51
242.0000000133572087
  0
ARC
  5
CCDF
  8
0
 10
514.3843701813482312
 20
7.6039561269917044
 30
0.0
 40
0.02
 50
157.9999998749051997
 51
242.0000000133605056
  0
ARC
  5
CCE0
  8
0
 10
514.481188148211686
 20
7.5524771008850422
 30
0.0
 40
0.02
 50
242.0000000133640867
 51
325.9999999907265078
  0
ARC
  5
CCE1
  8
0
 10
513.9835720437697546
 20
6.800998604581749
 30
0.0
 40
0.9310697251520726
 50
55.2417730110836231
 51
64.8710817300577958
  0
LINE
  5
CCE2
  8
0
 10
514.3417042793247447
 20
7.6560800752037181
 30
0.0
 11
514.3753899125457565
 21
7.6351185248409621
 31
0.0
  0
LINE
  5
CCE3
  8
0
 10
516.0054273221843459
 20
6.9804396470208872
 30
0.0
 11
516.0410106268885784
 21
7.0331940656021033
 31
0.0
  0
LINE
  5
CCE4
  8
0
 10
515.9794571394772902
 20
6.9739645532539072
 30
0.0
 11
515.8391553743407485
 21
7.0485643251630981
 31
0.0
  0
LINE
  5
CCE5
  8
0
 10
515.8094698177416149
 20
7.0643484156137504
 30
0.0
 11
515.7126518509478501
 21
7.1158274417863927
 31
0.0
  0
LINE
  5
CCE6
  8
0
 10
515.6078334493746524
 20
7.171560374594776
 30
0.0
 11
515.5110154826461439
 21
7.2230394007327021
 31
0.0
  0
LINE
  5
CCE7
  8
0
 10
515.3450558180561529
 20
7.3112817197975479
 30
0.0
 11
515.2482378513193453
 21
7.3627607459399647
 31
0.0
  0
LINE
  5
CCE8
  8
0
 10
515.0390447850544433
 20
7.4739906724712313
 30
0.0
 11
514.9422268183313918
 21
7.5254696986063294
 31
0.0
  0
LINE
  5
CCE9
  8
0
 10
515.9621939204956789
 20
7.0034272544634311
 30
0.0
 11
515.9966819014716748
 21
7.0545577886875463
 31
0.0
  0
ARC
  5
CCEA
  8
0
 10
515.9456131690703842
 20
7.0146111125709751
 30
0.0
 40
0.02
 50
241.9999999658137142
 51
325.9999998682665137
  0
ARC
  5
CCEB
  8
0
 10
515.9888465707433625
 20
6.9916235051054789
 30
0.0
 40
0.02
 50
241.9999999658068077
 51
325.9999999475617187
  0
ARC
  5
CCEC
  8
0
 10
515.859693611380635
 20
6.6631002265018822
 30
0.0
 40
0.4159058815612928
 50
71.062855389035505
 51
79.4863550416880145
  0
ARC
  5
CCED
  8
0
 10
515.6646487991431513
 20
5.6121294759236937
 30
0.0
 40
1.484822153937928
 50
79.4863550416880145
 51
83.0001679138945576
  0
ARC
  5
CCEE
  8
0
 10
515.9933990216145503
 20
7.0531607248638286
 30
0.0
 40
0.003567784674491
 50
23.0526850996868404
 51
69.1678955094393757
  0
LINE
  5
CCEF
  8
0
 10
515.8354400004574245
 20
7.0708235093935761
 30
0.0
 11
515.8689621748070522
 21
7.1205221766490752
 31
0.0
  0
LINE
  5
CCF0
  8
0
 10
515.7034976051188551
 20
7.1409785254968616
 30
0.0
 11
515.7091797772078507
 21
7.155042394953866
 31
0.0
  0
ARC
  5
CCF1
  8
0
 10
515.8188592490078008
 20
7.082007367465323
 30
0.0
 40
0.02
 50
241.9999999658141121
 51
325.9999999919709239
  0
LINE
  5
CCF2
  8
0
 10
515.633803632080344
 20
7.1780354683596812
 30
0.0
 11
515.6650895643584818
 21
7.2244187703147977
 31
0.0
  0
LINE
  5
CCF3
  8
0
 10
515.5018612368094182
 20
7.2481904844236871
 30
0.0
 11
515.5094346701938548
 21
7.2669353899129163
 31
0.0
  0
ARC
  5
CCF4
  8
0
 10
515.6172228806408384
 20
7.189219326446362
 30
0.0
 40
0.02
 50
241.9999999658213881
 51
325.9999999403477204
  0
ARC
  5
CCF5
  8
0
 10
515.7220412822140361
 20
7.1334863936379662
 30
0.0
 40
0.02
 50
158.0000000291188087
 51
241.9999999658068077
  0
LINE
  5
CCF6
  8
0
 10
515.3710260007724173
 20
7.317756813578014
 30
0.0
 11
515.3993089018758837
 21
7.3596879388210112
 31
0.0
  0
LINE
  5
CCF7
  8
0
 10
515.2390836055005821
 20
7.3879118296757147
 30
0.0
 11
515.2485468007321288
 21
7.411334059726868
 31
0.0
  0
ARC
  5
CCF8
  8
0
 10
515.5204049139124436
 20
7.2406983525842739
 30
0.0
 40
0.02
 50
158.0000000893296885
 51
241.9999999658209902
  0
ARC
  5
CCF9
  8
0
 10
515.3544452493224526
 20
7.3289406716491214
 30
0.0
 40
0.02
 50
241.9999999658103889
 51
325.9999999941292117
  0
LINE
  5
CCFA
  8
0
 10
515.0650149677926493
 20
7.4804657662842402
 30
0.0
 11
515.0899644374807167
 21
7.5174548763771583
 31
0.0
  0
LINE
  5
CCFB
  8
0
 10
514.9330725725103548
 20
7.5506207823362379
 30
0.0
 11
514.9446495594336284
 21
7.5792748304275497
 31
0.0
  0
LINE
  5
CCFC
  8
0
 10
514.7366246792199718
 20
7.6550739801584342
 30
0.0
 11
514.7577870418168686
 21
7.6864484728398992
 31
0.0
  0
ARC
  5
CCFD
  8
0
 10
514.7200439277864916
 20
7.6662578382539124
 30
0.0
 40
0.02
 50
241.9999999658141121
 51
325.9999999099501906
  0
ARC
  5
CCFE
  8
0
 10
514.9516162495975777
 20
7.543128650457902
 30
0.0
 40
0.02
 50
157.9999999690703021
 51
241.9999999658028003
  0
ARC
  5
CCFF
  8
0
 10
515.0484342163208566
 20
7.4916496243228181
 30
0.0
 40
0.02
 50
241.9999999658209902
 51
326.0000001065805009
  0
ARC
  5
CD00
  8
0
 10
515.2576272825855312
 20
7.3804196977915524
 30
0.0
 40
0.02
 50
157.9999999510235966
 51
241.9999999658103889
  0
ARC
  5
CD01
  8
0
 10
515.8483969405683638
 20
7.0659451833236204
 30
0.0
 40
0.0196850393999971
 50
183.8376264146972972
 51
241.999999965809991
  0
ARC
  5
CD02
  8
0
 10
515.7112048477662256
 20
6.763614719601577
 30
0.0
 40
0.3936019877134985
 50
67.6704056923352368
 51
89.2289121285494673
  0
ARC
  5
CD03
  8
0
 10
515.8549494750322992
 20
7.1127789484084181
 30
0.0
 40
0.016009788835736
 50
28.9244457094744014
 51
68.7669233565816711
  0
ARC
  5
CD04
  8
0
 10
515.7181851858518939
 20
7.1378144648989803
 30
0.0
 40
0.0194396234228088
 50
94.9678076072720359
 51
117.5970340163918024
  0
ARC
  5
CD05
  8
0
 10
515.6549185861633759
 20
7.223832048136031
 30
0.0
 40
0.0101878869428146
 50
3.3015005877138139
 51
51.229042637946911
  0
ARC
  5
CD06
  8
0
 10
515.5227532661931491
 20
7.0021155204672283
 30
0.0
 40
0.2682130729083706
 50
58.8989841329723092
 51
90.1195618096158171
  0
ARC
  5
CD07
  8
0
 10
515.5294309550508842
 20
7.2174217540673586
 30
0.0
 40
0.0533989844728613
 50
97.7895033046389131
 51
111.9915213713657067
  0
ARC
  5
CD08
  8
0
 10
515.3861535015493018
 20
7.3608716154658964
 30
0.0
 40
0.0132085445129972
 50
354.8585720820162237
 51
45.4549624046762801
  0
ARC
  5
CD09
  8
0
 10
515.2754420422522799
 20
7.2262321697917136
 30
0.0
 40
0.1874720241692505
 50
50.2102656457247107
 51
76.7846214058283891
  0
ARC
  5
CD0A
  8
0
 10
515.2696503807194404
 20
7.2525688539763991
 30
0.0
 40
0.1635728946598321
 50
72.697218993657799
 51
93.408505733541304
  0
ARC
  5
CD0B
  8
0
 10
515.2628662424574486
 20
7.3918598846857861
 30
0.0
 40
0.0241720893770877
 50
96.9884901290572969
 51
126.3271990446951065
  0
ARC
  5
CD0C
  8
0
 10
515.0730999046877514
 20
7.5194299981638153
 30
0.0
 40
0.0169797989504888
 50
353.320126255324908
 51
39.31548487043721
  0
ARC
  5
CD0D
  8
0
 10
515.0071366548265814
 20
7.4654099267730478
 30
0.0
 40
0.1022400971278234
 50
39.31548487043721
 51
60.4514820826188171
  0
ARC
  5
CD0E
  8
0
 10
514.9195552001234546
 20
7.3109156265358299
 30
0.0
 40
0.2798323267261786
 50
60.4514820826188171
 51
76.595573879198696
  0
ARC
  5
CD0F
  8
0
 10
514.9665748729330517
 20
7.5082159449348751
 30
0.0
 40
0.0770066250227669
 50
76.595573879198696
 51
100.4400383787651947
  0
ARC
  5
CD10
  8
0
 10
514.9565388556120524
 20
7.5681288615980691
 30
0.0
 40
0.0162968703979873
 50
103.9112728932824012
 51
136.8482420914610884
  0
ARC
  5
CD11
  8
0
 10
514.7190300313553735
 20
7.6833860017430311
 30
0.0
 40
0.0388778161569086
 50
4.5179656628269926
 51
42.2612400706552478
  0
ARC
  5
CD12
  8
0
 10
514.6405558717217446
 20
7.6100097661907711
 30
0.0
 40
0.1463098583413365
 50
42.8603785838502915
 51
56.312276192159473
  0
ARC
  5
CD13
  8
0
 10
514.5923161523502358
 20
7.5423597978390537
 30
0.0
 40
0.229371425558519
 50
55.6588441417490785
 51
62.0540154930698407
  0
LINE
  5
CD14
  8
0
 10
515.035059040590113
 20
7.36016667285962
 30
0.0
 11
515.1318770073536371
 21
7.3086876466504691
 31
0.0
  0
ARC
  5
CD15
  8
0
 10
515.044448471863916
 20
7.3778256247072269
 30
0.0
 40
0.02
 50
157.9999997520259001
 51
241.9999999415425123
  0
ARC
  5
CD16
  8
0
 10
515.1412664386273264
 20
7.3263465984980618
 30
0.0
 40
0.02
 50
241.9999999415425123
 51
325.9999999211261752
  0
LINE
  5
CD17
  8
0
 10
515.2847593994644058
 20
7.227398636630042
 30
0.0
 11
515.3815773661996218
 21
7.1759196104359972
 31
0.0
  0
ARC
  5
CD18
  8
0
 10
515.2941488307383224
 20
7.2450575884776347
 30
0.0
 40
0.02
 50
157.9999999053372903
 51
241.9999999415429102
  0
ARC
  5
CD19
  8
0
 10
515.3909667974734248
 20
7.193578562283605
 30
0.0
 40
0.02
 50
241.9999999415425123
 51
325.9999999065294105
  0
LINE
  5
CD1A
  8
0
 10
515.447739733735034
 20
7.1407404555098282
 30
0.0
 11
515.6011601765110299
 21
7.0591653588753331
 31
0.0
  0
LINE
  5
CD1B
  8
0
 10
514.8255741724035488
 20
7.4715517533389573
 30
0.0
 11
514.7287562057679224
 21
7.5230307794800799
 31
0.0
  0
ARC
  5
CD1C
  8
0
 10
514.7381456370417254
 20
7.5406897313276744
 30
0.0
 40
0.02
 50
157.9999999665834025
 51
241.9999999415425123
  0
ARC
  5
CD1D
  8
0
 10
514.8349636036772381
 20
7.4892107051865651
 30
0.0
 40
0.02
 50
241.9999999415425123
 51
325.9999998881211809
  0
LINE
  5
CD1E
  8
0
 10
515.2374739170055591
 20
7.1718449008966578
 30
0.0
 11
515.0591551795617988
 21
7.266658655570807
 31
0.0
  0
ARC
  5
CD1F
  8
0
 10
515.0685446108276437
 20
7.2843176074225218
 30
0.0
 40
0.02
 50
157.9999999365552128
 51
241.9999999666179065
  0
LINE
  5
CD20
  8
0
 10
514.933308899888857
 20
7.333572309506394
 30
0.0
 11
514.8364909331243098
 21
7.3850513356618128
 31
0.0
  0
ARC
  5
CD21
  8
0
 10
514.8458803643902684
 20
7.4027102875135284
 30
0.0
 40
0.02
 50
157.9999998969225032
 51
241.9999999666179065
  0
LINE
  5
CD22
  8
0
 10
515.6569485419638568
 20
7.1098477263409867
 30
0.0
 11
515.6271303592151298
 21
7.0656404526227163
 31
0.0
  0
LINE
  5
CD23
  8
0
 10
515.5999314917232823
 20
7.1393291653298263
 30
0.0
 11
515.5705278831454734
 21
7.0957365230813423
 31
0.0
  0
LINE
  5
CD24
  8
0
 10
515.4385854879134286
 20
7.1658915392160054
 30
0.0
 11
515.4455469598799482
 21
7.1831217869867743
 31
0.0
  0
ARC
  5
CD25
  8
0
 10
515.4571291650086096
 20
7.1583994073574209
 30
0.0
 40
0.02
 50
158.0000000301072021
 51
241.9999999415425123
  0
LINE
  5
CD26
  8
0
 10
515.4350412312695653
 20
7.22315576439631
 30
0.0
 11
515.4075475489062228
 21
7.1823947041871321
 31
0.0
  0
LINE
  5
CD27
  8
0
 10
515.2832082700183491
 20
7.2713680936325877
 30
0.0
 11
515.275605153659285
 21
7.2525497203765923
 31
0.0
  0
LINE
  5
CD28
  8
0
 10
515.1578471900630802
 20
7.3151627404058237
 30
0.0
 11
515.1826796808959443
 21
7.3519784219564741
 31
0.0
  0
LINE
  5
CD29
  8
0
 10
515.0259047948050011
 20
7.3853177566557937
 30
0.0
 11
515.0353360082151539
 21
7.4086608286882694
 31
0.0
  0
LINE
  5
CD2A
  8
0
 10
514.8732729198790139
 20
7.510240768982654
 30
0.0
 11
514.8515443551063981
 21
7.4780268470847773
 31
0.0
  0
LINE
  5
CD2B
  8
0
 10
514.7316574519137475
 20
7.578020252816386
 30
0.0
 11
514.7196019599546162
 21
7.5481818632068061
 31
0.0
  0
ARC
  5
CD2C
  8
0
 10
514.8431154612721912
 20
7.501228553994749
 30
0.0
 40
0.0314752653461507
 50
16.6381797942299094
 51
53.3255903289234965
  0
ARC
  5
CD2D
  8
0
 10
514.6751414688103523
 20
7.2756639715147742
 30
0.0
 40
0.3127129637667259
 50
53.3255903289234965
 51
76.5321835770982091
  0
ARC
  5
CD2E
  8
0
 10
514.7422802090975438
 20
7.5560105871355736
 30
0.0
 40
0.0244390743188905
 50
76.532183577101577
 51
115.7638411123364932
  0
ARC
  5
CD2F
  8
0
 10
515.1679041777319981
 20
7.348701660883151
 30
0.0
 40
0.0151344856826665
 50
12.5041058700086207
 51
51.4518142047816625
  0
ARC
  5
CD30
  8
0
 10
515.004111733277341
 20
7.1141819514666897
 30
0.0
 40
0.3011608434215019
 50
54.8872619451784871
 51
78.8163863556412849
  0
ARC
  5
CD31
  8
0
 10
515.0475595450806168
 20
7.3430677486798714
 30
0.0
 40
0.0682175467030065
 50
77.3291782849642857
 51
96.6385484486124255
  0
ARC
  5
CD32
  8
0
 10
515.041380919856806
 20
7.4019863052809853
 30
0.0
 40
0.0090050107979452
 50
100.9316824427877037
 51
132.1661731434957119
  0
ARC
  5
CD33
  8
0
 10
515.4185723821849479
 20
7.213698489982832
 30
0.0
 40
0.01899113028512
 50
29.8666958630854502
 51
60.0641705095448515
  0
ARC
  5
CD34
  8
0
 10
515.2784156671240225
 20
6.9703108231953896
 30
0.0
 40
0.2998495663715147
 50
60.0641705095448515
 51
76.740227141987134
  0
ARC
  5
CD35
  8
0
 10
515.2692218282621752
 20
7.0090310128305191
 30
0.0
 40
0.2648711996855833
 50
72.8804346031293306
 51
85.1635319045220456
  0
ARC
  5
CD36
  8
0
 10
515.2896286710106324
 20
7.2603736888958252
 30
0.0
 40
0.0127317903067955
 50
81.3037393656694292
 51
120.2836406092710035
  0
LINE
  5
CD37
  8
0
 10
515.4393730115624521
 20
7.167840728649665
 30
0.0
 11
515.4040654640849652
 21
7.1784648290254429
 31
0.0
  0
ARC
  5
CD38
  8
0
 10
515.3265780900427444
 20
6.4696878617346547
 30
0.0
 40
0.7232852533343755
 50
67.7942903597685671
 51
80.5327382364581439
  0
LINE
  5
CD39
  8
0
 10
515.7809913592919884
 20
7.0794906805923139
 30
0.0
 11
515.5909419053871261
 21
7.126001555554466
 31
0.0
  0
ARC
  5
CD3A
  8
0
 10
515.5539471317136986
 20
7.1069203811794059
 30
0.0
 40
0.02
 50
241.9999999415429102
 51
325.9999999009954763
  0
ARC
  5
CD3B
  8
0
 10
515.6105496077848329
 20
7.07682431072294
 30
0.0
 40
0.02
 50
241.9999999415612137
 51
325.9999998935696226
  0
LINE
  5
CD3C
  8
0
 10
515.2886994550460713
 20
7.2157625986596647
 30
0.0
 11
515.263444099713297
 21
7.1783199946650882
 31
0.0
  0
LINE
  5
CD3D
  8
0
 10
515.2067575714330587
 20
7.2584433503702144
 30
0.0
 11
515.1819433290212373
 21
7.2216547231869148
 31
0.0
  0
LINE
  5
CD3E
  8
0
 10
515.0591147496762687
 20
7.3143672252363379
 30
0.0
 11
515.0500009337447409
 21
7.2918097393113754
 31
0.0
  0
LINE
  5
CD3F
  8
0
 10
514.9828717727398271
 20
7.3750250048393147
 30
0.0
 11
514.959279082608532
 21
7.3400474032922309
 31
0.0
  0
LINE
  5
CD40
  8
0
 10
514.838588319333553
 20
7.4380511857657012
 30
0.0
 11
514.8273366873124814
 21
7.4102024194151994
 31
0.0
  0
LINE
  5
CD41
  8
0
 10
514.6751944462994288
 20
7.5315452006871899
 30
0.0
 11
514.6551140654396477
 21
7.5017748118902574
 31
0.0
  0
ARC
  5
CD42
  8
0
 10
515.2468633482717451
 20
7.1895038527483726
 30
0.0
 40
0.02
 50
241.9999999666146095
 51
325.9999999520513256
  0
ARC
  5
CD43
  8
0
 10
515.165362577581277
 20
7.2328385812729996
 30
0.0
 40
0.02
 50
241.9999999666291899
 51
325.9999999424176735
  0
ARC
  5
CD44
  8
0
 10
514.942698331155043
 20
7.3512312613580937
 30
0.0
 40
0.02
 50
241.9999999666183044
 51
326.0000000122528832
  0
ARC
  5
CD45
  8
0
 10
514.6385333140058265
 20
7.5129586699851378
 30
0.0
 40
0.02
 50
241.9999999666111137
 51
325.9999999120150278
  0
ARC
  5
CD46
  8
0
 10
514.4874646350330067
 20
7.327329382800456
 30
0.0
 40
0.2773924698208269
 50
47.4085538100633883
 51
63.7742515464213184
  0
ARC
  5
CD47
  8
0
 10
514.7354868057683461
 20
7.0053603701037579
 30
0.0
 40
0.4448047482408348
 50
56.2089845758526181
 51
76.5974912738726346
  0
ARC
  5
CD48
  8
0
 10
514.8855652881477454
 20
6.6333294108181908
 30
0.0
 40
0.7028029028570839
 50
62.8052673269724622
 51
75.7035470889289712
  0
LINE
  5
CD49
  8
0
 10
515.3404882224727999
 20
7.197767095748147
 30
0.0
 11
515.1989939821387452
 21
7.2469333559317732
 31
0.0
  0
LINE
  5
CD4A
  8
0
 10
515.0536648926693033
 20
7.3008783558479564
 30
0.0
 11
514.9588907025116669
 21
7.3394790490830806
 31
0.0
  0
LINE
  5
CD4B
  8
0
 10
514.9149094944561966
 20
7.3194956537188602
 30
0.0
 11
514.9267548718718217
 21
7.3370571480234332
 31
0.0
  0
LINE
  5
CD4C
  8
0
 10
514.7921213449324114
 20
7.3644995861650244
 30
0.0
 11
514.8889393116974134
 21
7.3130205599045999
 31
0.0
  0
LINE
  5
CD4D
  8
0
 10
514.7498924467945471
 20
7.3869530896708957
 30
0.0
 11
514.6530744800163575
 21
7.4384321159382552
 31
0.0
  0
LINE
  5
CD4E
  8
0
 10
514.7829670991268358
 20
7.3896506698892921
 30
0.0
 11
514.7925994549550524
 21
7.4134915871222802
 31
0.0
  0
LINE
  5
CD4F
  8
0
 10
514.7758626295376416
 20
7.3934281834616788
 30
0.0
 11
514.7954628193923554
 21
7.4224866599779062
 31
0.0
  0
LINE
  5
CD50
  8
0
 10
514.6439202342137378
 20
7.4635831996694861
 30
0.0
 11
514.6550538778243435
 21
7.4911399345188689
 31
0.0
  0
ARC
  5
CD51
  8
0
 10
514.8015107762131493
 20
7.3821585380088086
 30
0.0
 40
0.02
 50
157.9999999624110956
 51
241.9999999182487045
  0
ARC
  5
CD52
  8
0
 10
514.8983287429783786
 20
7.3306795117484
 30
0.0
 40
0.02
 50
241.9999999182635975
 51
326.0000001378338084
  0
ARC
  5
CD53
  8
0
 10
514.759281878075285
 20
7.4046120415146808
 30
0.0
 40
0.02
 50
241.9999999182635975
 51
326.0000000567151233
  0
ARC
  5
CD54
  8
0
 10
514.6624639112973227
 20
7.4560910677820402
 30
0.0
 40
0.02
 50
157.9999999408940994
 51
241.99999991825959
  0
ARC
  5
CD55
  8
0
 10
514.3177233961575894
 20
6.6233271786589114
 30
0.0
 40
0.9310697251520726
 50
59.128918201565547
 51
68.7582269205386467
  0
LINE
  5
CD56
  8
0
 10
514.8263530591972312
 20
7.3983877475314008
 30
0.0
 11
514.7901383793407604
 21
7.4145928529614329
 31
0.0
  0
LINE
  5
CD57
  8
0
 10
515.9875857326702544
 20
7.0410721639264011
 30
0.0
 11
516.1902454099789566
 21
7.0111877273249936
 31
0.0
  0
ARC
  5
CD58
  8
0
 10
516.1959304408686648
 20
7.050810625525485
 30
0.0
 40
0.0400286602076954
 50
261.8350159719768158
 51
283.9693424061258042
  0
ARC
  5
CD59
  8
0
 10
512.6984109551958682
 20
1.7974311662613469
 30
0.0
 40
6.2875885283451067
 50
47.5034198674648565
 51
55.789097541487827
  0
ARC
  5
CD5A
  8
0
 10
511.8230607280909226
 20
0.8420395418850291
 30
0.0
 40
7.583355164750424
 50
30.8411568680766486
 51
47.5034198674648565
  0
ARC
  5
CD5B
  8
0
 10
512.3437000113093518
 20
1.152909948043088
 30
0.0
 40
6.9769677698820924
 50
17.2056362071164486
 51
30.8411568680766486
  0
ARC
  5
CD5C
  8
0
 10
-2476.3121296402359803
 20
3017.7934824640619809
 30
0.0
 40
4245.7600516539196178
 50
314.8372111321306761
 51
314.8405564897306022
  0
ARC
  5
CD5D
  8
0
 10
-2282.4254252562609508
 20
-3939.9612597955128876
 30
0.0
 40
4839.1949092305812883
 50
54.6504951772514502
 51
54.6601679681226003
  0
LINE
  5
CD5E
  8
0
 10
520.0278009706328248
 20
3.3734723879446298
 30
0.0
 11
519.170718910424398
 21
3.0867521678462131
 31
0.0
  0
LINE
  5
CD5F
  8
0
 10
520.0278009706328248
 20
3.3734723879446298
 30
0.0
 11
520.0754218983813644
 21
3.4084777552246228
 31
0.0
  0
ARC
  5
CD60
  8
0
 10
520.0404773550449136
 20
3.4560159387301179
 30
0.0
 40
0.059
 50
306.3189995272392139
 51
18.9701529287448984
  0
ARC
  5
CD61
  8
0
 10
519.1475223035340605
 20
4.9643252998468048
 30
0.0
 40
1.7893659202848979
 50
270.6593139182907066
 51
278.2587789994606169
  0
ARC
  5
CD62
  8
0
 10
519.160214610816297
 20
4.8768823310015392
 30
0.0
 40
1.701006611411316
 50
278.2587789994606169
 51
283.7739928602156851
  0
ARC
  5
CD63
  8
0
 10
519.1587789117603506
 20
4.8827389251349302
 30
0.0
 40
1.707036613618802
 50
283.7739928602156851
 51
288.1104170790915759
  0
LINE
  5
CD64
  8
0
 10
519.1359769813625462
 20
3.1625158216076268
 30
0.0
 11
519.1578308965112001
 21
3.0863021621851621
 31
0.0
  0
LINE
  5
CD65
  8
0
 10
519.1116402528733715
 20
3.0846893418340491
 30
0.0
 11
519.170718910424398
 21
3.0867521678462131
 31
0.0
  0
ARC
  5
CD66
  8
0
 10
519.1722706605629583
 20
3.0941019222889281
 30
0.0
 40
0.0810826208176437
 50
92.9396329606314566
 51
108.3022193083639024
  0
ARC
  5
CD67
  8
0
 10
519.1618694181370302
 20
3.1311855020082642
 30
0.0
 40
0.0426454404792024
 50
110.681301408117406
 51
121.9010293478226004
  0
ARC
  5
CD68
  8
0
 10
519.1437910964289131
 20
3.1607275796628471
 30
0.0
 40
0.0080161214762395
 50
123.7869359705795063
 51
167.1099582892975945
  0
LINE
  5
CD69
  8
0
 10
519.0084433704630555
 20
3.2167111057596709
 30
0.0
 11
519.0565234244204476
 21
3.1178493734612971
 31
0.0
  0
ARC
  5
CD6A
  8
0
 10
519.1095814279613023
 20
3.1436534091969861
 30
0.0
 40
0.059
 50
205.9353391073221076
 51
271.9997615496108097
  0
LINE
  5
CD6B
  8
0
 10
521.3533264539710217
 20
-3.9277202434452221
 30
0.0
 11
521.3533264539710217
 21
-6.4277202434452221
 31
0.0
  0
LINE
  5
CD6C
  8
0
 10
519.2366051581464035
 20
2.88676388862494
 30
0.0
 11
520.1025504096654686
 21
3.1515099204754331
 31
0.0
  0
LINE
  5
CD6D
  8
0
 10
520.2616216998876553
 20
2.5414394256904842
 30
0.0
 11
519.4458761731752929
 21
2.2920409899427479
 31
0.0
  0
LINE
  5
CD6E
  8
0
 10
519.4720350500593895
 20
2.2177006275914688
 30
0.0
 11
520.2815056111629701
 21
2.4651806138523251
 31
0.0
  0
LINE
  5
CD6F
  8
0
 10
519.2366051581464035
 20
2.88676388862494
 30
0.0
 11
519.4458761731752929
 21
2.2920409899427479
 31
0.0
  0
LINE
  5
CD70
  8
0
 10
519.4720350500593895
 20
2.2177006275914688
 30
0.0
 11
519.6194366912626492
 21
1.798803001875285
 31
0.0
  0
LINE
  5
CD71
  8
0
 10
520.1025504096654686
 20
3.1515099204754331
 30
0.0
 11
520.2616216998876553
 21
2.5414394256904842
 31
0.0
  0
LINE
  5
CD72
  8
0
 10
520.2815056111629701
 20
2.4651806138523251
 30
0.0
 11
520.3935486921410529
 21
2.0354727906868102
 31
0.0
  0
ARC
  5
CD73
  8
0
 10
519.4846202208708519
 20
2.2627172672547848
 30
0.0
 40
0.0350393700999983
 50
107.0000000020896067
 51
287.0000000020929178
  0
ARC
  5
CD74
  8
0
 10
520.2458990462710062
 20
2.4954635613547822
 30
0.0
 40
0.0350393700999983
 50
287.0000000020896209
 51
107.0000000020898057
  0
LINE
  5
CD75
  8
0
 10
519.4743757005012412
 20
2.29622558352699
 30
0.0
 11
520.2356545259012819
 21
2.5289718776269861
 31
0.0
  0
LINE
  5
CD76
  8
0
 10
519.4948647412408036
 20
2.229208950982581
 30
0.0
 11
520.2561435666408443
 21
2.461955245082577
 31
0.0
  0
LINE
  5
CD77
  8
0
 10
519.6565069658653329
 20
1.780071751022958
 30
0.0
 11
520.3732904241661572
 21
1.9992144454428591
 31
0.0
  0
LINE
  5
CD78
  8
0
 10
519.4772510010709539
 20
2.3016332374547801
 30
0.0
 11
519.4785171777667756
 21
2.2974917601937932
 31
0.0
  0
LINE
  5
CD79
  8
0
 10
519.4990062189558557
 20
2.2304751277868311
 30
0.0
 11
519.500272395658385
 21
2.226333650503789
 31
0.0
  0
LINE
  5
CD7A
  8
0
 10
520.2302468719941544
 20
2.5318471781791061
 30
0.0
 11
520.2315130485611689
 21
2.5277057009373891
 31
0.0
  0
LINE
  5
CD7B
  8
0
 10
520.252002087931146
 20
2.460689067974271
 30
0.0
 11
520.2532682645312434
 21
2.4565475906242251
 31
0.0
  0
LINE
  5
CD7C
  8
0
 10
519.2436871704211399
 20
2.9098429121911091
 30
0.0
 11
519.1878486200613452
 21
3.0924825807732641
 31
0.0
  0
LINE
  5
CD7D
  8
0
 10
520.0837735292337811
 20
3.166683087150616
 30
0.0
 11
520.021224329816846
 21
3.371272300006964
 31
0.0
  0
ARC
  5
CD7E
  8
0
 10
520.0646474341132262
 20
3.1608356530603312
 30
0.0
 40
0.02
 50
286.9999999998825047
 51
16.9999999875000789
  0
ARC
  5
CD7F
  8
0
 10
519.2628132655396485
 20
2.9156903462877182
 30
0.0
 40
0.02
 50
197.0000000064833046
 51
286.9999999998689191
  0
ARC
  5
CD80
  8
0
 10
519.6477358147508312
 20
1.808760893710186
 30
0.0
 40
0.03
 50
199.3859440366865954
 51
286.999999945561683
  0
ARC
  5
CD81
  8
0
 10
520.3645192730517692
 20
2.0279035881300871
 30
0.0
 40
0.03
 50
286.999999945554805
 51
14.6140559677111597
  0
LINE
  5
CD82
  8
0
 10
519.8758919076967686
 20
2.0529892923901651
 30
0.0
 11
520.1827518086782902
 21
2.1468057790725221
 31
0.0
  0
LINE
  5
CD83
  8
0
 10
519.8758919076967686
 20
2.0529892923901651
 30
0.0
 11
519.9436067812207511
 21
1.895488790556811
 31
0.0
  0
LINE
  5
CD84
  8
0
 10
520.2142970476065784
 20
1.9807131682441641
 30
0.0
 11
520.1827518086782902
 21
2.1468057790725221
 31
0.0
  0
ARC
  5
CD85
  8
0
 10
519.9642698526422464
 20
1.9151422189056431
 30
0.0
 40
0.0285170083709833
 50
223.5654459435264982
 51
265.4872364893864187
  0
ARC
  5
CD86
  8
0
 10
519.974619157934967
 20
1.9993425693432121
 30
0.0
 40
0.1133307802234792
 50
263.6202492594181876
 51
279.1677355433088223
  0
ARC
  5
CD87
  8
0
 10
519.9387109664281752
 20
2.2395135907813848
 30
0.0
 40
0.3561661046783849
 50
278.7147565151673803
 51
285.5635151325627135
  0
ARC
  5
CD88
  8
0
 10
520.2898623031987881
 20
0.9682397644841813
 30
0.0
 40
0.9627149872117901
 50
104.1616793262752054
 51
105.3959765244370033
  0
ARC
  5
CD89
  8
0
 10
519.3896772362030561
 20
4.0513384290340042
 30
0.0
 40
2.2512803845089029
 50
288.9046589206981253
 51
289.7338481706262883
  0
ARC
  5
CD8A
  8
0
 10
520.0308644520263215
 20
2.2580627724093598
 30
0.0
 40
0.3468294369944897
 50
290.0594441084749064
 51
294.6723149537143058
  0
ARC
  5
CD8B
  8
0
 10
520.1149227453756794
 20
2.0750740814029021
 30
0.0
 40
0.1454574982416655
 50
294.6723149537143058
 51
304.8364694208260062
  0
ARC
  5
CD8C
  8
0
 10
520.1667233429961925
 20
2.0006439253520649
 30
0.0
 40
0.0547759122189319
 50
304.8364694208260062
 51
324.7453399374995797
  0
ARC
  5
CD8D
  8
0
 10
520.1980995030646682
 20
1.978465621003167
 30
0.0
 40
0.0163527342604131
 50
324.7453399374982723
 51
7.8998341494153221
  0
LINE
  5
CD8E
  8
0
 10
519.7325252433857941
 20
1.8033128707336199
 30
0.0
 11
519.73611186064295
 21
1.7915815742462371
 31
0.0
  0
LINE
  5
CD8F
  8
0
 10
520.3008587639247935
 20
1.9642420292514791
 30
0.0
 11
519.73611186064295
 21
1.7915815742462371
 31
0.0
  0
LINE
  5
CD90
  8
0
 10
520.2972721466676376
 20
1.975973325738863
 30
0.0
 11
520.3008587639247935
 21
1.9642420292514791
 31
0.0
  0
ARC
  5
CD91
  8
0
 10
500.4139050554620098
 20
-4.8347751660611626
 30
0.0
 40
20.5131469936005288
 50
13.6788502044534894
 51
18.9207724927718814
  0
ARC
  5
CD92
  8
0
 10
508.6777825400063762
 20
-2.7033879115172108
 30
0.0
 40
11.9802011509248594
 50
7.3964817488880277
 51
13.1207381892202708
  0
ARC
  5
CD93
  8
0
 10
501.7360621408108727
 20
-3.5407433368184651
 30
0.0
 40
18.9720621183811993
 50
4.4214337710746747
 51
7.205458450066633
  0
ARC
  5
CD94
  8
0
 10
487.0363328086764909
 20
-4.8941258775853518
 30
0.0
 40
33.7330721243416392
 50
1.9536642273743849
 51
4.7885224874863246
  0
ARC
  5
CD95
  8
0
 10
512.4941744863024269
 20
-4.0257310421039838
 30
0.0
 40
8.260423803576959
 50
356.8400576329318028
 51
1.9536642273743849
  0
ARC
  5
CD96
  8
0
 10
485.7905171602827181
 20
-9.1864812781504668
 30
0.0
 40
36.1605374184232673
 50
15.4410349553631203
 51
17.9089650016616204
  0
ARC
  5
CD97
  8
0
 10
508.5466637796137093
 20
-2.7269274574637872
 30
0.0
 40
12.5070645629372308
 50
6.9650383162930263
 51
14.6729906836973196
  0
ARC
  5
CD98
  8
0
 10
494.0432877411250843
 20
-4.3089208497531777
 30
0.0
 40
27.0959039013928589
 50
3.5074886332498472
 51
6.5666236786489023
  0
ARC
  5
CD99
  8
0
 10
496.0129534314701232
 20
-4.4807310358796846
 30
0.0
 40
25.1421345291430605
 50
1.260344057743056
 51
4.1729134696552741
  0
LINE
  5
CD9A
  8
0
 10
521.1211900011073794
 20
-3.9277202434452221
 30
0.0
 11
521.3533264539710217
 21
-3.9277202434452221
 31
0.0
  0
LINE
  5
CD9B
  8
0
 10
520.6840351153709889
 20
-4.528306952370186
 30
0.0
 11
520.6840351153709889
 21
-5.8271335345202431
 31
0.0
  0
LINE
  5
CD9C
  8
0
 10
521.0534737843496487
 20
-3.9660322355309598
 30
0.0
 11
520.7518444692644835
 21
-4.4680277159635571
 31
0.0
  0
ARC
  5
CD9D
  8
0
 10
521.1211900011073794
 20
-4.0067202434452147
 30
0.0
 40
0.079
 50
90.0
 51
149.0000000030748026
  0
LINE
  5
CD9E
  8
0
 10
520.719993502084435
 20
-4.4977292234102464
 30
0.0
 11
520.6949553053513
 21
-4.5104868218990637
 31
0.0
  0
ARC
  5
CD9F
  8
0
 10
520.6841282525068664
 20
-4.4273397080493311
 30
0.0
 40
0.079
 50
297.0000000797713824
 51
329.0000000030840965
  0
ARC
  5
CDA0
  8
0
 10
520.7040351153708571
 20
-4.5283069523702011
 30
0.0
 40
0.02
 50
117.0000000797786015
 51
179.999999999985306
  0
LINE
  5
CDA1
  8
0
 10
521.0534737843496487
 20
-3.9660322355309598
 30
0.0
 11
521.0534737843496487
 21
-6.3894082513594688
 31
0.0
  0
LINE
  5
CDA2
  8
0
 10
520.719993502084435
 20
-4.4977292234102464
 30
0.0
 11
520.719993502084435
 21
-5.8577112634801827
 31
0.0
  0
LINE
  5
CDA3
  8
0
 10
520.0934839342710347
 20
-4.5970115820452122
 30
0.0
 11
520.0934839342710347
 21
-5.7584289048452169
 31
0.0
  0
LINE
  5
CDA4
  8
0
 10
520.1418343462710254
 20
-4.5132662118452203
 30
0.0
 11
520.6356847033346185
 21
-4.5132662118452203
 31
0.0
  0
LINE
  5
CDA5
  8
0
 10
520.1418343462710254
 20
-4.5132662118452203
 30
0.0
 11
520.0934839342710347
 21
-4.5970115820452122
 31
0.0
  0
LINE
  5
CDA6
  8
0
 10
520.6356847033346185
 20
-4.5132662118452203
 30
0.0
 11
520.6840351153709889
 21
-4.5970115820452264
 31
0.0
  0
LINE
  5
CDA7
  8
0
 10
520.138057193112104
 20
-4.83108277864521
 30
0.0
 11
520.6394618564935399
 21
-4.83108277864521
 31
0.0
  0
LINE
  5
CDA8
  8
0
 10
520.13895872087096
 20
-4.8651782670452093
 30
0.0
 11
520.6385603287346839
 21
-4.8651782670452093
 31
0.0
  0
ARC
  5
CDA9
  8
0
 10
520.4599960140010353
 20
-4.651578779080153
 30
0.0
 40
0.3686004479856512
 50
186.1019480115504052
 51
209.1428038806768086
  0
ARC
  5
CDAA
  8
0
 10
520.0841353008305532
 20
-4.8495682045196551
 30
0.0
 40
0.0570024686920423
 50
344.1065729936063917
 51
18.9226666760220503
  0
ARC
  5
CDAB
  8
0
 10
520.4482706992672547
 20
-4.6948745264020744
 30
0.0
 40
0.3565821705925368
 50
152.7016919638647892
 51
174.2479652911324024
  0
ARC
  5
CDAC
  8
0
 10
521.3586645611451331
 20
-5.207654528752613
 30
0.0
 40
1.266875024077621
 50
164.3160043237631953
 51
177.0363509612118946
  0
LINE
  5
CDAD
  8
0
 10
520.6356847033347321
 20
-4.5132662118452203
 30
0.0
 11
520.6840351153346091
 21
-4.5970115820452122
 31
0.0
  0
ARC
  5
CDAE
  8
0
 10
520.3175230356046086
 20
-4.651578779080153
 30
0.0
 40
0.3686004479856512
 50
330.8571961193231914
 51
353.8980519884494811
  0
ARC
  5
CDAF
  8
0
 10
520.6933837487752044
 20
-4.8495682045196551
 30
0.0
 40
0.0570024686920423
 50
161.0773333239779106
 51
195.8934270063936083
  0
ARC
  5
CDB0
  8
0
 10
520.3292483503385029
 20
-4.6948745264020744
 30
0.0
 40
0.3565821705925368
 50
5.7520347088676074
 51
27.2983080361351718
  0
ARC
  5
CDB1
  8
0
 10
519.4188544884606245
 20
-5.207654528752613
 30
0.0
 40
1.266875024077621
 50
2.9636490387880801
 51
15.68399567623681
  0
LINE
  5
CDB2
  8
0
 10
520.0540865834897204
 20
-4.6492758962188807
 30
0.0
 11
520.0540865834897204
 21
-5.7065823846452162
 31
0.0
  0
ARC
  5
CDB3
  8
0
 10
519.9872820314697037
 20
-5.1592576637121388
 30
0.0
 40
0.8779946445880304
 50
164.9109605484376004
 51
181.2049115315278129
  0
ARC
  5
CDB4
  8
0
 10
519.5062125005666758
 20
-5.0295538646503672
 30
0.0
 40
0.3797467453908283
 50
143.096574696258898
 51
164.9109605484383962
  0
ARC
  5
CDB5
  8
0
 10
519.4929226539701403
 20
-5.0195743231269168
 30
0.0
 40
0.3631271403540573
 50
125.0035421118237053
 51
143.096574696258898
  0
ARC
  5
CDB6
  8
0
 10
519.4978080756087593
 20
-5.0265505103486978
 30
0.0
 40
0.3716438611279985
 50
107.5217487995118972
 51
125.0035421118237053
  0
ARC
  5
CDB7
  8
0
 10
519.6878749921226017
 20
-5.6285688379104348
 30
0.0
 40
1.002953214356098
 50
98.8279555509291043
 51
107.5217487995118972
  0
ARC
  5
CDB8
  8
0
 10
519.7879266987117717
 20
-6.2727843217223693
 30
0.0
 40
1.6548918108316131
 50
94.3069119396975566
 51
98.8279555509291043
  0
ARC
  5
CDB9
  8
0
 10
519.9497756785290221
 20
-8.4218393345166742
 30
0.0
 40
3.8100327668445231
 50
91.6770462050958059
 51
94.3069119396975566
  0
ARC
  5
CDBA
  8
0
 10
520.0656609314676189
 20
-12.37989345103232
 30
0.0
 40
7.7697829838550678
 50
90.3748284444166359
 51
91.6770462050958059
  0
ARC
  5
CDBB
  8
0
 10
520.0150865834897331
 20
-4.6492758962188949
 30
0.0
 40
0.039
 50
0.0000000000048853
 51
90.3748284444198902
  0
LINE
  5
CDBC
  8
0
 10
520.0540843455819413
 20
-4.6488581022452129
 30
0.0
 11
520.0934839342710347
 21
-4.6488581022452129
 31
0.0
  0
LINE
  5
CDBD
  8
0
 10
521.1211900011073794
 20
-6.4277202434452221
 30
0.0
 11
521.3533264539710217
 21
-6.4277202434452221
 31
0.0
  0
LINE
  5
CDBE
  8
0
 10
521.0534737843496487
 20
-6.3894082513594688
 30
0.0
 11
520.7518444692644835
 21
-5.8874127709268711
 31
0.0
  0
ARC
  5
CDBF
  8
0
 10
521.1211900011073794
 20
-6.3487202434452144
 30
0.0
 40
0.079
 50
210.9999999969251974
 51
270.0
  0
LINE
  5
CDC0
  8
0
 10
520.719993502084435
 20
-5.8577112634801827
 30
0.0
 11
520.6949553053513
 21
-5.8449536649913654
 31
0.0
  0
ARC
  5
CDC1
  8
0
 10
520.6841282525068664
 20
-5.928100778841098
 30
0.0
 40
0.079
 50
30.9999999969158786
 51
62.9999999202286318
  0
ARC
  5
CDC2
  8
0
 10
520.7040351153708571
 20
-5.8271335345202431
 30
0.0
 40
0.02
 50
180.0000000000146088
 51
242.9999999202213985
  0
LINE
  5
CDC3
  8
0
 10
520.1418343462710254
 20
-5.8421742750452088
 30
0.0
 11
520.6356847033346185
 21
-5.8421742750452088
 31
0.0
  0
LINE
  5
CDC4
  8
0
 10
520.1418343462710254
 20
-5.8421742750452088
 30
0.0
 11
520.0934839342710347
 21
-5.7584289048452169
 31
0.0
  0
LINE
  5
CDC5
  8
0
 10
520.6356847033346185
 20
-5.8421742750452088
 30
0.0
 11
520.6840351153709889
 21
-5.7584289048452026
 31
0.0
  0
LINE
  5
CDC6
  8
0
 10
520.138057193112104
 20
-5.5243577082452191
 30
0.0
 11
520.6394618564935399
 21
-5.5243577082452191
 31
0.0
  0
LINE
  5
CDC7
  8
0
 10
520.13895872087096
 20
-5.4902622198452198
 30
0.0
 11
520.6385603287346839
 21
-5.4902622198452198
 31
0.0
  0
ARC
  5
CDC8
  8
0
 10
520.4599960140010353
 20
-5.7038617078102902
 30
0.0
 40
0.3686004479856512
 50
150.8571961193231914
 51
173.8980519884495095
  0
ARC
  5
CDC9
  8
0
 10
520.0841353008305532
 20
-5.5058722823707731
 30
0.0
 40
0.0570024686920423
 50
341.0773333239779959
 51
15.8934270063935905
  0
ARC
  5
CDCA
  8
0
 10
520.4482706992672547
 20
-5.6605659604883547
 30
0.0
 40
0.3565821705925368
 50
185.7520347088675976
 51
207.2983080361352108
  0
ARC
  5
CDCB
  8
0
 10
521.3586645611451331
 20
-5.1477859581378311
 30
0.0
 40
1.266875024077621
 50
182.9636490387881054
 51
195.6839956762368047
  0
LINE
  5
CDCC
  8
0
 10
520.6356847033347321
 20
-5.8421742750452088
 30
0.0
 11
520.6840351153346091
 21
-5.7584289048452169
 31
0.0
  0
ARC
  5
CDCD
  8
0
 10
520.3175230356046086
 20
-5.7038617078102902
 30
0.0
 40
0.3686004479856512
 50
6.1019480115504692
 51
29.1428038806768086
  0
ARC
  5
CDCE
  8
0
 10
520.6933837487752044
 20
-5.5058722823707731
 30
0.0
 40
0.0570024686920423
 50
164.1065729936063917
 51
198.9226666760220041
  0
ARC
  5
CDCF
  8
0
 10
520.3292483503385029
 20
-5.6605659604883547
 30
0.0
 40
0.3565821705925368
 50
332.7016919638647892
 51
354.2479652911322887
  0
ARC
  5
CDD0
  8
0
 10
519.4188544884606245
 20
-5.1477859581378311
 30
0.0
 40
1.266875024077621
 50
344.3160043237623995
 51
357.0363509612118946
  0
ARC
  5
CDD1
  8
0
 10
519.9872820314697037
 20
-5.1961828231782903
 30
0.0
 40
0.8779946445880304
 50
178.7950884684721018
 51
195.0890394515623996
  0
ARC
  5
CDD2
  8
0
 10
519.5062125005666758
 20
-5.3258866222400618
 30
0.0
 40
0.3797467453908283
 50
195.0890394515616038
 51
216.903425303741102
  0
ARC
  5
CDD3
  8
0
 10
519.4929226539701403
 20
-5.3358661637635256
 30
0.0
 40
0.3631271403540573
 50
216.903425303741102
 51
234.9964578881763089
  0
ARC
  5
CDD4
  8
0
 10
519.4978080756087593
 20
-5.3288899765417312
 30
0.0
 40
0.3716438611279985
 50
234.9964578881763089
 51
252.4782512004879891
  0
ARC
  5
CDD5
  8
0
 10
519.6878749921226017
 20
-4.7268716489799942
 30
0.0
 40
1.002953214356098
 50
252.4782512004879891
 51
261.1720444490708815
  0
ARC
  5
CDD6
  8
0
 10
519.7879266987117717
 20
-4.0826561651680597
 30
0.0
 40
1.6548918108316131
 50
261.1720444490708815
 51
265.6930880603023866
  0
ARC
  5
CDD7
  8
0
 10
519.9497756785290221
 20
-1.9336011523737531
 30
0.0
 40
3.8100327668445231
 50
265.6930880603023866
 51
268.3229537949042083
  0
ARC
  5
CDD8
  8
0
 10
520.0656609314676189
 20
2.024452964141886
 30
0.0
 40
7.7697829838550678
 50
268.3229537949042083
 51
270.2051722737036812
  0
ARC
  5
CDD9
  8
0
 10
520.0150865834897331
 20
-5.7061645906715484
 30
0.0
 40
0.039
 50
269.6251715555800956
 51
359.9999999999951115
  0
LINE
  5
CDDA
  8
0
 10
520.0540843455819413
 20
-5.7065823846452162
 30
0.0
 11
520.0934839342710347
 21
-5.7065823846452162
 31
0.0
  0
ARC
  5
CDDB
  8
0
 10
519.1718052196057442
 20
-34.1665216003479415
 30
0.0
 40
28.4489162659653694
 50
89.9280258231452052
 51
91.6146622811069449
  0
ARC
  5
CDDC
  8
0
 10
518.1836581351818722
 20
-39.4625481214246179
 30
0.0
 40
33.7604500517010067
 50
87.2994197032712691
 51
88.262071715221694
  0
LINE
  5
CDDD
  8
0
 10
518.3701874998631638
 20
-5.728901345845216
 30
0.0
 11
518.0304067713148015
 21
-5.728901345845216
 31
0.0
  0
LINE
  5
CDDE
  8
0
 10
516.7319395846280941
 20
-5.728901345845216
 30
0.0
 11
516.4572728920622922
 21
-5.728901345845216
 31
0.0
  0
LINE
  5
CDDF
  8
0
 10
516.4573446238800898
 20
-4.626539141045213
 30
0.0
 11
517.2788505030393935
 21
-4.626539141045213
 31
0.0
  0
LINE
  5
CDE0
  8
0
 10
517.4835103316961522
 20
-4.626539141045213
 30
0.0
 11
518.5451574299710273
 21
-4.626539141045213
 31
0.0
  0
LINE
  5
CDE1
  8
0
 10
518.7421574299710301
 20
-3.6344131568452118
 30
0.0
 11
520.3957007370710244
 21
-3.6344131568452118
 31
0.0
  0
LINE
  5
CDE2
  8
0
 10
518.7421574299710301
 20
-3.5281139442452201
 30
0.0
 11
519.6476692409710267
 21
-3.5281139442452201
 31
0.0
  0
LINE
  5
CDE3
  8
0
 10
518.7421574299710301
 20
-3.6344131568452118
 30
0.0
 11
518.7421574299710301
 21
-4.4295391410452112
 31
0.0
  0
LINE
  5
CDE4
  8
0
 10
518.7421574299710301
 20
-3.5281139442452201
 30
0.0
 11
518.7421574299710301
 21
-2.9374525269452221
 31
0.0
  0
ARC
  5
CDE5
  8
0
 10
518.5451574299710273
 20
-4.4295391410452254
 30
0.0
 40
0.197
 50
269.9999999999968168
 51
0.0000000000016284
  0
LINE
  5
CDE6
  8
0
 10
520.3957007370710244
 20
-4.5132662118452203
 30
0.0
 11
520.3957007370710244
 21
-3.6344131568452118
 31
0.0
  0
LINE
  5
CDE7
  8
0
 10
520.3957007370710244
 20
-3.255852745345222
 30
0.0
 11
520.3957007370710244
 21
-2.583261975745216
 31
0.0
  0
ARC
  5
CDE8
  8
0
 10
519.5347112102705296
 20
-3.7598713232450791
 30
0.0
 40
0.7480314960994644
 50
161.9514346715967008
 51
170.344848814977297
  0
ARC
  5
CDE9
  8
0
 10
519.6031469566711394
 20
-3.7598713232451781
 30
0.0
 40
0.7480314960999119
 50
9.6551511850258631
 51
35.7107831188182772
  0
LINE
  5
CDEA
  8
0
 10
520.3957007370710244
 20
-3.255852745345222
 30
0.0
 11
519.6476692409710267
 21
-3.5281139442452201
 31
0.0
  0
LINE
  5
CDEB
  8
0
 10
516.575710779456017
 20
-2.543861975745215
 30
0.0
 11
520.3563007370710238
 21
-2.543861975745215
 31
0.0
  0
LINE
  5
CDEC
  8
0
 10
516.8917637291710889
 20
-2.819452526945212
 30
0.0
 11
518.6241574299709782
 21
-2.819452526945212
 31
0.0
  0
ARC
  5
CDED
  8
0
 10
518.6241574299708645
 20
-2.9374525269452221
 30
0.0
 40
0.118
 50
0.0000000000016284
 51
89.9999999999967457
  0
ARC
  5
CDEE
  8
0
 10
520.3563007370710238
 20
-2.583261975745216
 30
0.0
 40
0.0394
 50
359.9999999999968168
 51
90.0
  0
ARC
  5
CDEF
  8
0
 10
521.1620251059167686
 20
-2.9101274111306732
 30
0.0
 40
0.7810324456875528
 50
168.8630840923559049
 51
191.1369159076440951
  0
LINE
  5
CDF0
  8
0
 10
520.3957007370710244
 20
-2.7525233930452231
 30
0.0
 11
520.4033320938898441
 21
-2.7525233930452231
 31
0.0
  0
LINE
  5
CDF1
  8
0
 10
520.3957007370710244
 20
-3.067484022945222
 30
0.0
 11
520.4033320938966654
 21
-3.067484022945222
 31
0.0
  0
ARC
  5
CDF2
  8
0
 10
520.0138109735052012
 20
-2.910003708005021
 30
0.0
 40
0.4330708658657121
 50
340.5596679371491859
 51
19.4403320657323704
  0
ARC
  5
CDF3
  8
0
 10
520.4033320938966654
 20
-3.0474840229453402
 30
0.0
 40
0.02
 50
269.999999999876195
 51
340.5596679374547193
  0
ARC
  5
CDF4
  8
0
 10
520.4033320938898441
 20
-2.7725233930450912
 30
0.0
 40
0.02
 50
19.4403320654406393
 51
90.0000000001009539
  0
LINE
  5
CDF5
  8
0
 10
520.4221918660293795
 20
-2.765866892849842
 30
0.0
 11
520.4221918660293795
 21
-3.0541405231602141
 31
0.0
  0
ARC
  5
CDF6
  8
0
 10
516.8917637291710889
 20
-2.4278608508452062
 30
0.0
 40
0.3915916760000143
 50
206.1830374585987897
 51
270.0
  0
ARC
  5
CDF7
  8
0
 10
516.575710779456017
 20
-2.583261975745216
 30
0.0
 40
0.0394
 50
90.0000000000065086
 51
206.1830374585987897
  0
LINE
  5
CDF8
  8
0
 10
515.1028767186544428
 20
-5.3316305035297651
 30
0.0
 11
514.7867192952710411
 21
-5.7831500975452172
 31
0.0
  0
LINE
  5
CDF9
  8
0
 10
516.0059201156141171
 20
-5.9638607294798609
 30
0.0
 11
515.6897215488710344
 21
-6.415439082445217
 31
0.0
  0
ARC
  5
CDFA
  8
0
 10
516.4572728920622922
 20
-6.2799013458452171
 30
0.0
 40
0.551
 50
90.0
 51
145.000000008134208
  0
ARC
  5
CDFB
  8
0
 10
516.4573446238800898
 20
-6.2800391410452221
 30
0.0
 40
1.6535
 50
90.0
 51
144.9999999996200017
  0
LINE
  5
CDFC
  8
0
 10
514.7867192952710411
 20
-5.7831500975452172
 30
0.0
 11
515.6897215488710344
 21
-6.415439082445217
 31
0.0
  0
LINE
  5
CDFD
  8
0
 10
516.8429200167539648
 20
-5.8076415032452209
 30
0.0
 11
517.9194263391880213
 21
-5.8076415032452209
 31
0.0
  0
LINE
  5
CDFE
  8
0
 10
516.9736928629710064
 20
-5.8273265426452241
 30
0.0
 11
516.9736928629710064
 21
-5.8896186659452212
 31
0.0
  0
LINE
  5
CDFF
  8
0
 10
516.9736928629710064
 20
-5.8273265426452241
 30
0.0
 11
516.9596702739836473
 21
-5.8097983063610306
 31
0.0
  0
ARC
  5
CE00
  8
0
 10
516.9658188472709526
 20
-5.8048794477452779
 30
0.0
 40
0.0078740156998726
 50
200.5350950959615943
 51
218.6598081743572948
  0
LINE
  5
CE01
  8
0
 10
516.9285763416710324
 20
-5.8896186659452212
 30
0.0
 11
517.8338586485708674
 21
-5.8896186659452212
 31
0.0
  0
LINE
  5
CE02
  8
0
 10
516.9285763416710324
 20
-5.8896186659452212
 30
0.0
 11
516.9285763416710324
 21
-6.2585158980452169
 31
0.0
  0
LINE
  5
CE03
  8
0
 10
516.9285763416710324
 20
-6.2585158980452169
 30
0.0
 11
517.8338586485708674
 21
-6.2585158980452169
 31
0.0
  0
LINE
  5
CE04
  8
0
 10
516.9736928629710064
 20
-5.8273265426452241
 30
0.0
 11
517.7886534929709796
 21
-5.8273265426452241
 31
0.0
  0
ARC
  5
CE05
  8
0
 10
516.7315467342708644
 20
-5.8470358957452211
 30
0.0
 40
0.1181352031000135
 50
19.4794472061182802
 51
89.8094665237951659
  0
LINE
  5
CE06
  8
0
 10
516.9301641693708689
 20
-6.2585158980452169
 30
0.0
 11
516.9301641693708689
 21
-5.8896186659452212
 31
0.0
  0
LINE
  5
CE07
  8
0
 10
516.9305271499709988
 20
-6.2585158980452169
 30
0.0
 11
516.9305271499709988
 21
-5.8896186659452212
 31
0.0
  0
LINE
  5
CE08
  8
0
 10
516.9340379018709655
 20
-6.2585158980452169
 30
0.0
 11
516.9340379018709655
 21
-5.8896186659452212
 31
0.0
  0
LINE
  5
CE09
  8
0
 10
516.9346734603724371
 20
-6.2585158980452169
 30
0.0
 11
516.9346734603708455
 21
-5.8896186659452212
 31
0.0
  0
LINE
  5
CE0A
  8
0
 10
516.9400900325709927
 20
-6.2585158980452169
 30
0.0
 11
516.9400900325709927
 21
-5.8896186659452212
 31
0.0
  0
LINE
  5
CE0B
  8
0
 10
516.9409950724708551
 20
-6.2585158980452169
 30
0.0
 11
516.9409950724708551
 21
-5.8896186659452212
 31
0.0
  0
LINE
  5
CE0C
  8
0
 10
516.9482910759710421
 20
-6.2585158980452169
 30
0.0
 11
516.9482910759710421
 21
-5.8896186659452212
 31
0.0
  0
LINE
  5
CE0D
  8
0
 10
516.9494611881709716
 20
-6.2585158980452169
 30
0.0
 11
516.9494611881709716
 21
-5.8896186659452212
 31
0.0
  0
LINE
  5
CE0E
  8
0
 10
516.9586010774710303
 20
-6.2585158980452169
 30
0.0
 11
516.9586010774710303
 21
-5.8896186659452212
 31
0.0
  0
LINE
  5
CE0F
  8
0
 10
516.9600305611710382
 20
-6.2585158980452169
 30
0.0
 11
516.9600305611710382
 21
-5.8896186659452212
 31
0.0
  0
LINE
  5
CE10
  8
0
 10
516.9709698077708708
 20
-6.2585158980452169
 30
0.0
 11
516.9709698077708708
 21
-5.8896186659452212
 31
0.0
  0
LINE
  5
CE11
  8
0
 10
516.9726516987710738
 20
-6.2585158980452169
 30
0.0
 11
516.9726516987710738
 21
-5.8896186659452212
 31
0.0
  0
LINE
  5
CE12
  8
0
 10
516.9853370076708643
 20
-6.2585158980452169
 30
0.0
 11
516.9853370076708643
 21
-5.8896186659452212
 31
0.0
  0
LINE
  5
CE13
  8
0
 10
516.9872631118709023
 20
-6.2585158980452169
 30
0.0
 11
516.9872631118709023
 21
-5.8896186659452212
 31
0.0
  0
LINE
  5
CE14
  8
0
 10
517.001632681570868
 20
-6.2585158980452169
 30
0.0
 11
517.001632681570868
 21
-5.8896186659452212
 31
0.0
  0
LINE
  5
CE15
  8
0
 10
517.0037936152708653
 20
-6.2585158980452169
 30
0.0
 11
517.0037936152708653
 21
-5.8896186659452212
 31
0.0
  0
LINE
  5
CE16
  8
0
 10
517.0197774386709852
 20
-6.2585158980452169
 30
0.0
 11
517.0197774386709852
 21
-5.8896186659452212
 31
0.0
  0
LINE
  5
CE17
  8
0
 10
517.0221626739710246
 20
-6.2585158980452169
 30
0.0
 11
517.0221626739710246
 21
-5.8896186659452212
 31
0.0
  0
LINE
  5
CE18
  8
0
 10
517.0422807956708766
 20
-6.2585158980452169
 30
0.0
 11
517.0422807956708766
 21
-5.8896186659452212
 31
0.0
  0
LINE
  5
CE19
  8
0
 10
517.0396828793710711
 20
-6.2585158980452169
 30
0.0
 11
517.0396828793710711
 21
-5.8896186659452212
 31
0.0
  0
LINE
  5
CE1A
  8
0
 10
517.0612520265709691
 20
-6.2585158980452169
 30
0.0
 11
517.0612520265709691
 21
-5.8896186659452212
 31
0.0
  0
LINE
  5
CE1B
  8
0
 10
517.0640499670709005
 20
-6.2585158980452169
 30
0.0
 11
517.0640499670709005
 21
-5.8896186659452212
 31
0.0
  0
LINE
  5
CE1C
  8
0
 10
517.0843797974708878
 20
-6.2585158980452169
 30
0.0
 11
517.0843797974708878
 21
-5.8896186659452212
 31
0.0
  0
LINE
  5
CE1D
  8
0
 10
517.0873641308710376
 20
-6.2585158980452169
 30
0.0
 11
517.0873641308710376
 21
-5.8896186659452212
 31
0.0
  0
LINE
  5
CE1E
  8
0
 10
517.1089535158710078
 20
-6.2585158980452169
 30
0.0
 11
517.1089535158710078
 21
-5.8896186659452212
 31
0.0
  0
LINE
  5
CE1F
  8
0
 10
517.1121097028709528
 20
-6.2585158980452169
 30
0.0
 11
517.1121097028709528
 21
-5.8896186659452212
 31
0.0
  0
LINE
  5
CE20
  8
0
 10
517.1342410464709474
 20
-6.2585158980452169
 30
0.0
 11
517.1342410464709474
 21
-5.8896186659452212
 31
0.0
  0
LINE
  5
CE21
  8
0
 10
517.1348534610710885
 20
-6.2585158980452169
 30
0.0
 11
517.1348534610710885
 21
-5.8896186659452212
 31
0.0
  0
LINE
  5
CE22
  8
0
 10
517.1381661249710078
 20
-6.2585158980452169
 30
0.0
 11
517.1381661249710078
 21
-5.8896186659452212
 31
0.0
  0
LINE
  5
CE23
  8
0
 10
517.1597095258709942
 20
-6.2585158980452169
 30
0.0
 11
517.1597095258709942
 21
-5.8896186659452212
 31
0.0
  0
LINE
  5
CE24
  8
0
 10
517.1619534511710299
 20
-6.2585158980452169
 30
0.0
 11
517.1619534511710299
 21
-5.8896186659452212
 31
0.0
  0
LINE
  5
CE25
  8
0
 10
517.1654064530708865
 20
-6.2585158980452169
 30
0.0
 11
517.1654064530708865
 21
-5.8896186659452212
 31
0.0
  0
LINE
  5
CE26
  8
0
 10
517.1862569538709522
 20
-6.2585158980452169
 30
0.0
 11
517.1862569538709522
 21
-5.8896186659452212
 31
0.0
  0
LINE
  5
CE27
  8
0
 10
517.1901214577710562
 20
-6.2585158980452169
 30
0.0
 11
517.1901214577710562
 21
-5.8896186659452212
 31
0.0
  0
LINE
  5
CE28
  8
0
 10
517.1936979748710428
 20
-6.2585158980452169
 30
0.0
 11
517.1936979748710428
 21
-5.8896186659452212
 31
0.0
  0
LINE
  5
CE29
  8
0
 10
517.2137539940709985
 20
-6.2585158980452169
 30
0.0
 11
517.2137539940709985
 21
-5.8896186659452212
 31
0.0
  0
LINE
  5
CE2A
  8
0
 10
517.2192202491710304
 20
-6.2585158980452169
 30
0.0
 11
517.2192202491710304
 21
-5.8896186659452212
 31
0.0
  0
LINE
  5
CE2B
  8
0
 10
517.2229028571709932
 20
-6.2585158980452169
 30
0.0
 11
517.2229028571709932
 21
-5.8896186659452212
 31
0.0
  0
LINE
  5
CE2C
  8
0
 10
517.2420666837709859
 20
-6.2585158980452169
 30
0.0
 11
517.2420666837709859
 21
-5.8896186659452212
 31
0.0
  0
LINE
  5
CE2D
  8
0
 10
517.2491080589710464
 20
-6.2585158980452169
 30
0.0
 11
517.2491080589710464
 21
-5.8896186659452212
 31
0.0
  0
LINE
  5
CE2E
  8
0
 10
517.2528788164710249
 20
-6.2585158980452169
 30
0.0
 11
517.2528788164710249
 21
-5.8896186659452212
 31
0.0
  0
LINE
  5
CE2F
  8
0
 10
517.2710570863710018
 20
-6.2585158980452169
 30
0.0
 11
517.2710570863710018
 21
-5.8896186659452212
 31
0.0
  0
LINE
  5
CE30
  8
0
 10
517.2796392766708777
 20
-6.2585158980452169
 30
0.0
 11
517.2796392766708777
 21
-5.8896186659452212
 31
0.0
  0
LINE
  5
CE31
  8
0
 10
517.2834798129708815
 20
-6.2585158980452169
 30
0.0
 11
517.2834798129708815
 21
-5.8896186659452212
 31
0.0
  0
LINE
  5
CE32
  8
0
 10
517.3005839633709684
 20
-6.2585158980452169
 30
0.0
 11
517.3005839633709684
 21
-5.8896186659452212
 31
0.0
  0
LINE
  5
CE33
  8
0
 10
517.3106651573709769
 20
-6.2585158980452169
 30
0.0
 11
517.3106651573709769
 21
-5.8896186659452212
 31
0.0
  0
LINE
  5
CE34
  8
0
 10
517.314556761770973
 20
-6.2585158980452169
 30
0.0
 11
517.314556761770973
 21
-5.8896186659452212
 31
0.0
  0
LINE
  5
CE35
  8
0
 10
517.3305034630709542
 20
-6.2585158980452169
 30
0.0
 11
517.3305034630709542
 21
-5.8896186659452212
 31
0.0
  0
LINE
  5
CE36
  8
0
 10
517.3420345460709768
 20
-6.2585158980452169
 30
0.0
 11
517.3420345460709768
 21
-5.8896186659452212
 31
0.0
  0
LINE
  5
CE37
  8
0
 10
517.3459582590710397
 20
-6.2585158980452169
 30
0.0
 11
517.3459582590710397
 21
-5.8896186659452212
 31
0.0
  0
LINE
  5
CE38
  8
0
 10
517.3606698203710721
 20
-6.2585158980452169
 30
0.0
 11
517.3606698203710721
 21
-5.8896186659452212
 31
0.0
  0
LINE
  5
CE39
  8
0
 10
517.3735946142710418
 20
-6.2585158980452169
 30
0.0
 11
517.3735946142710418
 21
-5.8896186659452212
 31
0.0
  0
LINE
  5
CE3A
  8
0
 10
517.3775313198708545
 20
-6.2585158980452169
 30
0.0
 11
517.3775313198708545
 21
-5.8896186659452212
 31
0.0
  0
LINE
  5
CE3B
  8
0
 10
517.3909360680710279
 20
-6.2585158980452169
 30
0.0
 11
517.3909360680710279
 21
-5.8896186659452212
 31
0.0
  0
LINE
  5
CE3C
  8
0
 10
517.4051916044710424
 20
-6.2585158980452169
 30
0.0
 11
517.4051916044710424
 21
-5.8896186659452212
 31
0.0
  0
LINE
  5
CE3D
  8
0
 10
517.4091221234709792
 20
-6.2585158980452169
 30
0.0
 11
517.4091221234709792
 21
-5.8896186659452212
 31
0.0
  0
LINE
  5
CE3E
  8
0
 10
517.4211547519710166
 20
-6.2585158980452169
 30
0.0
 11
517.4211547519710166
 21
-5.8896186659452212
 31
0.0
  0
LINE
  5
CE3F
  8
0
 10
517.4366715792708646
 20
-6.2585158980452169
 30
0.0
 11
517.4366715792708646
 21
-5.8896186659452212
 31
0.0
  0
LINE
  5
CE40
  8
0
 10
517.4405767626709576
 20
-6.2585158980452169
 30
0.0
 11
517.4405767626709576
 21
-5.8896186659452212
 31
0.0
  0
LINE
  5
CE41
  8
0
 10
517.4511786495710339
 20
-6.2585158980452169
 30
0.0
 11
517.4511786495710339
 21
-5.8896186659452212
 31
0.0
  0
LINE
  5
CE42
  8
0
 10
517.4678811714710491
 20
-6.2585158980452169
 30
0.0
 11
517.4678811714710491
 21
-5.8896186659452212
 31
0.0
  0
LINE
  5
CE43
  8
0
 10
517.4717419934710279
 20
-6.2585158980452169
 30
0.0
 11
517.4717419934710279
 21
-5.8896186659452212
 31
0.0
  0
LINE
  5
CE44
  8
0
 10
517.4808614875709054
 20
-6.2585158980452169
 30
0.0
 11
517.4808614875709054
 21
-5.8896186659452212
 31
0.0
  0
LINE
  5
CE45
  8
0
 10
517.4986683309708724
 20
-6.2585158980452169
 30
0.0
 11
517.4986683309708724
 21
-5.8896186659452212
 31
0.0
  0
LINE
  5
CE46
  8
0
 10
517.5024659821709747
 20
-6.2585158980452169
 30
0.0
 11
517.5024659821709747
 21
-5.8896186659452212
 31
0.0
  0
LINE
  5
CE47
  8
0
 10
517.5100586541709617
 20
-6.2585158980452169
 30
0.0
 11
517.5100586541709617
 21
-5.8896186659452212
 31
0.0
  0
LINE
  5
CE48
  8
0
 10
517.5288830659709447
 20
-6.2585158980452169
 30
0.0
 11
517.5288830659709447
 21
-5.8896186659452212
 31
0.0
  0
LINE
  5
CE49
  8
0
 10
517.5325990444709987
 20
-6.2585158980452169
 30
0.0
 11
517.5325990444709987
 21
-5.8896186659452212
 31
0.0
  0
LINE
  5
CE4A
  8
0
 10
517.5386279037710437
 20
-6.2585158980452169
 30
0.0
 11
517.5386279037710437
 21
-5.8896186659452212
 31
0.0
  0
LINE
  5
CE4B
  8
0
 10
517.5583781732709667
 20
-6.2585158980452169
 30
0.0
 11
517.5583781732709667
 21
-5.8896186659452212
 31
0.0
  0
LINE
  5
CE4C
  8
0
 10
517.5619943751710252
 20
-6.2585158980452169
 30
0.0
 11
517.5619943751710252
 21
-5.8896186659452212
 31
0.0
  0
LINE
  5
CE4D
  8
0
 10
517.5664300496709984
 20
-6.2585158980452169
 30
0.0
 11
517.5664300496709984
 21
-5.8896186659452212
 31
0.0
  0
LINE
  5
CE4E
  8
0
 10
517.587009955571034
 20
-6.2585158980452169
 30
0.0
 11
517.587009955571034
 21
-5.8896186659452212
 31
0.0
  0
LINE
  5
CE4F
  8
0
 10
517.590508763271032
 20
-6.2585158980452169
 30
0.0
 11
517.590508763271032
 21
-5.8896186659452212
 31
0.0
  0
LINE
  5
CE50
  8
0
 10
517.5933296426710513
 20
-6.2585158980452169
 30
0.0
 11
517.5933296426710513
 21
-5.8896186659452212
 31
0.0
  0
LINE
  5
CE51
  8
0
 10
517.6146389218708919
 20
-5.8896186659452212
 30
0.0
 11
517.6146389218708919
 21
-6.2585158980452169
 31
0.0
  0
LINE
  5
CE52
  8
0
 10
517.6180032893710177
 20
-5.8896186659452212
 30
0.0
 11
517.6180032893710177
 21
-6.2585158980452169
 31
0.0
  0
LINE
  5
CE53
  8
0
 10
517.6191956308708768
 20
-5.8896186659452212
 30
0.0
 11
517.6191956308708768
 21
-6.2585158980452169
 31
0.0
  0
LINE
  5
CE54
  8
0
 10
517.6411304664710542
 20
-5.8896186659452212
 30
0.0
 11
517.6411304664710542
 21
-6.2585158980452169
 31
0.0
  0
LINE
  5
CE55
  8
0
 10
517.6443440029710246
 20
-5.8896186659452212
 30
0.0
 11
517.6443440029710246
 21
-6.2585158980452169
 31
0.0
  0
LINE
  5
CE56
  8
0
 10
517.6663555252710012
 20
-5.8896186659452212
 30
0.0
 11
517.6663555252710012
 21
-6.2585158980452169
 31
0.0
  0
LINE
  5
CE57
  8
0
 10
517.6694025747709702
 20
-5.8896186659452212
 30
0.0
 11
517.6694025747709702
 21
-6.2585158980452169
 31
0.0
  0
LINE
  5
CE58
  8
0
 10
517.6901912043708762
 20
-5.8896186659452212
 30
0.0
 11
517.6901912043708762
 21
-6.2585158980452169
 31
0.0
  0
LINE
  5
CE59
  8
0
 10
517.6930569218709479
 20
-5.8896186659452212
 30
0.0
 11
517.6930569218709479
 21
-6.2585158980452169
 31
0.0
  0
LINE
  5
CE5A
  8
0
 10
517.7125213786709992
 20
-5.8896186659452212
 30
0.0
 11
517.7125213786709992
 21
-6.2585158980452169
 31
0.0
  0
LINE
  5
CE5B
  8
0
 10
517.7151918027725515
 20
-5.8896186659452212
 30
0.0
 11
517.7151918027725515
 21
-6.2585158980452169
 31
0.0
  0
LINE
  5
CE5C
  8
0
 10
517.7332372578708828
 20
-5.8896186659452212
 30
0.0
 11
517.7332372578708828
 21
-6.2585158980452169
 31
0.0
  0
LINE
  5
CE5D
  8
0
 10
517.7356993785709847
 20
-5.8896186659452212
 30
0.0
 11
517.7356993785709847
 21
-6.2585158980452169
 31
0.0
  0
LINE
  5
CE5E
  8
0
 10
517.7522379162710422
 20
-5.8896186659452212
 30
0.0
 11
517.7522379162710422
 21
-6.2585158980452169
 31
0.0
  0
LINE
  5
CE5F
  8
0
 10
517.7544797382710158
 20
-5.8896186659452212
 30
0.0
 11
517.7544797382710158
 21
-6.2585158980452169
 31
0.0
  0
LINE
  5
CE60
  8
0
 10
517.769430784571
 20
-5.8896186659452212
 30
0.0
 11
517.769430784571
 21
-6.2585158980452169
 31
0.0
  0
LINE
  5
CE61
  8
0
 10
517.7714413859708884
 20
-5.8896186659452212
 30
0.0
 11
517.7714413859708884
 21
-6.2585158980452169
 31
0.0
  0
LINE
  5
CE62
  8
0
 10
517.7847321008709969
 20
-5.8896186659452212
 30
0.0
 11
517.7847321008709969
 21
-6.2585158980452169
 31
0.0
  0
LINE
  5
CE63
  8
0
 10
517.7865016861710501
 20
-5.8896186659452212
 30
0.0
 11
517.7865016861710501
 21
-6.2585158980452169
 31
0.0
  0
LINE
  5
CE64
  8
0
 10
517.7980673186693821
 20
-5.8896186659452212
 30
0.0
 11
517.7980673186693821
 21
-6.2585158980452169
 31
0.0
  0
LINE
  5
CE65
  8
0
 10
517.7995872666708692
 20
-5.8896186659452212
 30
0.0
 11
517.7995872666708692
 21
-6.2585158980452169
 31
0.0
  0
LINE
  5
CE66
  8
0
 10
517.8093714700710279
 20
-5.8896186659452212
 30
0.0
 11
517.8093714700710279
 21
-6.2585158980452169
 31
0.0
  0
LINE
  5
CE67
  8
0
 10
517.8106343757709737
 20
-5.8896186659452212
 30
0.0
 11
517.8106343757709737
 21
-6.2585158980452169
 31
0.0
  0
LINE
  5
CE68
  8
0
 10
517.8185894823710669
 20
-5.8896186659452212
 30
0.0
 11
517.8185894823710669
 21
-6.2585158980452169
 31
0.0
  0
LINE
  5
CE69
  8
0
 10
517.8195891930710104
 20
-5.8896186659452212
 30
0.0
 11
517.8195891930710104
 21
-6.2585158980452169
 31
0.0
  0
LINE
  5
CE6A
  8
0
 10
517.8256764464709931
 20
-5.8896186659452212
 30
0.0
 11
517.8256764464709931
 21
-6.2585158980452169
 31
0.0
  0
LINE
  5
CE6B
  8
0
 10
517.826408091571011
 20
-5.8896186659452212
 30
0.0
 11
517.826408091571011
 21
-6.2585158980452169
 31
0.0
  0
LINE
  5
CE6C
  8
0
 10
517.8305978353708952
 20
-5.8896186659452212
 30
0.0
 11
517.8305978353708952
 21
-6.2585158980452169
 31
0.0
  0
LINE
  5
CE6D
  8
0
 10
517.8310578503710531
 20
-5.8896186659452212
 30
0.0
 11
517.8310578503710531
 21
-6.2585158980452169
 31
0.0
  0
LINE
  5
CE6E
  8
0
 10
517.8333296724708816
 20
-5.8896186659452212
 30
0.0
 11
517.8333296724708816
 21
-6.2585158980452169
 31
0.0
  0
LINE
  5
CE6F
  8
0
 10
517.8338586485708674
 20
-5.8896186659452212
 30
0.0
 11
517.8338586485708674
 21
-6.2585158980452169
 31
0.0
  0
LINE
  5
CE70
  8
0
 10
517.7886534929709796
 20
-5.8273265426452241
 30
0.0
 11
517.7886534929709796
 21
-5.8896186659452212
 31
0.0
  0
LINE
  5
CE71
  8
0
 10
517.7886534929709796
 20
-5.8273265426452241
 30
0.0
 11
517.8026760819583387
 21
-5.8097983063610306
 31
0.0
  0
ARC
  5
CE72
  8
0
 10
517.7965275086711472
 20
-5.8048794477452779
 30
0.0
 40
0.0078740156998726
 50
321.3401918256427052
 51
339.4649049040384057
  0
ARC
  5
CE73
  8
0
 10
518.030799621671008
 20
-5.8470358957452211
 30
0.0
 40
0.1181352031000135
 50
90.1905334762048341
 51
160.5205527938817056
  0
LINE
  5
CE74
  8
0
 10
516.9874842788709657
 20
-6.3404930607452172
 30
0.0
 11
517.7748620770710204
 21
-6.3404930607452172
 31
0.0
  0
LINE
  5
CE75
  8
0
 10
516.9874842788709657
 20
-6.2585158980452169
 30
0.0
 11
516.9874842788709657
 21
-6.3404930607452172
 31
0.0
  0
LINE
  5
CE76
  8
0
 10
517.7748620770710204
 20
-6.2585158980452169
 30
0.0
 11
517.7748620770710204
 21
-6.3404930607452172
 31
0.0
  0
LINE
  5
CE77
  8
0
 10
517.1854143956710459
 20
-6.3404930607452172
 30
0.0
 11
517.1854143956710459
 21
-6.7281552557410294
 31
0.0
  0
ARC
  5
CE78
  8
0
 10
518.8029354306323739
 20
-6.6330800896380131
 30
0.0
 40
1.620312804909001
 50
183.3638791779472967
 51
228.536687584530597
  0
ARC
  5
CE79
  8
0
 10
518.8896897875148397
 20
-6.5812648643690741
 30
0.0
 40
1.716860207046641
 50
227.5119990084729125
 51
263.0651202323849134
  0
ARC
  5
CE7A
  8
0
 10
518.8134186757191628
 20
-6.9069485469034637
 30
0.0
 40
1.3848283509952759
 50
264.570877476441126
 51
308.3453670887212184
  0
ARC
  5
CE7B
  8
0
 10
517.7378578263301279
 20
-5.5472671465586521
 30
0.0
 40
3.1184847907729152
 50
308.3453670887212184
 51
327.9862583038944877
  0
ARC
  5
CE7C
  8
0
 10
516.7944270906522206
 20
-4.9097153861036134
 30
0.0
 40
4.2566124164529118
 50
327.4416481253973075
 51
343.7358086151128873
  0
LINE
  5
CE7D
  8
0
 10
517.5769319602710539
 20
-6.3404930607452172
 30
0.0
 11
517.5769319602710539
 21
-6.6954553491960516
 31
0.0
  0
ARC
  5
CE7E
  8
0
 10
518.7944324453651461
 20
-6.6332532198643426
 30
0.0
 40
1.2190884037254299
 50
182.9246998600002883
 51
223.7360920340130974
  0
ARC
  5
CE7F
  8
0
 10
518.9105005906289989
 20
-6.5464879357722623
 30
0.0
 40
1.36304844878874
 50
222.998289373993714
 51
257.6075340772669051
  0
ARC
  5
CE80
  8
0
 10
518.7931278472887016
 20
-6.7481494262523389
 30
0.0
 40
1.14312608218746
 50
261.1865715380117194
 51
323.1269538950990068
  0
ARC
  5
CE81
  8
0
 10
517.1266699028317362
 20
-5.0921036694720243
 30
0.0
 40
3.4851090470466959
 50
317.7788659459660039
 51
336.4158533555308281
  0
ARC
  5
CE82
  8
0
 10
516.366575517311162
 20
-4.7377031860663541
 30
0.0
 40
4.3235589086504191
 50
336.1416907643313152
 51
345.1995023546767243
  0
ARC
  5
CE83
  8
0
 10
522.1270863394097432
 20
-12.3408771760758693
 30
0.0
 40
8.5338052992092326
 50
125.9468815230195986
 51
129.2132719908900071
  0
ARC
  5
CE84
  8
0
 10
517.8043940608644107
 20
-6.3795181620043868
 30
0.0
 40
1.170146574253202
 50
117.7798152249839063
 51
125.9488698224809013
  0
ARC
  5
CE85
  8
0
 10
517.3916979491175425
 20
-5.5859376294057048
 30
0.0
 40
0.2757233519199349
 50
92.1875967334510733
 51
118.7642448747986066
  0
ARC
  5
CE86
  8
0
 10
512.6352600165322428
 20
-12.3408771760758693
 30
0.0
 40
8.5338052992092326
 50
50.7867280091099502
 51
54.0531184769803517
  0
ARC
  5
CE87
  8
0
 10
517.3706484068245572
 20
-5.5859376294057048
 30
0.0
 40
0.2757233519199349
 50
61.2357551252013295
 51
87.8124032665489551
  0
ARC
  5
CE88
  8
0
 10
516.957952295077348
 20
-6.3795181620043868
 30
0.0
 40
1.170146574253202
 50
54.0511301775190489
 51
62.2201847750160297
  0
LINE
  5
CE89
  8
0
 10
520.3829487147518194
 20
-2.8548855977452088
 30
0.0
 11
520.3957007370710244
 21
-2.8548855977452088
 31
0.0
  0
LINE
  5
CE8A
  8
0
 10
520.3864430101633616
 20
-2.8180182695452198
 30
0.0
 11
520.3957007370710244
 21
-2.8180182695452198
 31
0.0
  0
LINE
  5
CE8B
  8
0
 10
520.3861319822525502
 20
-2.8206760731452221
 30
0.0
 11
520.3957007370710244
 21
-2.8206760731452221
 31
0.0
  0
LINE
  5
CE8C
  8
0
 10
520.3957007370710244
 20
-2.7820509521452119
 30
0.0
 11
520.3915654367124262
 21
-2.7820509521452119
 31
0.0
  0
LINE
  5
CE8D
  8
0
 10
520.3829312114467029
 20
-2.9651218182648469
 30
0.0
 11
520.3957007370710244
 21
-2.9651218182648469
 31
0.0
  0
LINE
  5
CE8E
  8
0
 10
520.3864136678897694
 20
-3.0019891464648358
 30
0.0
 11
520.3957007370710244
 21
-3.0019891464648358
 31
0.0
  0
LINE
  5
CE8F
  8
0
 10
520.3861034991936094
 20
-2.9993313428648491
 30
0.0
 11
520.3957007370710244
 21
-2.9993313428648491
 31
0.0
  0
LINE
  5
CE90
  8
0
 10
520.3957007370710244
 20
-3.0379564638648442
 30
0.0
 11
520.391524350243003
 21
-3.0379564638648442
 31
0.0
  0
LINE
  5
CE91
  8
0
 10
517.1649527055709541
 20
-4.4296887473452102
 30
0.0
 11
517.597393650371032
 21
-4.4296887473452102
 31
0.0
  0
LINE
  5
CE92
  8
0
 10
517.1649527055709541
 20
-3.8903186686452211
 30
0.0
 11
517.597393650371032
 21
-3.8903186686452211
 31
0.0
  0
LINE
  5
CE93
  8
0
 10
517.144952705571086
 20
-4.4096887473452142
 30
0.0
 11
517.144952705571086
 21
-3.9103186686452172
 31
0.0
  0
ARC
  5
CE94
  8
0
 10
517.1649527055709541
 20
-4.4096887473452142
 30
0.0
 40
0.02
 50
180.0000000000023874
 51
270.0
  0
ARC
  5
CE95
  8
0
 10
517.1649527055709541
 20
-3.9103186686452172
 30
0.0
 40
0.02
 50
90.0000000000097771
 51
179.9999999999967031
  0
LINE
  5
CE96
  8
0
 10
517.2827479811710418
 20
-4.4296887473452102
 30
0.0
 11
517.2827479811710418
 21
-4.6272616199353251
 31
0.0
  0
ARC
  5
CE97
  8
0
 10
517.3811804173676592
 20
-4.0853849939817053
 30
0.0
 40
0.5507442439558509
 50
259.2920493120053038
 51
280.7079506879946962
  0
LINE
  5
CE98
  8
0
 10
517.4795983747709442
 20
-4.4296887473452102
 30
0.0
 11
517.4795983747709442
 21
-4.6272616199353251
 31
0.0
  0
LINE
  5
CE99
  8
0
 10
517.6173936503710138
 20
-4.4096887473452142
 30
0.0
 11
517.6173936503710138
 21
-3.9103186686452172
 31
0.0
  0
ARC
  5
CE9A
  8
0
 10
517.597393650371032
 20
-4.4096887473452142
 30
0.0
 40
0.02
 50
270.0
 51
359.9999999999976126
  0
ARC
  5
CE9B
  8
0
 10
517.597393650371032
 20
-3.9103186686452172
 30
0.0
 40
0.02
 50
0.0000000000032569
 51
89.9999999999902229
  0
LINE
  5
CE9C
  8
0
 10
515.1749527918303784
 20
-6.1004186010251402
 30
0.0
 11
515.196295317436693
 21
-6.0699383156942579
 31
0.0
  0
ARC
  5
CE9D
  8
0
 10
515.5693622505075382
 20
-5.6352549097005911
 30
0.0
 40
0.609865625216475
 50
214.1831160555757094
 51
229.7055916357001024
  0
LINE
  5
CE9E
  8
0
 10
515.0735272181378832
 20
-5.9839751671259904
 30
0.0
 11
515.0770850499709468
 21
-5.9896708779452146
 31
0.0
  0
LINE
  5
CE9F
  8
0
 10
515.0770850499709468
 20
-5.9896708779452146
 30
0.0
 11
515.0884708474709441
 21
-6.0031321089452092
 31
0.0
  0
LINE
  5
CEA0
  8
0
 10
515.0884708474709441
 20
-6.0031321089452092
 30
0.0
 11
515.0901643295710528
 21
-6.0007135657452153
 31
0.0
  0
LINE
  5
CEA1
  8
0
 10
515.0901643295710528
 20
-6.0007135657452153
 30
0.0
 11
515.0845902905773528
 21
-5.9917216138426417
 31
0.0
  0
LINE
  5
CEA2
  8
0
 10
515.0858849564291404
 20
-5.9926281486314528
 30
0.0
 11
515.096927530890639
 21
-6.0098684315745032
 31
0.0
  0
LINE
  5
CEA3
  8
0
 10
515.096927530890639
 20
-6.0098684315745032
 30
0.0
 11
515.1090999453765562
 21
-6.0222062570371122
 31
0.0
  0
LINE
  5
CEA4
  8
0
 10
515.1090999453765562
 20
-6.0222062570371122
 30
0.0
 11
515.1113445712946941
 21
-6.0190005989131663
 31
0.0
  0
LINE
  5
CEA5
  8
0
 10
515.1113445712946941
 20
-6.0190005989131663
 30
0.0
 11
515.1015209585524417
 21
-6.0035765951840849
 31
0.0
  0
LINE
  5
CEA6
  8
0
 10
515.1102344745428354
 20
-6.0096778647639582
 30
0.0
 11
515.1082599752947999
 21
-6.0124977419676346
 31
0.0
  0
LINE
  5
CEA7
  8
0
 10
515.1082599752947999
 20
-6.0124977419676346
 30
0.0
 11
515.1183770610708734
 21
-6.0277708810452131
 31
0.0
  0
LINE
  5
CEA8
  8
0
 10
515.1183770610708734
 20
-6.0277708810452131
 30
0.0
 11
515.1313185778709567
 21
-6.0390103145452221
 31
0.0
  0
LINE
  5
CEA9
  8
0
 10
515.1313185778709567
 20
-6.0390103145452221
 30
0.0
 11
515.1341216871710458
 21
-6.0350070595452223
 31
0.0
  0
LINE
  5
CEAA
  8
0
 10
515.1341216871710458
 20
-6.0350070595452223
 30
0.0
 11
515.1241991690408213
 21
-6.0194560491188147
 31
0.0
  0
LINE
  5
CEAB
  8
0
 10
515.1330387251524598
 20
-6.0256455729418681
 30
0.0
 11
515.131091537000998
 21
-6.0284264459010606
 31
0.0
  0
LINE
  5
CEAC
  8
0
 10
515.131091537000998
 20
-6.0284264459010606
 30
0.0
 11
515.1414133395148838
 21
-6.0434072190808186
 31
0.0
  0
LINE
  5
CEAD
  8
0
 10
515.1414133395148838
 20
-6.0434072190808186
 30
0.0
 11
515.1553780341083666
 21
-6.0531854032858092
 31
0.0
  0
LINE
  5
CEAE
  8
0
 10
515.1553780341083666
 20
-6.0531854032858092
 30
0.0
 11
515.1584952691709987
 21
-6.0487335301452134
 31
0.0
  0
LINE
  5
CEAF
  8
0
 10
515.1584952691709987
 20
-6.0487335301452134
 30
0.0
 11
515.1513534976949131
 21
-6.038469714734731
 31
0.0
  0
LINE
  5
CEB0
  8
0
 10
515.1558429757800468
 20
-6.041613281132185
 30
0.0
 11
515.1555304081852
 21
-6.0420596738250216
 31
0.0
  0
LINE
  5
CEB1
  8
0
 10
515.1555304081852
 20
-6.0420596738250216
 30
0.0
 11
515.1660398187686951
 21
-6.0567725148785172
 31
0.0
  0
LINE
  5
CEB2
  8
0
 10
515.1660398187686951
 20
-6.0567725148785172
 30
0.0
 11
515.1667431012708676
 21
-6.0572315441452096
 31
0.0
  0
LINE
  5
CEB3
  8
0
 10
515.1667431012708676
 20
-6.0572315441452096
 30
0.0
 11
515.170495253072545
 21
-6.0518729161428686
 31
0.0
  0
LINE
  5
CEB4
  8
0
 10
515.1493408766708626
 20
-6.0508992409452134
 30
0.0
 11
515.146558955385899
 21
-6.0548722363120211
 31
0.0
  0
LINE
  5
CEB5
  8
0
 10
515.146558955385899
 20
-6.0548722363120211
 30
0.0
 11
515.1577114353663092
 21
-6.0686666791762596
 31
0.0
  0
LINE
  5
CEB6
  8
0
 10
515.1577114353663092
 20
-6.0686666791762596
 30
0.0
 11
515.1583990181752597
 21
-6.0691481298397738
 31
0.0
  0
LINE
  5
CEB7
  8
0
 10
515.1583990181752597
 20
-6.0691481298397738
 30
0.0
 11
515.1637889039710672
 21
-6.0614505751452148
 31
0.0
  0
LINE
  5
CEB8
  8
0
 10
515.1637889039710672
 20
-6.0614505751452148
 30
0.0
 11
515.1632507724708603
 21
-6.0607556858452218
 31
0.0
  0
LINE
  5
CEB9
  8
0
 10
515.1632507724708603
 20
-6.0607556858452218
 30
0.0
 11
515.1493408766708626
 21
-6.0508992409452134
 31
0.0
  0
LINE
  5
CEBA
  8
0
 10
515.1425320310390816
 20
-6.0606232802646636
 30
0.0
 11
515.1408943975447983
 21
-6.0629620632311401
 31
0.0
  0
LINE
  5
CEBB
  8
0
 10
515.1408943975447983
 20
-6.0629620632311401
 30
0.0
 11
515.15263504525808
 21
-6.0759165155642867
 31
0.0
  0
LINE
  5
CEBC
  8
0
 10
515.15263504525808
 20
-6.0759165155642867
 30
0.0
 11
515.153284433871022
 21
-6.0764525132452141
 31
0.0
  0
LINE
  5
CEBD
  8
0
 10
515.153284433871022
 20
-6.0764525132452141
 30
0.0
 11
515.1564647119710116
 21
-6.0719106054452112
 31
0.0
  0
LINE
  5
CEBE
  8
0
 10
515.1564647119710116
 20
-6.0719106054452112
 30
0.0
 11
515.1558963672995333
 21
-6.0712588650380184
 31
0.0
  0
LINE
  5
CEBF
  8
0
 10
515.1558963672995333
 20
-6.0712588650380184
 30
0.0
 11
515.1425320310710276
 21
-6.0606232802452089
 31
0.0
  0
LINE
  5
CEC0
  8
0
 10
515.138368247659173
 20
-6.066569779133629
 30
0.0
 11
515.1389090907708805
 21
-6.0657973751452232
 31
0.0
  0
LINE
  5
CEC1
  8
0
 10
515.1389090907708805
 20
-6.0657973751452232
 30
0.0
 11
515.151739187271005
 21
-6.0771937817452217
 31
0.0
  0
LINE
  5
CEC2
  8
0
 10
515.151739187271005
 20
-6.0771937817452217
 30
0.0
 11
515.1523356699709666
 21
-6.0778055932452162
 31
0.0
  0
LINE
  5
CEC3
  8
0
 10
515.1523356699709666
 20
-6.0778055932452162
 30
0.0
 11
515.1513021548042843
 21
-6.0792840046947667
 31
0.0
  0
LINE
  5
CEC4
  8
0
 10
515.138368247659173
 20
-6.066569779133629
 30
0.0
 11
515.1436415129588795
 21
-6.0719446559069468
 31
0.0
  0
LINE
  5
CEC5
  8
0
 10
515.1207034333434649
 20
-6.0432621953843864
 30
0.0
 11
515.1196075415905398
 21
-6.0448272910173131
 31
0.0
  0
LINE
  5
CEC6
  8
0
 10
515.1196075415905398
 20
-6.0448272910173131
 30
0.0
 11
515.131139197532093
 21
-6.0580802145125432
 31
0.0
  0
LINE
  5
CEC7
  8
0
 10
515.131139197532093
 20
-6.0580802145125432
 30
0.0
 11
515.1437685061035836
 21
-6.069765527598519
 31
0.0
  0
LINE
  5
CEC8
  8
0
 10
515.1437685061035836
 20
-6.069765527598519
 30
0.0
 11
515.1448519682710412
 21
-6.0682181832452207
 31
0.0
  0
LINE
  5
CEC9
  8
0
 10
515.1448519682710412
 20
-6.0682181832452207
 30
0.0
 11
515.1333184539737431
 21
-6.0549679137414349
 31
0.0
  0
LINE
  5
CECA
  8
0
 10
515.1333184539737431
 20
-6.0549679137414349
 30
0.0
 11
515.1207034333434649
 21
-6.0432621953843864
 31
0.0
  0
LINE
  5
CECB
  8
0
 10
515.1259514471591956
 20
-6.0357672549620096
 30
0.0
 11
515.1237280093710069
 21
-6.0389426531452131
 31
0.0
  0
LINE
  5
CECC
  8
0
 10
515.1237280093710069
 20
-6.0389426531452131
 30
0.0
 11
515.1346797528030947
 21
-6.0530237775994911
 31
0.0
  0
LINE
  5
CECD
  8
0
 10
515.1346797528030947
 20
-6.0530237775994911
 30
0.0
 11
515.1478418127710484
 21
-6.0639482428452141
 31
0.0
  0
LINE
  5
CECE
  8
0
 10
515.1478418127710484
 20
-6.0639482428452141
 30
0.0
 11
515.1500393112295342
 21
-6.0608098897639726
 31
0.0
  0
LINE
  5
CECF
  8
0
 10
515.1500393112295342
 20
-6.0608098897639726
 30
0.0
 11
515.139100536771025
 21
-6.0467102436452222
 31
0.0
  0
LINE
  5
CED0
  8
0
 10
515.139100536771025
 20
-6.0467102436452222
 30
0.0
 11
515.125951447171019
 21
-6.0357672549452133
 31
0.0
  0
LINE
  5
CED1
  8
0
 10
515.1041416925710337
 20
-6.0183792592452221
 30
0.0
 11
515.1024675634248524
 21
-6.0207701633682262
 31
0.0
  0
LINE
  5
CED2
  8
0
 10
515.1024675634248524
 20
-6.0207701633682262
 30
0.0
 11
515.1132032978689494
 21
-6.0351597806019441
 31
0.0
  0
LINE
  5
CED3
  8
0
 10
515.1132032978689494
 20
-6.0351597806019441
 30
0.0
 11
515.1256119895746224
 21
-6.0471601672400217
 31
0.0
  0
LINE
  5
CED4
  8
0
 10
515.1256119895746224
 20
-6.0471601672400217
 30
0.0
 11
515.127261624020548
 21
-6.0448042451144914
 31
0.0
  0
LINE
  5
CED5
  8
0
 10
515.127261624020548
 20
-6.0448042451144914
 30
0.0
 11
515.1165268231709433
 21
-6.0304132946452143
 31
0.0
  0
LINE
  5
CED6
  8
0
 10
515.1165268231709433
 20
-6.0304132946452143
 30
0.0
 11
515.1041416925710337
 21
-6.0183792592452221
 31
0.0
  0
LINE
  5
CED7
  8
0
 10
515.0998616913166188
 20
-6.0244917344488718
 30
0.0
 11
515.1004385100729905
 21
-6.0236679518847041
 31
0.0
  0
LINE
  5
CED8
  8
0
 10
515.1004385100729905
 20
-6.0236679518847041
 30
0.0
 11
515.1122914644075763
 21
-6.0364620136928551
 31
0.0
  0
LINE
  5
CED9
  8
0
 10
515.1122914644075763
 20
-6.0364620136928551
 30
0.0
 11
515.123612294070881
 21
-6.0500160283452109
 31
0.0
  0
LINE
  5
CEDA
  8
0
 10
515.123612294070881
 20
-6.0500160283452109
 30
0.0
 11
515.1230269739178311
 21
-6.0508519521494666
 31
0.0
  0
LINE
  5
CEDB
  8
0
 10
515.083926356791153
 20
-5.9987141975163212
 30
0.0
 11
515.0828002919710116
 21
-6.0003223847452167
 31
0.0
  0
LINE
  5
CEDC
  8
0
 10
515.0828002919710116
 20
-6.0003223847452167
 30
0.0
 11
515.0933011767151584
 21
-6.0150474019819589
 31
0.0
  0
LINE
  5
CEDD
  8
0
 10
515.0933011767151584
 20
-6.0150474019819589
 30
0.0
 11
515.104940978208333
 21
-6.0281458776811681
 31
0.0
  0
LINE
  5
CEDE
  8
0
 10
515.104940978208333
 20
-6.0281458776811681
 30
0.0
 11
515.1060470138089613
 21
-6.0265662951909462
 31
0.0
  0
LINE
  5
CEDF
  8
0
 10
515.1060470138089613
 20
-6.0265662951909462
 30
0.0
 11
515.0955330175710287
 21
-6.0118600030452143
 31
0.0
  0
LINE
  5
CEE0
  8
0
 10
515.0955330175710287
 20
-6.0118600030452143
 30
0.0
 11
515.083926356791153
 21
-5.9987141975163212
 31
0.0
  0
LINE
  5
CEE1
  8
0
 10
515.0675918395066901
 20
-5.9798191702668779
 30
0.0
 11
515.076146053361299
 21
-5.9910119041715291
 31
0.0
  0
LINE
  5
CEE2
  8
0
 10
515.076146053361299
 20
-5.9910119041715291
 30
0.0
 11
515.0864186092710497
 21
-6.0060630087452154
 31
0.0
  0
LINE
  5
CEE3
  8
0
 10
515.0864186092710497
 20
-6.0060630087452154
 30
0.0
 11
515.0858251334816487
 21
-6.0069105800179576
 31
0.0
  0
LINE
  5
CEE4
  8
0
 10
515.076146053361299
 20
-5.9910119041715291
 30
0.0
 11
515.0750936815397836
 21
-5.992514846653151
 31
0.0
  0
LINE
  5
CEE5
  8
0
 10
515.0684943560701186
 20
-5.980451119167852
 30
0.0
 11
515.0694640616710558
 21
-5.981741058945218
 31
0.0
  0
LINE
  5
CEE6
  8
0
 10
515.0694640616710558
 20
-5.981741058945218
 30
0.0
 11
515.0697511117532486
 21
-5.9813311089706778
 31
0.0
  0
LINE
  5
CEE7
  8
0
 10
515.0770850499709468
 20
-5.9896708779452146
 30
0.0
 11
515.0785906678462425
 21
-5.9875206327805719
 31
0.0
  0
LINE
  5
CEE8
  8
0
 10
515.096927530890639
 20
-6.0098684315745032
 30
0.0
 11
515.1013949184635976
 21
-6.0034883409637274
 31
0.0
  0
LINE
  5
CEE9
  8
0
 10
515.0933011767151584
 20
-6.0150474019819589
 30
0.0
 11
515.0955330175710287
 21
-6.0118600030452143
 31
0.0
  0
LINE
  5
CEEA
  8
0
 10
515.1183770610708734
 20
-6.0277708810452131
 30
0.0
 11
515.1241991690408213
 21
-6.0194560491188147
 31
0.0
  0
LINE
  5
CEEB
  8
0
 10
515.1132032978689494
 20
-6.0351597806019441
 30
0.0
 11
515.1165268231709433
 21
-6.0304132946452143
 31
0.0
  0
LINE
  5
CEEC
  8
0
 10
515.1112952929349831
 20
-6.0378846939948971
 30
0.0
 11
515.1122914644075763
 21
-6.0364620136928551
 31
0.0
  0
LINE
  5
CEED
  8
0
 10
515.131139197532093
 20
-6.0580802145125432
 30
0.0
 11
515.1333184539737431
 21
-6.0549679137414349
 31
0.0
  0
LINE
  5
CEEE
  8
0
 10
515.1346797528030947
 20
-6.0530237775994911
 30
0.0
 11
515.139100536771025
 21
-6.0467102436452222
 31
0.0
  0
LINE
  5
CEEF
  8
0
 10
515.1414133395148838
 20
-6.0434072190808186
 30
0.0
 11
515.1470034196240704
 21
-6.0354237572781377
 31
0.0
  0
LINE
  5
CEF0
  8
0
 10
515.2588030011562523
 20
-6.1591311496829491
 30
0.0
 11
515.2801455266977655
 21
-6.1286508643067634
 31
0.0
  0
ARC
  5
CEF1
  8
0
 10
515.5610179098279104
 20
-5.6294121394546153
 30
0.0
 40
0.6098656252164748
 50
240.2944083575773959
 51
255.8168839518426125
  0
LINE
  5
CEF2
  8
0
 10
515.4029136259748611
 20
-6.2146140129060541
 30
0.0
 11
515.3963445583947305
 21
-6.213218792416483
 31
0.0
  0
LINE
  5
CEF3
  8
0
 10
515.3963445583947305
 20
-6.213218792416483
 30
0.0
 11
515.3798009668649911
 21
-6.2071236546779991
 31
0.0
  0
LINE
  5
CEF4
  8
0
 10
515.3798009668649911
 20
-6.2071236546779991
 30
0.0
 11
515.3814944490728749
 21
-6.2047051115534941
 31
0.0
  0
LINE
  5
CEF5
  8
0
 10
515.3814944490728749
 20
-6.2047051115534941
 30
0.0
 11
515.3918505535375516
 21
-6.2068675661866024
 31
0.0
  0
LINE
  5
CEF6
  8
0
 10
515.3905558876859914
 20
-6.2059610313974636
 30
0.0
 11
515.3705785381246187
 21
-6.2014809297023561
 31
0.0
  0
LINE
  5
CEF7
  8
0
 10
515.3705785381246187
 20
-6.2014809297023561
 30
0.0
 11
515.3548215636344594
 21
-6.1942623864638326
 31
0.0
  0
LINE
  5
CEF8
  8
0
 10
515.3548215636344594
 20
-6.1942623864638326
 30
0.0
 11
515.3570661896405909
 21
-6.1910567284014766
 31
0.0
  0
LINE
  5
CEF9
  8
0
 10
515.3570661896405909
 20
-6.1910567284014766
 30
0.0
 11
515.3749198855654186
 21
-6.1950125848408808
 31
0.0
  0
LINE
  5
CEFA
  8
0
 10
515.3662063695766165
 20
-6.1889113152588058
 30
0.0
 11
515.3642318702922012
 21
-6.1917311924370457
 31
0.0
  0
LINE
  5
CEFB
  8
0
 10
515.3642318702922012
 20
-6.1917311924370457
 30
0.0
 11
515.346419567078101
 21
-6.1874479628035166
 31
0.0
  0
LINE
  5
CEFC
  8
0
 10
515.346419567078101
 20
-6.1874479628035166
 30
0.0
 11
515.3314316949265503
 21
-6.1791310276196043
 31
0.0
  0
LINE
  5
CEFD
  8
0
 10
515.3314316949265503
 20
-6.1791310276196043
 30
0.0
 11
515.3342348042650656
 21
-6.1751277726465901
 31
0.0
  0
LINE
  5
CEFE
  8
0
 10
515.3342348042650656
 20
-6.1751277726465901
 30
0.0
 11
515.3522416750811317
 21
-6.179133130900424
 31
0.0
  0
LINE
  5
CEFF
  8
0
 10
515.3434021189707437
 20
-6.1729436070751262
 30
0.0
 11
515.3414549307419747
 21
-6.1757244799803743
 31
0.0
  0
LINE
  5
CF00
  8
0
 10
515.3414549307419747
 20
-6.1757244799803743
 30
0.0
 11
515.32384734435675
 21
-6.1711488845128883
 31
0.0
  0
LINE
  5
CF01
  8
0
 10
515.32384734435675
 20
-6.1711488845128883
 30
0.0
 11
515.3098826499692677
 21
-6.161370700013407
 31
0.0
  0
LINE
  5
CF02
  8
0
 10
515.3098826499692677
 20
-6.161370700013407
 30
0.0
 11
515.3129998851259188
 21
-6.1569188269385497
 31
0.0
  0
LINE
  5
CF03
  8
0
 10
515.3129998851259188
 20
-6.1569188269385497
 30
0.0
 11
515.3250873464318147
 21
-6.1601194652776448
 31
0.0
  0
LINE
  5
CF04
  8
0
 10
515.3205978683472495
 20
-6.1569758988790531
 30
0.0
 11
515.3202853008415332
 21
-6.1574222916343038
 31
0.0
  0
LINE
  5
CF05
  8
0
 10
515.3202853008415332
 20
-6.1574222916343038
 30
0.0
 11
515.3028653225592279
 21
-6.1525787640638177
 31
0.0
  0
LINE
  5
CF06
  8
0
 10
515.3028653225592279
 20
-6.1525787640638177
 30
0.0
 11
515.3021934393624406
 21
-6.1520748919416937
 31
0.0
  0
LINE
  5
CF07
  8
0
 10
515.3021934393624406
 20
-6.1520748919416937
 30
0.0
 11
515.3059455910573661
 21
-6.1467162638646746
 31
0.0
  0
LINE
  5
CF08
  8
0
 10
515.3140957693021846
 20
-6.1662618587369158
 30
0.0
 11
515.3113138479898225
 21
-6.1702348540846677
 31
0.0
  0
LINE
  5
CF09
  8
0
 10
515.3113138479898225
 20
-6.1702348540846677
 30
0.0
 11
515.2945369390216683
 21
-6.1644729282670312
 31
0.0
  0
LINE
  5
CF0A
  8
0
 10
515.2945369390216683
 20
-6.1644729282670312
 30
0.0
 11
515.2938493562152189
 21
-6.1639914776001774
 31
0.0
  0
LINE
  5
CF0B
  8
0
 10
515.2938493562152189
 20
-6.1639914776001774
 30
0.0
 11
515.2992392420483156
 21
-6.1562939229318081
 31
0.0
  0
LINE
  5
CF0C
  8
0
 10
515.2992392420483156
 20
-6.1562939229318081
 30
0.0
 11
515.3000762762085287
 21
-6.1565619349935039
 31
0.0
  0
LINE
  5
CF0D
  8
0
 10
515.3000762762085287
 20
-6.1565619349935039
 30
0.0
 11
515.3140957693021846
 21
-6.1662618587369158
 31
0.0
  0
LINE
  5
CF0E
  8
0
 10
515.3072869236673341
 20
-6.1759858980543214
 30
0.0
 11
515.3056492902142054
 21
-6.1783246810496726
 31
0.0
  0
LINE
  5
CF0F
  8
0
 10
515.3056492902142054
 20
-6.1783246810496726
 30
0.0
 11
515.2894605489375408
 21
-6.171722764672011
 31
0.0
  0
LINE
  5
CF10
  8
0
 10
515.2894605489375408
 20
-6.171722764672011
 30
0.0
 11
515.288734771885629
 21
-6.1712958609879394
 31
0.0
  0
LINE
  5
CF11
  8
0
 10
515.288734771885629
 20
-6.1712958609879394
 30
0.0
 11
515.2919150499584475
 21
-6.1667539531689783
 31
0.0
  0
LINE
  5
CF12
  8
0
 10
515.2919150499584475
 20
-6.1667539531689783
 30
0.0
 11
515.292721870935793
 21
-6.1670651141154158
 31
0.0
  0
LINE
  5
CF13
  8
0
 10
515.292721870935793
 20
-6.1670651141154158
 30
0.0
 11
515.3072869236746101
 21
-6.1759858980175997
 31
0.0
  0
LINE
  5
CF14
  8
0
 10
515.3031231403482479
 20
-6.1819323969658191
 30
0.0
 11
515.3036639834379002
 21
-6.1811599929619092
 31
0.0
  0
LINE
  5
CF15
  8
0
 10
515.3036639834379002
 20
-6.1811599929619092
 30
0.0
 11
515.2885667128095974
 21
-6.1730014465738492
 31
0.0
  0
LINE
  5
CF16
  8
0
 10
515.2885667128095974
 20
-6.1730014465738492
 30
0.0
 11
515.2877877889592355
 21
-6.1726501880390572
 31
0.0
  0
LINE
  5
CF17
  8
0
 10
515.2877877889592355
 20
-6.1726501880390572
 30
0.0
 11
515.2867520196346049
 21
-6.1741270211103396
 31
0.0
  0
LINE
  5
CF18
  8
0
 10
515.3031231403482479
 20
-6.1819323969658191
 30
0.0
 11
515.2962688453507099
 21
-6.1788154645984861
 31
0.0
  0
LINE
  5
CF19
  8
0
 10
515.3310668271286659
 20
-6.1905602294945652
 30
0.0
 11
515.32997093536585
 21
-6.1921253251206281
 31
0.0
  0
LINE
  5
CF1A
  8
0
 10
515.32997093536585
 20
-6.1921253251206281
 30
0.0
 11
515.3135732023365563
 21
-6.1858218799182794
 31
0.0
  0
LINE
  5
CF1B
  8
0
 10
515.3135732023365563
 20
-6.1858218799182794
 30
0.0
 11
515.2982731219310608
 21
-6.1779508243026271
 31
0.0
  0
LINE
  5
CF1C
  8
0
 10
515.2982731219310608
 20
-6.1779508243026271
 30
0.0
 11
515.2993565841162535
 21
-6.1764034799617491
 31
0.0
  0
LINE
  5
CF1D
  8
0
 10
515.2993565841162535
 20
-6.1764034799617491
 30
0.0
 11
515.3157524588045817
 21
-6.18270957916583
 31
0.0
  0
LINE
  5
CF1E
  8
0
 10
515.3157524588045817
 20
-6.18270957916583
 30
0.0
 11
515.3310668271286659
 21
-6.1905602294945652
 31
0.0
  0
LINE
  5
CF1F
  8
0
 10
515.3363148409002861
 20
-6.1830652890413509
 30
0.0
 11
515.3340914031701914
 21
-6.1862406872652107
 31
0.0
  0
LINE
  5
CF20
  8
0
 10
515.3340914031701914
 20
-6.1862406872652107
 30
0.0
 11
515.3171137575704961
 21
-6.1807654429794354
 31
0.0
  0
LINE
  5
CF21
  8
0
 10
515.3171137575704961
 20
-6.1807654429794354
 30
0.0
 11
515.3023464285573709
 21
-6.1721335395205577
 31
0.0
  0
LINE
  5
CF22
  8
0
 10
515.3023464285573709
 20
-6.1721335395205577
 30
0.0
 11
515.3045439270518955
 21
-6.1689951864644854
 31
0.0
  0
LINE
  5
CF23
  8
0
 10
515.3045439270518955
 20
-6.1689951864644854
 30
0.0
 11
515.3215345416729178
 21
-6.1744519091192274
 31
0.0
  0
LINE
  5
CF24
  8
0
 10
515.3215345416729178
 20
-6.1744519091192274
 30
0.0
 11
515.3363148409122232
 21
-6.1830652890245537
 31
0.0
  0
LINE
  5
CF25
  8
0
 10
515.3601135875542241
 20
-6.1976127097046572
 30
0.0
 11
515.3584394584829624
 21
-6.2000036138801127
 31
0.0
  0
LINE
  5
CF26
  8
0
 10
515.3584394584829624
 20
-6.2000036138801127
 30
0.0
 11
515.3412458039199464
 21
-6.1948368623909431
 31
0.0
  0
LINE
  5
CF27
  8
0
 10
515.3412458039199464
 20
-6.1948368623909431
 30
0.0
 11
515.3257251066347635
 21
-6.187280880317644
 31
0.0
  0
LINE
  5
CF28
  8
0
 10
515.3257251066347635
 20
-6.187280880317644
 30
0.0
 11
515.3273747410619308
 21
-6.1849249581790673
 31
0.0
  0
LINE
  5
CF29
  8
0
 10
515.3273747410619308
 20
-6.1849249581790673
 30
0.0
 11
515.3445693291484986
 21
-6.1900903763828401
 31
0.0
  0
LINE
  5
CF2A
  8
0
 10
515.3445693291484986
 20
-6.1900903763828401
 30
0.0
 11
515.3601135875542241
 21
-6.1976127097046572
 31
0.0
  0
LINE
  5
CF2B
  8
0
 10
515.3558335863523325
 20
-6.2037251849451129
 30
0.0
 11
515.3564104051154118
 21
-6.2029014023855922
 31
0.0
  0
LINE
  5
CF2C
  8
0
 10
515.3564104051154118
 20
-6.2029014023855922
 30
0.0
 11
515.3403339705048438
 21
-6.1961390955142397
 31
0.0
  0
LINE
  5
CF2D
  8
0
 10
515.3403339705048438
 20
-6.1961390955142397
 30
0.0
 11
515.3237254111706989
 21
-6.1901367414505151
 31
0.0
  0
LINE
  5
CF2E
  8
0
 10
515.3237254111706989
 20
-6.1901367414505151
 30
0.0
 11
515.3231400910226512
 21
-6.1909726652585304
 31
0.0
  0
LINE
  5
CF2F
  8
0
 10
515.3855067529874532
 20
-6.2098830643355711
 30
0.0
 11
515.3843806881666296
 21
-6.2114912515640546
 31
0.0
  0
LINE
  5
CF30
  8
0
 10
515.3843806881666296
 20
-6.2114912515640546
 30
0.0
 11
515.3669521840234893
 21
-6.2066599001618661
 31
0.0
  0
LINE
  5
CF31
  8
0
 10
515.3669521840234893
 20
-6.2066599001618661
 30
0.0
 11
515.3506625964912473
 21
-6.200202007125525
 31
0.0
  0
LINE
  5
CF32
  8
0
 10
515.3506625964912473
 20
-6.200202007125525
 30
0.0
 11
515.3517686320468556
 21
-6.198622424603669
 31
0.0
  0
LINE
  5
CF33
  8
0
 10
515.3517686320468556
 20
-6.198622424603669
 30
0.0
 11
515.3691840247549862
 21
-6.2034725011380649
 31
0.0
  0
LINE
  5
CF34
  8
0
 10
515.3691840247549862
 20
-6.2034725011380649
 30
0.0
 11
515.3855067529874532
 21
-6.2098830643355711
 31
0.0
  0
LINE
  5
CF35
  8
0
 10
515.4088490046051447
 20
-6.218770009766672
 30
0.0
 11
515.395405561700386
 21
-6.2145598185836368
 31
0.0
  0
LINE
  5
CF36
  8
0
 10
515.395405561700386
 20
-6.2145598185836368
 30
0.0
 11
515.3777487287537724
 21
-6.2100545545400641
 31
0.0
  0
LINE
  5
CF37
  8
0
 10
515.3777487287537724
 20
-6.2100545545400641
 30
0.0
 11
515.3771552529575501
 21
-6.210902125808019
 31
0.0
  0
LINE
  5
CF38
  8
0
 10
515.395405561700386
 20
-6.2145598185836368
 30
0.0
 11
515.3943531901020378
 21
-6.2160627612214077
 31
0.0
  0
LINE
  5
CF39
  8
0
 10
515.40794648804183
 20
-6.2181380608654697
 30
0.0
 11
515.4064026823032236
 21
-6.2176680210553448
 31
0.0
  0
LINE
  5
CF3A
  8
0
 10
515.4064026823032236
 20
-6.2176680210553448
 30
0.0
 11
515.406689732359041
 21
-6.2172580710623171
 31
0.0
  0
LINE
  5
CF3B
  8
0
 10
515.3963445583947305
 20
-6.213218792416483
 30
0.0
 11
515.3978501762675251
 21
-6.2110685472501919
 31
0.0
  0
LINE
  5
CF3C
  8
0
 10
515.3705785381246187
 20
-6.2014809297023561
 30
0.0
 11
515.375045925654149
 21
-6.1951008390612818
 31
0.0
  0
LINE
  5
CF3D
  8
0
 10
515.3669521840234893
 20
-6.2066599001618661
 30
0.0
 11
515.3691840247549862
 21
-6.2034725011380649
 31
0.0
  0
LINE
  5
CF3E
  8
0
 10
515.346419567078101
 20
-6.1874479628035166
 30
0.0
 11
515.3522416750811317
 21
-6.179133130900424
 31
0.0
  0
LINE
  5
CF3F
  8
0
 10
515.3412458039199464
 20
-6.1948368623909431
 30
0.0
 11
515.3445693291484986
 21
-6.1900903763828401
 31
0.0
  0
LINE
  5
CF40
  8
0
 10
515.3393377990330464
 20
-6.1975617758169221
 30
0.0
 11
515.3403339705048438
 21
-6.1961390955142397
 31
0.0
  0
LINE
  5
CF41
  8
0
 10
515.3135732023365563
 20
-6.1858218799182794
 30
0.0
 11
515.3157524588045817
 21
-6.18270957916583
 31
0.0
  0
LINE
  5
CF42
  8
0
 10
515.3171137575704961
 20
-6.1807654429794354
 30
0.0
 11
515.3215345416729178
 21
-6.1744519091192274
 31
0.0
  0
LINE
  5
CF43
  8
0
 10
515.32384734435675
 20
-6.1711488845128883
 30
0.0
 11
515.329437424501748
 21
-6.1631654227353456
 31
0.0
  0
ENDSEC
  0
EOF
