  0
SECTION
  2
HEADER
  9
$ACADVER
  1
AC1009
  9
$INSBASE
 10
3889.6477230785590109
 20
226.7169123595274129
 30
0.0
  9
$EXTMIN
 10
3880.4977230785598294
 20
220.9102283094273957
 30
0.0
  9
$EXTMAX
 10
3898.7977230785600113
 20
226.7221662988787045
 30
0.0
  9
$LIMMIN
 10
0.0
 20
0.0
  9
$LIMMAX
 10
11.6929133858000007
 20
8.2677165353999982
  9
$ORTHOMODE
 70
     0
  9
$REGENMODE
 70
     1
  9
$FILLMODE
 70
     1
  9
$QTEXTMODE
 70
     0
  9
$MIRRTEXT
 70
     0
  9
$DRAGMODE
 70
     2
  9
$LTSCALE
 40
0.6431102362
  9
$OSMODE
 70
  4095
  9
$ATTMODE
 70
     1
  9
$TEXTSIZE
 40
0.2
  9
$TRACEWID
 40
0.05
  9
$TEXTSTYLE
  7
STANDARD
  9
$CLAYER
  8
0
  9
$CELTYPE
  6
BYLAYER
  9
$CECOLOR
 62
   256
  9
$DIMSCALE
 40
1.0
  9
$DIMASZ
 40
0.1875
  9
$DIMEXO
 40
0.0625
  9
$DIMDLI
 40
0.4443307087
  9
$DIMRND
 40
0.0
  9
$DIMDLE
 40
0.0
  9
$DIMEXE
 40
0.125
  9
$DIMTP
 40
0.01
  9
$DIMTM
 40
0.01
  9
$DIMTXT
 40
2.0
  9
$DIMCEN
 40
0.1052362205
  9
$DIMTSZ
 40
0.0
  9
$DIMTOL
 70
     1
  9
$DIMLIM
 70
     0
  9
$DIMTIH
 70
     1
  9
$DIMTOH
 70
     1
  9
$DIMSE1
 70
     0
  9
$DIMSE2
 70
     0
  9
$DIMTAD
 70
     0
  9
$DIMZIN
 70
     0
  9
$DIMBLK
  1

  9
$DIMASO
 70
     1
  9
$DIMSHO
 70
     1
  9
$DIMPOST
  1
\X
  9
$DIMAPOST
  1

  9
$DIMALT
 70
     1
  9
$DIMALTD
 70
     2
  9
$DIMALTF
 40
25.3999999999999986
  9
$DIMLFAC
 40
1.0
  9
$DIMTOFL
 70
     0
  9
$DIMTVP
 40
0.0
  9
$DIMTIX
 70
     0
  9
$DIMSOXD
 70
     0
  9
$DIMSAH
 70
     0
  9
$DIMBLK1
  1

  9
$DIMBLK2
  1

  9
$DIMSTYLE
  2
STANDARD
  9
$DIMCLRD
 70
     0
  9
$DIMCLRE
 70
     0
  9
$DIMCLRT
 70
     0
  9
$DIMTFAC
 40
1.0
  9
$DIMGAP
 40
0.09
  9
$LUNITS
 70
     2
  9
$LUPREC
 70
     4
  9
$SKETCHINC
 40
0.1
  9
$FILLETRAD
 40
0.0
  9
$AUNITS
 70
     0
  9
$AUPREC
 70
     0
  9
$MENU
  1
.
  9
$ELEVATION
 40
0.0
  9
$PELEVATION
 40
0.0
  9
$THICKNESS
 40
0.0
  9
$LIMCHECK
 70
     0
  9
$BLIPMODE
 70
     0
  9
$CHAMFERA
 40
0.0
  9
$CHAMFERB
 40
0.0
  9
$SKPOLY
 70
     0
  9
$TDCREATE
 40
2458060.468368056230247
  9
$TDUPDATE
 40
2459851.7634837972000241
  9
$TDINDWG
 40
0.4428311343
  9
$TDUSRTIMER
 40
0.4428311343
  9
$USRTIMER
 70
     1
  9
$ANGBASE
 50
0.0
  9
$ANGDIR
 70
     0
  9
$PDMODE
 70
     0
  9
$PDSIZE
 40
0.3125
  9
$PLINEWID
 40
0.0
  9
$COORDS
 70
     1
  9
$SPLFRAME
 70
     0
  9
$SPLINETYPE
 70
     6
  9
$SPLINESEGS
 70
     8
  9
$ATTDIA
 70
     1
  9
$ATTREQ
 70
     1
  9
$HANDLING
 70
     1
  9
$HANDSEED
  5
8F22
  9
$SURFTAB1
 70
     6
  9
$SURFTAB2
 70
     6
  9
$SURFTYPE
 70
     6
  9
$SURFU
 70
     6
  9
$SURFV
 70
     6
  9
$UCSNAME
  2

  9
$UCSORG
 10
0.0
 20
0.0
 30
0.0
  9
$UCSXDIR
 10
1.0
 20
0.0
 30
0.0
  9
$UCSYDIR
 10
0.0
 20
1.0
 30
0.0
  9
$PUCSNAME
  2

  9
$PUCSORG
 10
0.0
 20
0.0
 30
0.0
  9
$PUCSXDIR
 10
1.0
 20
0.0
 30
0.0
  9
$PUCSYDIR
 10
0.0
 20
1.0
 30
0.0
  9
$USERI1
 70
     0
  9
$USERI2
 70
     0
  9
$USERI3
 70
     0
  9
$USERI4
 70
     0
  9
$USERI5
 70
     0
  9
$USERR1
 40
0.0
  9
$USERR2
 40
0.0
  9
$USERR3
 40
0.0
  9
$USERR4
 40
0.0
  9
$USERR5
 40
0.0
  9
$WORLDVIEW
 70
     1
  9
$SHADEDGE
 70
     3
  9
$SHADEDIF
 70
    70
  9
$TILEMODE
 70
     1
  9
$MAXACTVP
 70
    64
  9
$PLIMCHECK
 70
     0
  9
$PEXTMIN
 10
1.0000000000000000E+20
 20
1.0000000000000000E+20
 30
1.0000000000000000E+20
  9
$PEXTMAX
 10
-1.0000000000000000E+20
 20
-1.0000000000000000E+20
 30
-1.0000000000000000E+20
  9
$PLIMMIN
 10
0.0
 20
0.0
  9
$PLIMMAX
 10
12.0
 20
9.0
  9
$UNITMODE
 70
     0
  9
$VISRETAIN
 70
     1
  9
$PLINEGEN
 70
     0
  9
$PSLTSCALE
 70
     1
  0
ENDSEC
  0
SECTION
  2
TABLES
  0
TABLE
  2
VPORT
 70
     1
  0
VPORT
  2
*ACTIVE
 70
     0
 10
0.0
 20
0.0
 11
1.0
 21
1.0
 12
801.7202166937737502
 22
26.6626582915386301
 13
0.0
 23
0.0
 14
1.0
 24
1.0
 15
0.0
 25
0.0
 16
0.0
 26
0.0
 36
95.5902297660485658
 17
3089.811279296875
 27
197.161570589386713
 37
0.0
 40
10.9038397390572097
 41
1.614795918367347
 42
50.0
 43
0.0
 44
0.0
 50
0.0
 51
0.0
 71
     0
 72
   100
 73
     1
 74
     1
 75
     0
 76
     0
 77
     0
 78
     0
  0
ENDTAB
  0
TABLE
  2
LTYPE
 70
     2
  0
LTYPE
  2
CONTINUOUS
 70
     0
  3
Solid line
 72
    65
 73
     0
 40
0.0
  0
LTYPE
  2
PHANTOM2
 70
     0
  3
___ _ _ ___ _ _ ___ _ _ ___ _ _
 72
    65
 73
     6
 40
1.25
 49
0.625
 49
-0.125
 49
0.125
 49
-0.125
 49
0.125
 49
-0.125
  0
ENDTAB
  0
TABLE
  2
LAYER
 70
     2
  0
LAYER
  2
0
 70
     0
 62
   255
  6
CONTINUOUS
  0
LAYER
  2
DEFPOINTS
 70
     0
 62
     7
  6
CONTINUOUS
  0
ENDTAB
  0
TABLE
  2
STYLE
 70
     1
  0
STYLE
  2
STANDARD
 70
     0
 40
0.0
 41
0.8
 50
0.0
 71
     0
 42
0.2
  3
txt
  4

  0
ENDTAB
  0
TABLE
  2
VIEW
 70
     0
  0
ENDTAB
  0
TABLE
  2
UCS
 70
     0
  0
ENDTAB
  0
TABLE
  2
APPID
 70
     9
  0
APPID
  2
ACAD
 70
     0
  0
APPID
  2
ACAD_MLEADERVER
 70
     0
  0
APPID
  2
ACAD_EXEMPT_FROM_CAD_STANDARDS
 70
     0
  0
APPID
  2
ACAD_NAV_VCDISPLAY
 70
     0
  0
APPID
  2
ACAECLAYERSTANDARD
 70
     0
  0
APPID
  2
ACCMTRANSPARENCY
 70
     0
  0
APPID
  2
ACAD_DSTYLE_DIMJAG
 70
     0
  0
APPID
  2
ACAD_DSTYLE_DIMTALN
 70
     0
  0
APPID
  2
ACDBATTR
 70
     0
  0
ENDTAB
  0
TABLE
  2
DIMSTYLE
 70
     1
  0
DIMSTYLE
  2
STANDARD
 70
     0
  3

  4

  5

  6

  7

 40
1.0
 41
0.1875
 42
0.0625
 43
0.38
 44
0.125
 45
0.0
 46
0.0
 47
0.01
 48
0.01
140
0.15625
141
0.09
142
0.0
143
25.3999999999999986
144
1.0
145
0.0
146
1.0
147
0.09
 71
     1
 72
     0
 73
     1
 74
     1
 75
     0
 76
     0
 77
     0
 78
     4
170
     0
171
     2
172
     0
173
     0
174
     0
175
     0
176
     0
177
     0
178
     0
  0
ENDTAB
  0
ENDSEC
  0
SECTION
  2
BLOCKS
  0
BLOCK
  8
0
  2
$MODEL_SPACE
 70
     0
 10
0.0
 20
0.0
 30
0.0
  3
$MODEL_SPACE
  1

  0
ENDBLK
  5
21
  8
0
  0
BLOCK
 67
     1
  8
0
  2
$PAPER_SPACE
 70
     0
 10
0.0
 20
0.0
 30
0.0
  3
$PAPER_SPACE
  1

  0
ENDBLK
  5
1D
 67
     1
  8
0
  0
ENDSEC
  0
SECTION
  2
ENTITIES
  0
ATTDEF
  5
3930
  8
DEFPOINTS
 10
3889.6442428868072057
 20
226.7211662988785861
 30
0.0
 40
0.001
  1
32021
  3

  2
MODELNUMBER
 70
     0
1001
ACDBATTR
1070
     0
1070
     1
  0
ATTDEF
  5
3931
  8
DEFPOINTS
 10
3889.6442428868072057
 20
226.7194996322118925
 30
0.0
 40
0.001
  1
MCALLISTER
  3

  2
TRADENAME
 70
     0
1001
ACDBATTR
1070
     0
1070
     1
  0
ATTDEF
  5
3932
  8
DEFPOINTS
 10
3889.6442428868072057
 20
226.7178329655451989
 30
0.0
 40
0.001
  1
KITCHEN SINK
  3

  2
PRODUCT
 70
     0
1001
ACDBATTR
1070
     0
1070
     1
  0
LINE
  5
8D7C
  8
0
 10
3880.4977230785598294
 20
226.7169123595274129
 30
0.0
 11
3898.7977230785600113
 21
226.7169123595274129
 31
0.0
  0
LINE
  5
8D7D
  8
0
 10
3880.4977230785598294
 20
226.6689123595274111
 30
0.0
 11
3880.4977230785598294
 21
226.7169123595274129
 31
0.0
  0
LINE
  5
8D7E
  8
0
 10
3898.7977230785600113
 20
226.6689123595274111
 30
0.0
 11
3898.7977230785600113
 21
226.7169123595274129
 31
0.0
  0
LINE
  5
8D7F
  8
0
 10
3881.8079243868551202
 20
223.5457423045677956
 30
0.0
 11
3881.7325164142571339
 21
226.4254565966049029
 31
0.0
  0
ARC
  5
8D80
  8
0
 10
3884.1071362342991051
 20
223.6059492856801114
 30
0.0
 40
2.2999999999999989
 50
181.5000000001020908
 51
268.6931272527257875
  0
LINE
  5
8D81
  8
0
 10
3890.587723078559975
 20
220.9102283094273957
 30
0.0
 11
3890.1321532379911332
 21
221.0582519236822066
 31
0.0
  0
LINE
  5
8D82
  8
0
 10
3890.0931751489438284
 20
221.0865569395853925
 30
0.0
 11
3890.0422541314169393
 21
221.156573338809892
 31
0.0
  0
LINE
  5
8D83
  8
0
 10
3890.587723078559975
 20
220.9102283094273957
 30
0.0
 11
3894.2077230785589563
 21
220.9102283094273957
 31
0.0
  0
ARC
  5
8D84
  8
0
 10
3890.1562565635590545
 20
221.1324343319510888
 30
0.0
 40
0.078
 50
216.0273733369895979
 51
251.9999999949660889
  0
ARC
  5
8D85
  8
0
 10
3890.0147571045340555
 20
221.1365755011121053
 30
0.0
 40
0.034
 50
36.0273733369909266
 51
87.6948628609713552
  0
LINE
  5
8D86
  8
0
 10
3890.0161247313781132
 20
221.1705479840478006
 30
0.0
 11
3894.7793214257421823
 21
221.1705479840478006
 31
0.0
  0
LINE
  5
8D87
  8
0
 10
3890.1321532379911332
 20
221.0582519236822066
 30
0.0
 11
3894.6632929191277981
 21
221.0582519236822066
 31
0.0
  0
ARC
  5
8D88
  8
0
 10
3881.4826020830128073
 20
226.4189123595274111
 30
0.0
 40
0.25
 50
1.500000000103751
 51
90.0
  0
LINE
  5
8D89
  8
0
 10
3897.4842476629019075
 20
223.4454731147230007
 30
0.0
 11
3897.5622812766409879
 21
226.4254565966049029
 31
0.0
  0
ARC
  5
8D8A
  8
0
 10
3895.1850358154579226
 20
223.5056800958352028
 30
0.0
 40
2.2999999999999989
 50
274.1148729637087058
 51
358.4999999998962039
  0
LINE
  5
8D8B
  8
0
 10
3894.2077230785589563
 20
220.9102283094273957
 30
0.0
 11
3894.6632929191277981
 21
221.0582519236822066
 31
0.0
  0
LINE
  5
8D8C
  8
0
 10
3894.7022710081741934
 20
221.0865569395853925
 30
0.0
 11
3894.7531920257029014
 21
221.156573338809892
 31
0.0
  0
ARC
  5
8D8D
  8
0
 10
3894.6391895935607863
 20
221.1324343319510888
 30
0.0
 40
0.078
 50
288.0000000050338826
 51
323.9726266630103737
  0
ARC
  5
8D8E
  8
0
 10
3894.7806890525857852
 20
221.1365755011121053
 30
0.0
 40
0.034
 50
92.3051371390286448
 51
143.9726266630090947
  0
ARC
  5
8D8F
  8
0
 10
3897.8121956078848598
 20
226.4189123595274111
 30
0.0
 40
0.25
 50
90.0
 51
178.4999999998962039
  0
LINE
  5
8D90
  8
0
 10
3880.4977230785598294
 20
226.6689123595274111
 30
0.0
 11
3898.7977230785600113
 21
226.6689123595274111
 31
0.0
  0
LINE
  5
8D91
  8
0
 10
3894.7793215256610893
 20
221.1705479880700977
 30
0.0
 11
3895.3500754429519475
 21
221.2116090591503053
 31
0.0
  0
LINE
  5
8D92
  8
0
 10
3890.016124631457842
 20
221.1705479880700977
 30
0.0
 11
3884.0546795487111922
 21
221.3065475599833007
 31
0.0
  0
ENDSEC
  0
EOF
