  0
SECTION
  2
HEADER
  9
$ACADVER
  1
AC1009
  9
$INSBASE
 10
4601.3363565937379462
 20
234.5565021262671905
 30
0.0
  9
$EXTMIN
 10
4589.8363565937379462
 20
205.3364282189400001
 30
0.0
  9
$EXTMAX
 10
4614.2871274279377758
 20
243.5578959032671946
 30
0.0
  9
$LIMMIN
 10
0.0
 20
0.0
  9
$LIMMAX
 10
11.6929133858000007
 20
8.2677165353999982
  9
$ORTHOMODE
 70
     0
  9
$REGENMODE
 70
     1
  9
$FILLMODE
 70
     1
  9
$QTEXTMODE
 70
     0
  9
$MIRRTEXT
 70
     0
  9
$DRAGMODE
 70
     2
  9
$LTSCALE
 40
0.6431102362
  9
$OSMODE
 70
  4095
  9
$ATTMODE
 70
     1
  9
$TEXTSIZE
 40
0.2
  9
$TRACEWID
 40
0.05
  9
$TEXTSTYLE
  7
STANDARD
  9
$CLAYER
  8
0
  9
$CELTYPE
  6
BYLAYER
  9
$CECOLOR
 62
   256
  9
$DIMSCALE
 40
1.0
  9
$DIMASZ
 40
0.1875
  9
$DIMEXO
 40
0.0625
  9
$DIMDLI
 40
0.4443307087
  9
$DIMRND
 40
0.0
  9
$DIMDLE
 40
0.0
  9
$DIMEXE
 40
0.125
  9
$DIMTP
 40
0.01
  9
$DIMTM
 40
0.01
  9
$DIMTXT
 40
2.0
  9
$DIMCEN
 40
0.1052362205
  9
$DIMTSZ
 40
0.0
  9
$DIMTOL
 70
     1
  9
$DIMLIM
 70
     0
  9
$DIMTIH
 70
     1
  9
$DIMTOH
 70
     1
  9
$DIMSE1
 70
     0
  9
$DIMSE2
 70
     0
  9
$DIMTAD
 70
     0
  9
$DIMZIN
 70
     0
  9
$DIMBLK
  1

  9
$DIMASO
 70
     1
  9
$DIMSHO
 70
     1
  9
$DIMPOST
  1
\X
  9
$DIMAPOST
  1

  9
$DIMALT
 70
     1
  9
$DIMALTD
 70
     2
  9
$DIMALTF
 40
25.3999999999999986
  9
$DIMLFAC
 40
1.0
  9
$DIMTOFL
 70
     0
  9
$DIMTVP
 40
0.0
  9
$DIMTIX
 70
     0
  9
$DIMSOXD
 70
     0
  9
$DIMSAH
 70
     0
  9
$DIMBLK1
  1

  9
$DIMBLK2
  1

  9
$DIMSTYLE
  2
STANDARD
  9
$DIMCLRD
 70
     0
  9
$DIMCLRE
 70
     0
  9
$DIMCLRT
 70
     0
  9
$DIMTFAC
 40
1.0
  9
$DIMGAP
 40
0.09
  9
$LUNITS
 70
     2
  9
$LUPREC
 70
     4
  9
$SKETCHINC
 40
0.1
  9
$FILLETRAD
 40
0.0
  9
$AUNITS
 70
     0
  9
$AUPREC
 70
     0
  9
$MENU
  1
.
  9
$ELEVATION
 40
0.0
  9
$PELEVATION
 40
0.0
  9
$THICKNESS
 40
0.0
  9
$LIMCHECK
 70
     0
  9
$BLIPMODE
 70
     0
  9
$CHAMFERA
 40
0.0
  9
$CHAMFERB
 40
0.0
  9
$SKPOLY
 70
     0
  9
$TDCREATE
 40
2458060.468368056230247
  9
$TDUPDATE
 40
2459759.670219908002764
  9
$TDINDWG
 40
0.5039538193999999
  9
$TDUSRTIMER
 40
0.5039538193999999
  9
$USRTIMER
 70
     1
  9
$ANGBASE
 50
0.0
  9
$ANGDIR
 70
     0
  9
$PDMODE
 70
     0
  9
$PDSIZE
 40
0.3125
  9
$PLINEWID
 40
0.0
  9
$COORDS
 70
     1
  9
$SPLFRAME
 70
     0
  9
$SPLINETYPE
 70
     6
  9
$SPLINESEGS
 70
     8
  9
$ATTDIA
 70
     1
  9
$ATTREQ
 70
     1
  9
$HANDLING
 70
     1
  9
$HANDSEED
  5
FECD
  9
$SURFTAB1
 70
     6
  9
$SURFTAB2
 70
     6
  9
$SURFTYPE
 70
     6
  9
$SURFU
 70
     6
  9
$SURFV
 70
     6
  9
$UCSNAME
  2

  9
$UCSORG
 10
0.0
 20
0.0
 30
0.0
  9
$UCSXDIR
 10
1.0
 20
0.0
 30
0.0
  9
$UCSYDIR
 10
0.0
 20
1.0
 30
0.0
  9
$PUCSNAME
  2

  9
$PUCSORG
 10
0.0
 20
0.0
 30
0.0
  9
$PUCSXDIR
 10
1.0
 20
0.0
 30
0.0
  9
$PUCSYDIR
 10
0.0
 20
1.0
 30
0.0
  9
$USERI1
 70
     0
  9
$USERI2
 70
     0
  9
$USERI3
 70
     0
  9
$USERI4
 70
     0
  9
$USERI5
 70
     0
  9
$USERR1
 40
0.0
  9
$USERR2
 40
0.0
  9
$USERR3
 40
0.0
  9
$USERR4
 40
0.0
  9
$USERR5
 40
0.0
  9
$WORLDVIEW
 70
     1
  9
$SHADEDGE
 70
     3
  9
$SHADEDIF
 70
    70
  9
$TILEMODE
 70
     1
  9
$MAXACTVP
 70
    64
  9
$PLIMCHECK
 70
     0
  9
$PEXTMIN
 10
1.0000000000000000E+20
 20
1.0000000000000000E+20
 30
1.0000000000000000E+20
  9
$PEXTMAX
 10
-1.0000000000000000E+20
 20
-1.0000000000000000E+20
 30
-1.0000000000000000E+20
  9
$PLIMMIN
 10
0.0
 20
0.0
  9
$PLIMMAX
 10
12.0
 20
9.0
  9
$UNITMODE
 70
     0
  9
$VISRETAIN
 70
     1
  9
$PLINEGEN
 70
     0
  9
$PSLTSCALE
 70
     1
  0
ENDSEC
  0
SECTION
  2
TABLES
  0
TABLE
  2
VPORT
 70
     1
  0
VPORT
  2
*ACTIVE
 70
     0
 10
0.0
 20
0.0
 11
1.0
 21
1.0
 12
801.0097891395932947
 22
82.0776479575595772
 13
0.0
 23
0.0
 14
1.0
 24
1.0
 15
0.0
 25
0.0
 16
0.0
 26
0.0
 36
17.1152628219792007
 17
3803.5440673828129547
 27
125.9952621967499056
 37
0.0
 40
108.099646720720699
 41
2.0416666666666661
 42
50.0
 43
0.0
 44
0.0
 50
0.0
 51
0.0
 71
     0
 72
   100
 73
     1
 74
     1
 75
     0
 76
     0
 77
     0
 78
     0
  0
ENDTAB
  0
TABLE
  2
LTYPE
 70
     2
  0
LTYPE
  2
CONTINUOUS
 70
     0
  3
Solid line
 72
    65
 73
     0
 40
0.0
  0
LTYPE
  2
PHANTOM2
 70
     0
  3
___ _ _ ___ _ _ ___ _ _ ___ _ _
 72
    65
 73
     6
 40
1.25
 49
0.625
 49
-0.125
 49
0.125
 49
-0.125
 49
0.125
 49
-0.125
  0
ENDTAB
  0
TABLE
  2
LAYER
 70
     2
  0
LAYER
  2
0
 70
     0
 62
   255
  6
CONTINUOUS
  0
LAYER
  2
DEFPOINTS
 70
     0
 62
     7
  6
CONTINUOUS
  0
ENDTAB
  0
TABLE
  2
STYLE
 70
     1
  0
STYLE
  2
STANDARD
 70
     0
 40
0.0
 41
0.8
 50
0.0
 71
     0
 42
0.2
  3
txt
  4

  0
ENDTAB
  0
TABLE
  2
VIEW
 70
     0
  0
ENDTAB
  0
TABLE
  2
UCS
 70
     0
  0
ENDTAB
  0
TABLE
  2
APPID
 70
     9
  0
APPID
  2
ACAD
 70
     0
  0
APPID
  2
ACAD_MLEADERVER
 70
     0
  0
APPID
  2
ACAD_EXEMPT_FROM_CAD_STANDARDS
 70
     0
  0
APPID
  2
ACAD_NAV_VCDISPLAY
 70
     0
  0
APPID
  2
ACAECLAYERSTANDARD
 70
     0
  0
APPID
  2
ACCMTRANSPARENCY
 70
     0
  0
APPID
  2
ACAD_DSTYLE_DIMJAG
 70
     0
  0
APPID
  2
ACAD_DSTYLE_DIMTALN
 70
     0
  0
APPID
  2
ACDBATTR
 70
     0
  0
ENDTAB
  0
TABLE
  2
DIMSTYLE
 70
     1
  0
DIMSTYLE
  2
STANDARD
 70
     0
  3

  4

  5

  6

  7

 40
1.0
 41
0.1875
 42
0.0625
 43
0.38
 44
0.125
 45
0.0
 46
0.0
 47
0.01
 48
0.01
140
0.15625
141
0.09
142
0.0
143
25.3999999999999986
144
1.0
145
0.0
146
1.0
147
0.09
 71
     1
 72
     0
 73
     1
 74
     1
 75
     0
 76
     0
 77
     0
 78
     4
170
     0
171
     2
172
     0
173
     0
174
     0
175
     0
176
     0
177
     0
178
     0
  0
ENDTAB
  0
ENDSEC
  0
SECTION
  2
BLOCKS
  0
BLOCK
  8
0
  2
$MODEL_SPACE
 70
     0
 10
0.0
 20
0.0
 30
0.0
  3
$MODEL_SPACE
  1

  0
ENDBLK
  5
21
  8
0
  0
BLOCK
 67
     1
  8
0
  2
$PAPER_SPACE
 70
     0
 10
0.0
 20
0.0
 30
0.0
  3
$PAPER_SPACE
  1

  0
ENDBLK
  5
1D
 67
     1
  8
0
  0
BLOCK
  8
0
  2
_FILLED
 70
     0
 10
0.0
 20
0.0
 30
0.0
  3
_FILLED
  1

  0
SOLID
  5
C56D
  8
0
  6
BYBLOCK
 62
     0
 10
0.0
 20
0.0
 30
0.0
 11
-1.0
 21
0.1666666667
 31
0.0
 12
-1.0
 22
-0.1666666667
 32
0.0
 13
-1.0
 23
-0.1666666667
 33
0.0
  0
ENDBLK
  5
C56E
  8
0
  6
BYBLOCK
 62
     0
  0
ENDSEC
  0
SECTION
  2
ENTITIES
  0
ATTDEF
  5
3930
  8
DEFPOINTS
 10
4601.3298367969628089
 20
234.559948552608887
 30
0.0
 40
0.001
  1
32029
  3

  2
MODELNUMBER
 70
     0
1001
ACDBATTR
1070
     0
1070
     1
  0
ATTDEF
  5
3931
  8
DEFPOINTS
 10
4601.3298367969628089
 20
234.5582818859421934
 30
0.0
 40
0.001
  1

  3

  2
TRADENAME
 70
     0
1001
ACDBATTR
1070
     0
1070
     1
  0
ATTDEF
  5
3932
  8
DEFPOINTS
 10
4601.3298367969628089
 20
234.5566152192754998
 30
0.0
 40
0.001
  1
KITCHEN SINK
  3

  2
PRODUCT
 70
     0
1001
ACDBATTR
1070
     0
1070
     1
  0
LINE
  5
FDEF
  8
0
 10
4589.8363565937379462
 20
243.3078959032671946
 30
0.0
 11
4589.8363565937379462
 21
225.8078959032671946
 31
0.0
  0
LINE
  5
FDF0
  8
0
 10
4590.6633565937381718
 20
226.3848959032671928
 30
0.0
 11
4590.6633565937381718
 21
242.7308959032671964
 31
0.0
  0
LINE
  5
FDF1
  8
0
 10
4590.0863565937370367
 20
243.5578959032671946
 30
0.0
 11
4612.5863565937370367
 21
243.5578959032671946
 31
0.0
  0
LINE
  5
FDF2
  8
0
 10
4590.0863565937370367
 20
225.5578959032671946
 30
0.0
 11
4612.5863565937370367
 21
225.5578959032671946
 31
0.0
  0
ARC
  5
FDF3
  8
0
 10
4590.0863565937370367
 20
243.3078959032671946
 30
0.0
 40
0.25
 50
90.0
 51
180.0000000000015916
  0
ARC
  5
FDF4
  8
0
 10
4590.0863565937370367
 20
225.8078959032671946
 30
0.0
 40
0.25
 50
180.0
 51
270.0
  0
LINE
  5
FDF5
  8
0
 10
4590.6633565937381718
 20
242.7308959032671964
 30
0.0
 11
4612.0093565937377207
 21
242.7308959032671964
 31
0.0
  0
LINE
  5
FDF6
  8
0
 10
4590.6633565937381718
 20
226.3848959032671928
 30
0.0
 11
4612.0093565937377207
 21
226.3848959032671928
 31
0.0
  0
ARC
  5
FDF7
  8
0
 10
4601.33632562713683
 20
234.5565021262671905
 30
0.0
 40
0.31
 50
89.9942765952112609
 51
270.0057234047886823
  0
ARC
  5
FDF8
  8
0
 10
4601.33632562713683
 20
234.5565021262671905
 30
0.0
 40
0.2760925586
 50
89.9935736931714843
 51
270.0064263068284731
  0
ARC
  5
FDF9
  8
0
 10
4601.33632562713683
 20
234.5565021262671905
 30
0.0
 40
2.25
 50
89.999211442018364
 51
270.0007885579815934
  0
ARC
  5
FDFA
  8
0
 10
4601.33632562713683
 20
234.5565021262671905
 30
0.0
 40
1.6780895467000001
 50
89.9989426932093579
 51
270.0010573067905852
  0
LINE
  5
FDFB
  8
0
 10
4590.6633565937381718
 20
242.7308959032671964
 30
0.0
 11
4599.5511878106290169
 21
235.9260943926257994
 31
0.0
  0
LINE
  5
FDFC
  8
0
 10
4590.6633565937381718
 20
226.3848959032671928
 30
0.0
 11
4599.5483286385424435
 21
233.1906446048637918
 31
0.0
  0
LINE
  5
FDFE
  8
0
 10
4612.8363565937379462
 20
243.3078959032671946
 30
0.0
 11
4612.8363565937379462
 21
225.8078959032671946
 31
0.0
  0
LINE
  5
FDFF
  8
0
 10
4612.0093565937377207
 20
226.3848959032671928
 30
0.0
 11
4612.0093565937377207
 21
242.7308959032671964
 31
0.0
  0
ARC
  5
FE00
  8
0
 10
4612.5863565937370367
 20
243.3078959032671946
 30
0.0
 40
0.25
 50
359.9999999999984084
 51
90.0
  0
ARC
  5
FE01
  8
0
 10
4612.5863565937370367
 20
225.8078959032671946
 30
0.0
 40
0.25
 50
270.0
 51
0.0
  0
ARC
  5
FE02
  8
0
 10
4601.336387560338153
 20
234.5565021262671905
 30
0.0
 40
0.31
 50
269.994276595211204
 51
90.0057234047887249
  0
ARC
  5
FE03
  8
0
 10
4601.336387560338153
 20
234.5565021262671905
 30
0.0
 40
0.2760925586
 50
269.9935736931715269
 51
90.0064263068285157
  0
ARC
  5
FE04
  8
0
 10
4601.336387560338153
 20
234.5565021262671905
 30
0.0
 40
2.25
 50
269.9992114420184066
 51
90.000788557981636
  0
ARC
  5
FE05
  8
0
 10
4601.336387560338153
 20
234.5565021262671905
 30
0.0
 40
1.6780895467000001
 50
269.9989426932093011
 51
90.0010573067906563
  0
LINE
  5
FE06
  8
0
 10
4612.0093565937377207
 20
242.7308959032671964
 30
0.0
 11
4603.1215253768468756
 21
235.9260943926257994
 31
0.0
  0
LINE
  5
FE07
  8
0
 10
4612.0093565937377207
 20
226.3848959032671928
 30
0.0
 11
4603.124384548933449
 21
233.1906446048637918
 31
0.0
  0
ENDSEC
  0
EOF
