  0
SECTION
  2
HEADER
  9
$ACADVER
  1
AC1009
  9
$INSBASE
 10
4903.5701257335176706
 20
2.191118639026115
 30
0.0
  9
$EXTMIN
 10
4890.1501775136566721
 20
-17.1598386409946215
 30
-0.0015258207003583
  9
$EXTMAX
 10
4917.1891540862779948
 20
21.541877747174901
 30
0.0000000349246037
  9
$LIMMIN
 10
0.0
 20
0.0
  9
$LIMMAX
 10
11.6929133858000007
 20
8.2677165353999982
  9
$ORTHOMODE
 70
     0
  9
$REGENMODE
 70
     1
  9
$FILLMODE
 70
     1
  9
$QTEXTMODE
 70
     0
  9
$MIRRTEXT
 70
     0
  9
$DRAGMODE
 70
     2
  9
$LTSCALE
 40
0.6431102362
  9
$OSMODE
 70
  3839
  9
$ATTMODE
 70
     1
  9
$TEXTSIZE
 40
0.2
  9
$TRACEWID
 40
0.05
  9
$TEXTSTYLE
  7
STANDARD
  9
$CLAYER
  8
0
  9
$CELTYPE
  6
BYLAYER
  9
$CECOLOR
 62
   256
  9
$DIMSCALE
 40
1.0
  9
$DIMASZ
 40
0.1875
  9
$DIMEXO
 40
0.0625
  9
$DIMDLI
 40
0.4443307087
  9
$DIMRND
 40
0.0
  9
$DIMDLE
 40
0.0
  9
$DIMEXE
 40
0.125
  9
$DIMTP
 40
0.01
  9
$DIMTM
 40
0.01
  9
$DIMTXT
 40
2.0
  9
$DIMCEN
 40
0.1052362205
  9
$DIMTSZ
 40
0.0
  9
$DIMTOL
 70
     1
  9
$DIMLIM
 70
     0
  9
$DIMTIH
 70
     1
  9
$DIMTOH
 70
     1
  9
$DIMSE1
 70
     0
  9
$DIMSE2
 70
     0
  9
$DIMTAD
 70
     0
  9
$DIMZIN
 70
     0
  9
$DIMBLK
  1

  9
$DIMASO
 70
     1
  9
$DIMSHO
 70
     1
  9
$DIMPOST
  1
\X
  9
$DIMAPOST
  1

  9
$DIMALT
 70
     1
  9
$DIMALTD
 70
     2
  9
$DIMALTF
 40
25.3999999999999986
  9
$DIMLFAC
 40
1.0
  9
$DIMTOFL
 70
     0
  9
$DIMTVP
 40
0.0
  9
$DIMTIX
 70
     0
  9
$DIMSOXD
 70
     0
  9
$DIMSAH
 70
     0
  9
$DIMBLK1
  1

  9
$DIMBLK2
  1

  9
$DIMSTYLE
  2
STANDARD
  9
$DIMCLRD
 70
     0
  9
$DIMCLRE
 70
     0
  9
$DIMCLRT
 70
     0
  9
$DIMTFAC
 40
1.0
  9
$DIMGAP
 40
0.09
  9
$LUNITS
 70
     2
  9
$LUPREC
 70
     4
  9
$SKETCHINC
 40
0.1
  9
$FILLETRAD
 40
0.0
  9
$AUNITS
 70
     0
  9
$AUPREC
 70
     0
  9
$MENU
  1
.
  9
$ELEVATION
 40
0.0
  9
$PELEVATION
 40
0.0
  9
$THICKNESS
 40
0.0
  9
$LIMCHECK
 70
     0
  9
$BLIPMODE
 70
     0
  9
$CHAMFERA
 40
0.0
  9
$CHAMFERB
 40
0.0
  9
$SKPOLY
 70
     0
  9
$TDCREATE
 40
2458060.468368056230247
  9
$TDUPDATE
 40
2460508.4556481479667127
  9
$TDINDWG
 40
0.5553774306
  9
$TDUSRTIMER
 40
0.5553774306
  9
$USRTIMER
 70
     1
  9
$ANGBASE
 50
0.0
  9
$ANGDIR
 70
     0
  9
$PDMODE
 70
     0
  9
$PDSIZE
 40
0.3125
  9
$PLINEWID
 40
0.0
  9
$COORDS
 70
     1
  9
$SPLFRAME
 70
     0
  9
$SPLINETYPE
 70
     6
  9
$SPLINESEGS
 70
     8
  9
$ATTDIA
 70
     1
  9
$ATTREQ
 70
     1
  9
$HANDLING
 70
     1
  9
$HANDSEED
  5
23846
  9
$SURFTAB1
 70
     6
  9
$SURFTAB2
 70
     6
  9
$SURFTYPE
 70
     6
  9
$SURFU
 70
     6
  9
$SURFV
 70
     6
  9
$UCSNAME
  2

  9
$UCSORG
 10
0.0
 20
0.0
 30
0.0
  9
$UCSXDIR
 10
1.0
 20
0.0
 30
0.0
  9
$UCSYDIR
 10
0.0
 20
1.0
 30
0.0
  9
$PUCSNAME
  2

  9
$PUCSORG
 10
0.0
 20
0.0
 30
0.0
  9
$PUCSXDIR
 10
1.0
 20
0.0
 30
0.0
  9
$PUCSYDIR
 10
0.0
 20
1.0
 30
0.0
  9
$USERI1
 70
     0
  9
$USERI2
 70
     0
  9
$USERI3
 70
     0
  9
$USERI4
 70
     0
  9
$USERI5
 70
     0
  9
$USERR1
 40
0.0
  9
$USERR2
 40
0.0
  9
$USERR3
 40
0.0
  9
$USERR4
 40
0.0
  9
$USERR5
 40
0.0
  9
$WORLDVIEW
 70
     1
  9
$SHADEDGE
 70
     3
  9
$SHADEDIF
 70
    70
  9
$TILEMODE
 70
     1
  9
$MAXACTVP
 70
    64
  9
$PLIMCHECK
 70
     0
  9
$PEXTMIN
 10
1.0000000000000000E+20
 20
1.0000000000000000E+20
 30
1.0000000000000000E+20
  9
$PEXTMAX
 10
-1.0000000000000000E+20
 20
-1.0000000000000000E+20
 30
-1.0000000000000000E+20
  9
$PLIMMIN
 10
0.0
 20
0.0
  9
$PLIMMAX
 10
12.0
 20
9.0
  9
$UNITMODE
 70
     0
  9
$VISRETAIN
 70
     1
  9
$PLINEGEN
 70
     0
  9
$PSLTSCALE
 70
     1
  0
ENDSEC
  0
SECTION
  2
TABLES
  0
TABLE
  2
VPORT
 70
     1
  0
VPORT
  2
*ACTIVE
 70
     0
 10
0.0
 20
0.0
 11
1.0
 21
1.0
 12
1111.3117556437171061
 22
-117.989636880015297
 13
0.0
 23
0.0
 14
1.0
 24
1.0
 15
0.0
 25
0.0
 16
0.0
 26
0.0
 36
5.1040778033513332
 17
3792.35791015625
 27
120.1806564331053977
 37
0.0
 40
38.9788169828342177
 41
2.2831541218637992
 42
50.0
 43
0.0
 44
0.0
 50
0.0
 51
0.0
 71
     0
 72
   100
 73
     1
 74
     1
 75
     0
 76
     0
 77
     0
 78
     0
  0
ENDTAB
  0
TABLE
  2
LTYPE
 70
     2
  0
LTYPE
  2
CONTINUOUS
 70
     0
  3
Solid line
 72
    65
 73
     0
 40
0.0
  0
LTYPE
  2
PHANTOM2
 70
     0
  3
___ _ _ ___ _ _ ___ _ _ ___ _ _
 72
    65
 73
     6
 40
1.25
 49
0.625
 49
-0.125
 49
0.125
 49
-0.125
 49
0.125
 49
-0.125
  0
ENDTAB
  0
TABLE
  2
LAYER
 70
     2
  0
LAYER
  2
0
 70
     0
 62
   255
  6
CONTINUOUS
  0
LAYER
  2
DEFPOINTS
 70
     0
 62
     7
  6
CONTINUOUS
  0
ENDTAB
  0
TABLE
  2
STYLE
 70
     1
  0
STYLE
  2
STANDARD
 70
     0
 40
0.0
 41
0.8
 50
0.0
 71
     0
 42
0.2
  3
txt
  4

  0
ENDTAB
  0
TABLE
  2
VIEW
 70
     0
  0
ENDTAB
  0
TABLE
  2
UCS
 70
     0
  0
ENDTAB
  0
TABLE
  2
APPID
 70
     9
  0
APPID
  2
ACAD
 70
     0
  0
APPID
  2
ACAD_MLEADERVER
 70
     0
  0
APPID
  2
ACAD_EXEMPT_FROM_CAD_STANDARDS
 70
     0
  0
APPID
  2
ACAD_NAV_VCDISPLAY
 70
     0
  0
APPID
  2
ACAECLAYERSTANDARD
 70
     0
  0
APPID
  2
ACCMTRANSPARENCY
 70
     0
  0
APPID
  2
ACAD_DSTYLE_DIMJAG
 70
     0
  0
APPID
  2
ACAD_DSTYLE_DIMTALN
 70
     0
  0
APPID
  2
ACDBATTR
 70
     0
  0
ENDTAB
  0
TABLE
  2
DIMSTYLE
 70
     1
  0
DIMSTYLE
  2
STANDARD
 70
     0
  3

  4

  5

  6

  7

 40
1.0
 41
0.1875
 42
0.0625
 43
0.38
 44
0.125
 45
0.0
 46
0.0
 47
0.01
 48
0.01
140
0.15625
141
0.09
142
0.0
143
25.3999999999999986
144
1.0
145
0.0
146
1.0
147
0.09
 71
     1
 72
     0
 73
     1
 74
     1
 75
     0
 76
     0
 77
     0
 78
     4
170
     0
171
     2
172
     0
173
     0
174
     0
175
     0
176
     0
177
     0
178
     0
  0
ENDTAB
  0
ENDSEC
  0
SECTION
  2
BLOCKS
  0
BLOCK
  8
0
  2
$MODEL_SPACE
 70
     0
 10
0.0
 20
0.0
 30
0.0
  3
$MODEL_SPACE
  1

  0
ENDBLK
  5
21
  8
0
  0
BLOCK
 67
     1
  8
0
  2
$PAPER_SPACE
 70
     0
 10
0.0
 20
0.0
 30
0.0
  3
$PAPER_SPACE
  1

  0
ENDBLK
  5
1D
 67
     1
  8
0
  0
BLOCK
  8
0
  2
_FILLED
 70
     0
 10
0.0
 20
0.0
 30
0.0
  3
_FILLED
  1

  0
SOLID
  5
22866
  8
0
  6
BYBLOCK
 62
     0
 10
0.0
 20
0.0
 30
0.0
 11
-1.0
 21
0.1666666667
 31
0.0
 12
-1.0
 22
-0.1666666667
 32
0.0
 13
-1.0
 23
-0.1666666667
 33
0.0
  0
ENDBLK
  5
22867
  8
0
  6
BYBLOCK
 62
     0
  0
ENDSEC
  0
SECTION
  2
ENTITIES
  0
ATTDEF
  5
22EF2
  8
DEFPOINTS
 10
4903.57056876068782
 20
2.1954444066149099
 30
0.0
 40
0.001
  1
K-32317
  3

  2
MODELNUMBER
 70
     0
1001
ACDBATTR
1070
     0
1070
     1
  0
ATTDEF
  5
22EF3
  8
DEFPOINTS
 10
4903.57056876068782
 20
2.1937777399482452
 30
0.0
 40
0.001
  1
LANDSHAPES
  3

  2
TRADENAME
 70
     0
1001
ACDBATTR
1070
     0
1070
     1
  0
ATTDEF
  5
22EF4
  8
DEFPOINTS
 10
4903.57056876068782
 20
2.1921110732815801
 30
0.0
 40
0.001
  1
MIRROR
  3

  2
PRODUCT
 70
     0
1001
ACDBATTR
1070
     0
1070
     1
  0
ARC
  5
2347A
  8
0
 10
4885.1392754246562617
 20
19.2828585160392088
 30
0.0
 40
11.32423901602575
 50
324.2208054962928827
 51
337.2358554068393914
  0
ARC
  5
2347B
  8
0
 10
4941.3291110437312454
 20
-4.2958075221887366
 30
0.0
 40
49.6122124645207165
 50
154.3330900475816065
 51
157.2358554068395051
  0
ARC
  5
2347C
  8
0
 10
4906.056467926347068
 20
12.65468686535797
 30
0.0
 40
10.4781018643223192
 50
142.0761244237905885
 51
154.3330900475816065
  0
ARC
  5
2347D
  8
0
 10
4902.6896368894604166
 20
14.9503243477381105
 30
0.0
 40
6.4165269497886852
 50
110.8430214348396987
 51
139.7678005996266108
  0
ARC
  5
2347E
  8
0
 10
4903.698766220840298
 20
12.3232399270619002
 30
0.0
 40
9.2307526130970636
 50
102.1404591555316017
 51
110.8948561836795932
  0
ARC
  5
2347F
  8
0
 10
4904.2958184076132966
 20
4.764044091918052
 30
0.0
 40
16.7766455199916003
 50
81.5137148597042227
 51
98.7024636684135004
  0
ARC
  5
23480
  8
0
 10
4905.8787181652678555
 20
13.9472584026420297
 30
0.0
 40
7.4633491585394864
 50
66.0540731593554682
 51
83.128987003280173
  0
ARC
  5
23481
  8
0
 10
4907.1211967169565469
 20
16.8778224958290899
 30
0.0
 40
4.2810711658730654
 50
36.5546071475412404
 51
65.3326347470609363
  0
ARC
  5
23482
  8
0
 10
4906.4793694891286577
 20
16.5163020621642396
 30
0.0
 40
5.0128034918439761
 50
16.3067464089441216
 51
35.5046056140380131
  0
ARC
  5
23483
  8
0
 10
4915.6702469733572798
 20
19.1597482510994404
 30
0.0
 40
4.5507796047867259
 50
195.7589866247195971
 51
214.4243881374335956
  0
ARC
  5
23484
  8
0
 10
4915.2099209780208184
 20
19.2061076110792683
 30
0.0
 40
4.2078757987686011
 50
218.4918832841169944
 51
246.2243613180170883
  0
ARC
  5
23485
  8
0
 10
4916.7990369448825732
 20
22.3515192593078886
 30
0.0
 40
7.7292441406610877
 50
244.8442709282927865
 51
257.6326923952652805
  0
ARC
  5
23486
  8
0
 10
4914.4397485864619739
 20
12.1774247500797195
 30
0.0
 40
2.7169633843829919
 50
33.3314741856928833
 51
74.9857576167074171
  0
ARC
  5
23487
  8
0
 10
4914.7405723410911378
 20
12.7261800889320007
 30
0.0
 40
2.1838627642240458
 50
338.9012105736828175
 51
25.6160248150674406
  0
ARC
  5
23488
  8
0
 10
4914.2732913538893627
 20
12.7030402213252192
 30
0.0
 40
2.6183760167603549
 50
310.0629105071485014
 51
343.0580736027744138
  0
ARC
  5
23489
  8
0
 10
4917.4689409652492031
 20
6.007412318128722
 30
0.0
 40
4.890622172906828
 50
137.416096014212286
 51
162.1799656331855886
  0
ARC
  5
2348A
  8
0
 10
4916.4079029012764295
 20
6.8202530086039346
 30
0.0
 40
3.5613742190569031
 50
121.8971642172487009
 51
135.4934068100830018
  0
ARC
  5
2348B
  8
0
 10
4917.4655620329267549
 20
5.1208650808522798
 30
0.0
 40
5.5630140887019239
 50
115.8530412170465951
 51
121.8971642172487009
  0
ARC
  5
2348C
  8
0
 10
4912.8008403608191657
 20
14.7475519388901404
 30
0.0
 40
5.1343093214296074
 50
295.8530412170464956
 51
307.9535019204158175
  0
ARC
  5
2348D
  8
0
 10
4919.5168096572961076
 20
5.2507097357861641
 30
0.0
 40
7.0724320906244671
 50
161.4209159669302096
 51
185.8563844570979882
  0
ARC
  5
2348E
  8
0
 10
4926.2560662801952276
 20
5.9419596249252677
 30
0.0
 40
13.8470469312269202
 50
185.8563844570979882
 51
200.1526947898341859
  0
ARC
  5
2348F
  8
0
 10
4852.5182151434300977
 20
-21.11918625970943
 30
0.0
 40
64.699603582065194
 50
16.4808709417534907
 51
20.1526947898160884
  0
ARC
  5
23490
  8
0
 10
4897.9915520002032281
 20
-7.6658826491806087
 30
0.0
 40
17.2779234881805905
 50
3.8046553144306352
 51
16.4808709417534907
  0
ARC
  5
23491
  8
0
 10
4908.0218002847850585
 20
-6.9988557301334993
 30
0.0
 40
7.2255205137131338
 50
343.6182544121838873
 51
3.8046553144306352
  0
ARC
  5
23492
  8
0
 10
4909.120362117422701
 20
-6.948703573488344
 30
0.0
 40
6.1960488800966358
 50
324.0489960314022255
 51
340.3063944404958079
  0
ARC
  5
23493
  8
0
 10
4919.190520749884854
 20
-14.2672204752661003
 30
0.0
 40
6.2526030907901484
 50
143.9357425700995918
 51
161.6991737528182114
  0
ARC
  5
23494
  8
0
 10
4904.1740292573012994
 20
-9.8534777061207972
 30
0.0
 40
9.4049626721480344
 50
333.4601056476766985
 51
344.8977802632047087
  0
ARC
  5
23495
  8
0
 10
4907.6690821542433696
 20
-11.0384615028854896
 30
0.0
 40
5.7705682097074122
 50
299.9421763420273237
 51
328.4739595411987807
  0
ARC
  5
23496
  8
0
 10
4906.7714094603761623
 20
-10.74689614397243
 30
0.0
 40
6.5020901490211722
 50
282.173067695222187
 51
305.5230458774371982
  0
ARC
  5
23497
  8
0
 10
4907.4918058728007964
 20
-13.3277633870296004
 30
0.0
 40
3.8306889468278298
 50
247.1253401674593135
 51
279.7794995328662253
  0
ARC
  5
23498
  8
0
 10
4903.2098039151851481
 20
-22.4058930067982907
 30
0.0
 40
6.2119720168409032
 50
63.2814879186240304
 51
87.1905782087010266
  0
ARC
  5
23499
  8
0
 10
4904.1209726187753404
 20
29.0104294175007915
 30
0.0
 40
45.2158870542908886
 50
265.8777907988333027
 51
269.2311970534582883
  0
ARC
  5
2349A
  8
0
 10
4894.2800328970879491
 20
-58.2155366920727388
 30
0.0
 40
42.6394780171428565
 50
81.1083406106108242
 51
83.8503057754038252
  0
ARC
  5
2349B
  8
0
 10
4898.5363852572536416
 20
-20.4580764378115312
 30
0.0
 40
4.6470942078240762
 50
86.1569682977978601
 51
111.2721981834033045
  0
ARC
  5
2349C
  8
0
 10
4888.7810724039209163
 20
3.1275730857568931
 30
0.0
 40
20.8776472887839901
 50
288.0589942781779769
 51
292.7373120190421787
  0
ARC
  5
2349D
  8
0
 10
4894.5547176587615468
 20
-14.7521686009581696
 30
0.0
 40
2.089576123640831
 50
241.4909766076087863
 51
289.5241081137996275
  0
ARC
  5
2349E
  8
0
 10
4894.6361301583619934
 20
-14.8222053730666108
 30
0.0
 40
2.069553584371246
 50
204.3584195568537893
 51
238.5836547212666972
  0
ARC
  5
2349F
  8
0
 10
4896.8003864118327328
 20
-14.0845965626156993
 30
0.0
 40
4.3509768255686376
 50
184.2846951971338001
 51
201.4510976705205962
  0
ARC
  5
234A0
  8
0
 10
4881.9977742763958304
 20
-14.6701930141605708
 30
0.0
 40
10.4670384750268894
 50
1.426239955287439
 51
13.3258285803260996
  0
ARC
  5
234A1
  8
0
 10
4905.9399901707884055
 20
-9.1169510724908847
 30
0.0
 40
14.1109588776672599
 50
184.2730277260478999
 51
192.8601709594726969
  0
ARC
  5
234A2
  8
0
 10
4886.0668262732951916
 20
-10.8463520265591598
 30
0.0
 40
5.8409131841968218
 50
6.6658253470440121
 51
22.6489951931734801
  0
ARC
  5
234A3
  8
0
 10
4836.865303029385359
 20
-34.4173593793184409
 30
0.0
 40
60.3901575821516801
 50
25.3126404919687396
 51
27.0157498981481403
  0
ARC
  5
234A4
  8
0
 10
4894.3709652055849801
 20
-5.1049941243818244
 30
0.0
 40
4.155304728011247
 50
180.4962934290811916
 51
206.9156671570601986
  0
ARC
  5
234A5
  8
0
 10
4895.5512972531523701
 20
-5.2144220110063397
 30
0.0
 40
5.3359862333676737
 50
164.454502842758103
 51
179.2114551901919128
  0
ARC
  5
234A6
  8
0
 10
4770.3449825929392318
 20
31.69046628629021
 30
0.0
 40
125.1966240689101966
 50
343.5395819111865876
 51
344.8859539390136888
  0
ARC
  5
234A7
  8
0
 10
4874.1900981876133301
 20
3.5424543237502069
 30
0.0
 40
17.6045666784413584
 50
345.2037282671195726
 51
3.0517221979228131
  0
ARC
  5
234A8
  8
0
 10
4916.7081673207585482
 20
5.6481636496012344
 30
0.0
 40
24.9658274246508398
 50
174.9018204558558978
 51
182.682621902595514
  0
ARC
  5
234A9
  8
0
 10
4898.1126126605840909
 20
7.2830987014108217
 30
0.0
 40
6.2985998363220181
 50
141.788783869447002
 51
174.683654674594294
  0
ARC
  5
234AA
  8
0
 10
4820.0857390505179865
 20
69.6820139632472575
 30
0.0
 40
93.6106438112498154
 50
321.3208021665690808
 51
322.4741729197996847
  0
ARC
  5
234AB
  8
0
 10
4921.0631527848590849
 20
-1.710823451351553
 30
0.0
 40
26.8540395875764801
 50
148.6777676034728017
 51
152.2260520571298912
  0
ARC
  5
234AC
  8
0
 10
4902.830956169473211
 20
9.1282150214368514
 30
0.0
 40
5.6486088709454458
 50
120.1843858562181993
 51
146.4589406210428137
  0
ARC
  5
234AD
  8
0
 10
4903.5784761036902637
 20
8.9508665672172398
 30
0.0
 40
6.2028114309685813
 50
100.8773065137289962
 51
125.3363442679257957
  0
ARC
  5
234AE
  8
0
 10
4899.4806187818367107
 20
27.1910144447275606
 30
0.0
 40
12.4964871141219298
 50
283.5476263430144854
 51
290.6681234038974253
  0
ARC
  5
234AF
  8
0
 10
4905.3191121098107033
 20
9.8854024452926659
 30
0.0
 40
5.7918119260163916
 50
92.4326279311549541
 51
104.2992751362908024
  0
ARC
  5
234B0
  8
0
 10
4905.1203294527831531
 20
11.0975884236440798
 30
0.0
 40
4.5746484354379886
 50
70.2014581826201294
 51
90.5892761271005895
  0
ARC
  5
234B1
  8
0
 10
4903.8504848387392485
 20
8.2961654936934686
 30
0.0
 40
7.6445476554115661
 50
53.4954585519547194
 51
68.3581063785119767
  0
ARC
  5
234B2
  8
0
 10
4906.1284452882373444
 20
10.8888416187007095
 30
0.0
 40
4.2152993508891008
 50
35.640918504048642
 51
57.4226235303332473
  0
ARC
  5
234B3
  8
0
 10
4907.369661113388247
 20
11.8906775361118893
 30
0.0
 40
2.6243840500647928
 50
0.5281320429009783
 51
33.6556346383585421
  0
ARC
  5
234B4
  8
0
 10
4905.940616459967714
 20
11.8703978324094503
 30
0.0
 40
4.0535611525556092
 50
334.1026815973143016
 51
0.6285816669863254
  0
ARC
  5
234B5
  8
0
 10
4891.2481911388767912
 20
19.2738504873385814
 30
0.0
 40
20.5055156523217796
 50
326.9932758667774806
 51
333.4238914036731103
  0
ARC
  5
234B6
  8
0
 10
4911.5097052878263639
 20
6.4319431532575209
 30
0.0
 40
3.491684929895277
 50
151.3935751677522035
 51
192.8285006208066932
  0
ARC
  5
234B7
  8
0
 10
4922.8519745785561099
 20
8.6073599600703723
 30
0.0
 40
15.0391030902070408
 50
191.3148947121117089
 51
203.2418438609352052
  0
ARC
  5
234B8
  8
0
 10
4972.3631405807600459
 20
21.7923061733330989
 30
0.0
 40
66.1530231676091205
 50
196.7993174417212003
 51
200.4446903404515865
  0
ARC
  5
234B9
  8
0
 10
4884.0048998043876054
 20
-11.1523683797061697
 30
0.0
 40
28.1471908852974515
 50
11.3865876119182108
 51
20.4562598908849189
  0
ARC
  5
234BA
  8
0
 10
4903.9871168952404332
 20
-6.2926807128389219
 30
0.0
 40
7.6428449417593454
 50
338.2380279151890932
 51
5.2350897101131197
  0
ARC
  5
234BB
  8
0
 10
4873.1893622964971655
 20
5.084950909158934
 30
0.0
 40
40.4729415489758395
 50
335.1522841967341151
 51
339.4436079924000182
  0
ARC
  5
234BC
  8
0
 10
4901.0475123695396178
 20
-8.0399430411914423
 30
0.0
 40
9.6806388324288708
 50
328.8456505500124081
 51
336.3578642739573183
  0
ARC
  5
234BD
  8
0
 10
4906.9935438955735663
 20
-11.6345157266350405
 30
0.0
 40
2.732528031677234
 50
304.3020858013293832
 51
328.8456505500125218
  0
ARC
  5
234BE
  8
0
 10
4907.3924854807173688
 20
-12.2192964891839999
 30
0.0
 40
2.0246276653798838
 50
276.3190125822688969
 51
304.3020858013293832
  0
ARC
  5
234BF
  8
0
 10
4907.5288389040379116
 20
-10.8659158259122393
 30
0.0
 40
3.3668186626799508
 50
252.3165834578313991
 51
271.4719525450361743
  0
ARC
  5
234C0
  8
0
 10
4905.4682505526443492
 20
-17.6459664085447798
 30
0.0
 40
3.7200352806012931
 50
73.7994257915917871
 51
97.0582318728046687
  0
ARC
  5
234C1
  8
0
 10
4902.59035839920125
 20
-2.3869603888413402
 30
0.0
 40
11.8177586527270098
 50
269.2183615446404019
 51
281.8202905654353003
  0
ARC
  5
234C2
  8
0
 10
4903.0197464813209081
 20
0.1910778679051157
 30
0.0
 40
14.4068081198469997
 50
256.2154139749309252
 51
267.6505178662571893
  0
ARC
  5
234C3
  8
0
 10
4903.4512249545632585
 20
5.8313839664644371
 30
0.0
 40
20.0088606807815097
 50
253.2663756533370929
 51
258.8647617247954145
  0
ARC
  5
234C4
  8
0
 10
4898.759995422135944
 20
-9.5967473511789123
 30
0.0
 40
3.883670802782893
 50
212.221396189366601
 51
254.0109212761020956
  0
ARC
  5
234C5
  8
0
 10
4912.2876779223361154
 20
-2.2736381459767032
 30
0.0
 40
19.2595346132595893
 50
199.0897979355945893
 51
209.1928513723869969
  0
ARC
  5
234C6
  8
0
 10
4842.5508393316822549
 20
-26.6438518338639803
 30
0.0
 40
54.6130005343804612
 50
19.3233531292826193
 51
21.8175966896466988
  0
ARC
  5
234C7
  8
0
 10
4896.6752414524989945
 20
-5.0220574440675341
 30
0.0
 40
3.670613691673422
 50
161.0216189976084991
 51
201.1552407099864013
  0
ARC
  5
234C8
  8
0
 10
4867.524023787974329
 20
5.2621588428735429
 30
0.0
 40
27.2416278264041303
 50
340.5065847184449126
 51
353.1077228404664083
  0
ARC
  5
234C9
  8
0
 10
5608.8240271514241613
 20
-12.2333088166284902
 30
0.0
 40
714.3969015667122449
 50
178.6088289360889974
 51
178.8589452427499964
  0
ARC
  5
234CA
  8
0
 10
4901.4795033038362817
 20
4.6811907596168396
 30
0.0
 40
6.855285779917625
 50
146.3357236161700996
 51
176.4060780167885127
  0
ARC
  5
234CB
  8
0
 10
4953.3995246855438381
 20
-29.8984084141954582
 30
0.0
 40
69.2366716197547305
 50
144.8648601357469943
 51
146.3357236161700996
  0
ARC
  5
234CC
  8
0
 10
4889.447143761107327
 20
15.0369914687170692
 30
0.0
 40
8.9242035122893775
 50
325.2308606111772065
 51
331.6735323280080934
  0
ENDSEC
  0
EOF
