  0
SECTION
  2
HEADER
  9
$ACADVER
  1
AC1009
  9
$INSBASE
 10
4903.569053406014973
 20
2.1901827034065771
 30
0.0
  9
$EXTMIN
 10
4901.2660067592114501
 20
-27.6962720761344094
 30
0.0
  9
$EXTMAX
 10
4903.5812354273566598
 20
32.0766374829475183
 30
0.0
  9
$LIMMIN
 10
0.0
 20
0.0
  9
$LIMMAX
 10
11.6929133858000007
 20
8.2677165353999982
  9
$ORTHOMODE
 70
     0
  9
$REGENMODE
 70
     1
  9
$FILLMODE
 70
     1
  9
$QTEXTMODE
 70
     0
  9
$MIRRTEXT
 70
     0
  9
$DRAGMODE
 70
     2
  9
$LTSCALE
 40
0.6431102362
  9
$OSMODE
 70
  3839
  9
$ATTMODE
 70
     1
  9
$TEXTSIZE
 40
0.2
  9
$TRACEWID
 40
0.05
  9
$TEXTSTYLE
  7
STANDARD
  9
$CLAYER
  8
0
  9
$CELTYPE
  6
BYLAYER
  9
$CECOLOR
 62
   256
  9
$DIMSCALE
 40
1.0
  9
$DIMASZ
 40
0.1875
  9
$DIMEXO
 40
0.0625
  9
$DIMDLI
 40
0.4443307087
  9
$DIMRND
 40
0.0
  9
$DIMDLE
 40
0.0
  9
$DIMEXE
 40
0.125
  9
$DIMTP
 40
0.01
  9
$DIMTM
 40
0.01
  9
$DIMTXT
 40
2.0
  9
$DIMCEN
 40
0.1052362205
  9
$DIMTSZ
 40
0.0
  9
$DIMTOL
 70
     1
  9
$DIMLIM
 70
     0
  9
$DIMTIH
 70
     1
  9
$DIMTOH
 70
     1
  9
$DIMSE1
 70
     0
  9
$DIMSE2
 70
     0
  9
$DIMTAD
 70
     0
  9
$DIMZIN
 70
     0
  9
$DIMBLK
  1

  9
$DIMASO
 70
     1
  9
$DIMSHO
 70
     1
  9
$DIMPOST
  1
\X
  9
$DIMAPOST
  1

  9
$DIMALT
 70
     1
  9
$DIMALTD
 70
     2
  9
$DIMALTF
 40
25.3999999999999986
  9
$DIMLFAC
 40
1.0
  9
$DIMTOFL
 70
     0
  9
$DIMTVP
 40
0.0
  9
$DIMTIX
 70
     0
  9
$DIMSOXD
 70
     0
  9
$DIMSAH
 70
     0
  9
$DIMBLK1
  1

  9
$DIMBLK2
  1

  9
$DIMSTYLE
  2
STANDARD
  9
$DIMCLRD
 70
     0
  9
$DIMCLRE
 70
     0
  9
$DIMCLRT
 70
     0
  9
$DIMTFAC
 40
1.0
  9
$DIMGAP
 40
0.09
  9
$LUNITS
 70
     2
  9
$LUPREC
 70
     4
  9
$SKETCHINC
 40
0.1
  9
$FILLETRAD
 40
0.0
  9
$AUNITS
 70
     0
  9
$AUPREC
 70
     0
  9
$MENU
  1
.
  9
$ELEVATION
 40
0.0
  9
$PELEVATION
 40
0.0
  9
$THICKNESS
 40
0.0
  9
$LIMCHECK
 70
     0
  9
$BLIPMODE
 70
     0
  9
$CHAMFERA
 40
0.0
  9
$CHAMFERB
 40
0.0
  9
$SKPOLY
 70
     0
  9
$TDCREATE
 40
2458060.468368056230247
  9
$TDUPDATE
 40
2460508.4781481479294598
  9
$TDINDWG
 40
0.5559677083
  9
$TDUSRTIMER
 40
0.5559677083
  9
$USRTIMER
 70
     1
  9
$ANGBASE
 50
0.0
  9
$ANGDIR
 70
     0
  9
$PDMODE
 70
     0
  9
$PDSIZE
 40
0.3125
  9
$PLINEWID
 40
0.0
  9
$COORDS
 70
     1
  9
$SPLFRAME
 70
     0
  9
$SPLINETYPE
 70
     6
  9
$SPLINESEGS
 70
     8
  9
$ATTDIA
 70
     1
  9
$ATTREQ
 70
     1
  9
$HANDLING
 70
     1
  9
$HANDSEED
  5
23BF3
  9
$SURFTAB1
 70
     6
  9
$SURFTAB2
 70
     6
  9
$SURFTYPE
 70
     6
  9
$SURFU
 70
     6
  9
$SURFV
 70
     6
  9
$UCSNAME
  2

  9
$UCSORG
 10
0.0
 20
0.0
 30
0.0
  9
$UCSXDIR
 10
1.0
 20
0.0
 30
0.0
  9
$UCSYDIR
 10
0.0
 20
1.0
 30
0.0
  9
$PUCSNAME
  2

  9
$PUCSORG
 10
0.0
 20
0.0
 30
0.0
  9
$PUCSXDIR
 10
1.0
 20
0.0
 30
0.0
  9
$PUCSYDIR
 10
0.0
 20
1.0
 30
0.0
  9
$USERI1
 70
     0
  9
$USERI2
 70
     0
  9
$USERI3
 70
     0
  9
$USERI4
 70
     0
  9
$USERI5
 70
     0
  9
$USERR1
 40
0.0
  9
$USERR2
 40
0.0
  9
$USERR3
 40
0.0
  9
$USERR4
 40
0.0
  9
$USERR5
 40
0.0
  9
$WORLDVIEW
 70
     1
  9
$SHADEDGE
 70
     3
  9
$SHADEDIF
 70
    70
  9
$TILEMODE
 70
     1
  9
$MAXACTVP
 70
    64
  9
$PLIMCHECK
 70
     0
  9
$PEXTMIN
 10
1.0000000000000000E+20
 20
1.0000000000000000E+20
 30
1.0000000000000000E+20
  9
$PEXTMAX
 10
-1.0000000000000000E+20
 20
-1.0000000000000000E+20
 30
-1.0000000000000000E+20
  9
$PLIMMIN
 10
0.0
 20
0.0
  9
$PLIMMAX
 10
12.0
 20
9.0
  9
$UNITMODE
 70
     0
  9
$VISRETAIN
 70
     1
  9
$PLINEGEN
 70
     0
  9
$PSLTSCALE
 70
     1
  0
ENDSEC
  0
SECTION
  2
TABLES
  0
TABLE
  2
VPORT
 70
     1
  0
VPORT
  2
*ACTIVE
 70
     0
 10
0.0
 20
0.0
 11
1.0
 21
1.0
 12
1110.065710937034055
 22
-117.9904737296989055
 13
0.0
 23
0.0
 14
1.0
 24
1.0
 15
0.0
 25
0.0
 16
0.0
 26
0.0
 36
5.1040778033513332
 17
3792.35791015625
 27
120.1806564331053977
 37
0.0
 40
60.2008778852805975
 41
2.2831541218637992
 42
50.0
 43
0.0
 44
0.0
 50
0.0
 51
0.0
 71
     0
 72
   100
 73
     1
 74
     1
 75
     0
 76
     0
 77
     0
 78
     0
  0
ENDTAB
  0
TABLE
  2
LTYPE
 70
     2
  0
LTYPE
  2
CONTINUOUS
 70
     0
  3
Solid line
 72
    65
 73
     0
 40
0.0
  0
LTYPE
  2
PHANTOM2
 70
     0
  3
___ _ _ ___ _ _ ___ _ _ ___ _ _
 72
    65
 73
     6
 40
1.25
 49
0.625
 49
-0.125
 49
0.125
 49
-0.125
 49
0.125
 49
-0.125
  0
ENDTAB
  0
TABLE
  2
LAYER
 70
     2
  0
LAYER
  2
0
 70
     0
 62
   255
  6
CONTINUOUS
  0
LAYER
  2
DEFPOINTS
 70
     0
 62
     7
  6
CONTINUOUS
  0
ENDTAB
  0
TABLE
  2
STYLE
 70
     1
  0
STYLE
  2
STANDARD
 70
     0
 40
0.0
 41
0.8
 50
0.0
 71
     0
 42
0.2
  3
txt
  4

  0
ENDTAB
  0
TABLE
  2
VIEW
 70
     0
  0
ENDTAB
  0
TABLE
  2
UCS
 70
     0
  0
ENDTAB
  0
TABLE
  2
APPID
 70
     9
  0
APPID
  2
ACAD
 70
     0
  0
APPID
  2
ACAD_MLEADERVER
 70
     0
  0
APPID
  2
ACAD_EXEMPT_FROM_CAD_STANDARDS
 70
     0
  0
APPID
  2
ACAD_NAV_VCDISPLAY
 70
     0
  0
APPID
  2
ACAECLAYERSTANDARD
 70
     0
  0
APPID
  2
ACCMTRANSPARENCY
 70
     0
  0
APPID
  2
ACAD_DSTYLE_DIMJAG
 70
     0
  0
APPID
  2
ACAD_DSTYLE_DIMTALN
 70
     0
  0
APPID
  2
ACDBATTR
 70
     0
  0
ENDTAB
  0
TABLE
  2
DIMSTYLE
 70
     1
  0
DIMSTYLE
  2
STANDARD
 70
     0
  3

  4

  5

  6

  7

 40
1.0
 41
0.1875
 42
0.0625
 43
0.38
 44
0.125
 45
0.0
 46
0.0
 47
0.01
 48
0.01
140
0.15625
141
0.09
142
0.0
143
25.3999999999999986
144
1.0
145
0.0
146
1.0
147
0.09
 71
     1
 72
     0
 73
     1
 74
     1
 75
     0
 76
     0
 77
     0
 78
     4
170
     0
171
     2
172
     0
173
     0
174
     0
175
     0
176
     0
177
     0
178
     0
  0
ENDTAB
  0
ENDSEC
  0
SECTION
  2
BLOCKS
  0
BLOCK
  8
0
  2
$MODEL_SPACE
 70
     0
 10
0.0
 20
0.0
 30
0.0
  3
$MODEL_SPACE
  1

  0
ENDBLK
  5
21
  8
0
  0
BLOCK
 67
     1
  8
0
  2
$PAPER_SPACE
 70
     0
 10
0.0
 20
0.0
 30
0.0
  3
$PAPER_SPACE
  1

  0
ENDBLK
  5
1D
 67
     1
  8
0
  0
ENDSEC
  0
SECTION
  2
ENTITIES
  0
ATTDEF
  5
22EF2
  8
DEFPOINTS
 10
4903.57056876068782
 20
2.1954444066149099
 30
0.0
 40
0.001
  1
K-32320
  3

  2
MODELNUMBER
 70
     0
1001
ACDBATTR
1070
     0
1070
     1
  0
ATTDEF
  5
22EF3
  8
DEFPOINTS
 10
4903.57056876068782
 20
2.1937777399482452
 30
0.0
 40
0.001
  1
LANDSHAPES
  3

  2
TRADENAME
 70
     0
1001
ACDBATTR
1070
     0
1070
     1
  0
ATTDEF
  5
22EF4
  8
DEFPOINTS
 10
4903.57056876068782
 20
2.1921110732815801
 30
0.0
 40
0.001
  1
MIRROR
  3

  2
PRODUCT
 70
     0
1001
ACDBATTR
1070
     0
1070
     1
  0
LINE
  5
2391A
  8
0
 10
4903.3036045871149327
 20
-27.4668088142243683
 30
0.0
 11
4903.3036045871149327
 21
31.509474818076729
 31
0.0
  0
ARC
  5
2391B
  8
0
 10
4902.1242823612583379
 20
31.4497107518359904
 30
0.0
 40
1.180835575350685
 50
2.9010748028045081
 51
22.3088612727269116
  0
ARC
  5
2391C
  8
0
 10
4902.9425556071146275
 20
31.7854569169156917
 30
0.0
 40
0.296360255032774
 50
22.3088612727277109
 51
61.3834521927199788
  0
ARC
  5
2391D
  8
0
 10
4902.9390313427829824
 20
31.7366802808851105
 30
0.0
 40
0.3414685099322935
 50
64.7861971237876446
 51
84.6073891460053034
  0
ARC
  5
2391E
  8
0
 10
4903.2630870133743883
 20
30.7562752285285192
 30
0.0
 40
1.3522572775819159
 50
102.4688605242339037
 51
132.4234993914656116
  0
ARC
  5
2391F
  8
0
 10
4904.6150638686331149
 20
28.9410681894737891
 30
0.0
 40
3.61136797581872
 50
128.8268711336619958
 51
148.7205224690098078
  0
ARC
  5
23920
  8
0
 10
4903.0933089658128665
 20
29.9100949080796887
 30
0.0
 40
1.8080772769474369
 50
149.9266468597826076
 51
168.7841880507278063
  0
ARC
  5
23921
  8
0
 10
4902.5677891998402629
 20
30.0143013460339994
 30
0.0
 40
1.2723254630078309
 50
168.7841880507278063
 51
181.7614040822448942
  0
ARC
  5
23922
  8
0
 10
4901.7639185664211254
 20
-25.8766633275296201
 30
0.0
 40
0.4536363878420897
 50
175.2859984215608904
 51
212.0555319434695036
  0
ARC
  5
23923
  8
0
 10
4902.7125968273594481
 20
-25.2946766747320098
 30
0.0
 40
1.566591234317132
 50
211.6806915664649011
 51
224.9191150507892019
  0
ARC
  5
23924
  8
0
 10
4875.1619470273308252
 20
-50.996449262885811
 30
0.0
 40
36.1121518186527979
 50
41.9850075758305508
 51
42.9288019128642091
  0
ARC
  5
23925
  8
0
 10
4958.924631984043117
 20
22.8462461377647799
 30
0.0
 40
75.5550128905840808
 50
221.1180935133999981
 51
221.6348220853228099
  0
ARC
  5
23926
  8
0
 10
4904.3438348546487759
 20
-25.6185925066571585
 30
0.0
 40
2.562844390132252
 50
222.5306775046294945
 51
228.725143906373205
  0
ARC
  5
23927
  8
0
 10
4903.1206742629556175
 20
-27.0121198704292986
 30
0.0
 40
0.7086490534288067
 50
228.725143906373205
 51
252.4399983272668919
  0
ARC
  5
23928
  8
0
 10
4902.9724834654780352
 20
-27.4395262990132913
 30
0.0
 40
0.2567457771211218
 50
255.1937412598543915
 51
303.6979586624802891
  0
ARC
  5
23929
  8
0
 10
4902.8811006311525489
 20
-27.3365723346848384
 30
0.0
 40
0.3935557934723473
 50
306.4517015950551126
 51
345.1071524771173245
  0
ARC
  5
2392A
  8
0
 10
4902.3798497453090022
 20
-27.1583791133713106
 30
0.0
 40
0.9247845598199262
 50
342.4185341516395056
 51
357.2959369958672937
  0
ARC
  5
2392B
  8
0
 10
4903.0825072156067108
 20
-27.5590113195304589
 30
0.0
 40
0.130891405810438
 50
254.4357807028167997
 51
265.870821676376579
  0
ARC
  5
2392C
  8
0
 10
4903.1083361237569989
 20
-27.428127974482571
 30
0.0
 40
0.2638012192876476
 50
262.3201464900492965
 51
277.6798535098988054
  0
ARC
  5
2392D
  8
0
 10
4903.1314797228023963
 20
-27.5218149552813394
 30
0.0
 40
0.1681845740635973
 50
274.129178323623421
 51
314.0057491282548199
  0
ARC
  5
2392E
  8
0
 10
4903.122252000397566
 20
-27.5265750645354501
 30
0.0
 40
0.1714601620205362
 50
317.3306125798733888
 51
344.421412113567726
  0
ARC
  5
2392F
  8
0
 10
4902.9252061943097942
 20
-27.4630526986813912
 30
0.0
 40
0.3784170346077212
 50
343.1691363381970064
 51
359.4312806182302893
  0
ARC
  5
23930
  8
0
 10
4903.3145581927446983
 20
29.7285742213313107
 30
0.0
 40
0.0394005741095168
 50
0.0432470327882207
 51
89.6691182986107549
  0
LINE
  5
23931
  8
0
 10
4903.3539587556297192
 20
29.7286039610045094
 30
0.0
 11
4903.3541558076149158
 21
29.531753666031431
 31
0.0
  0
ARC
  5
23932
  8
0
 10
4903.3146654696429323
 20
29.5318739252038895
 30
0.0
 40
0.0394905210835198
 50
270.1744812043280035
 51
359.8255187956356167
  0
ARC
  5
23933
  8
0
 10
4903.3147032733786546
 20
28.7427106873992209
 30
0.0
 40
0.0395692296437453
 50
354.0214123142876019
 51
89.8806054110826267
  0
LINE
  5
23934
  8
0
 10
4903.3540572816227723
 20
28.7385892835420584
 30
0.0
 11
4903.3541558076149158
 21
28.4605323011483087
 31
0.0
  0
ARC
  5
23935
  8
0
 10
4903.3144929943373427
 20
28.5467660822764202
 30
0.0
 40
0.0400778713464014
 50
270.4185002505734019
 51
352.7942295874743195
  0
ARC
  5
23936
  8
0
 10
4903.3147025083471817
 20
28.4635831053125692
 30
0.0
 40
0.0395710781901749
 50
270.1204967184776251
 51
355.5782900049169939
  0
ARC
  5
23937
  8
0
 10
4903.3147278404267126
 20
25.0538939060669286
 30
0.0
 40
0.0394279869416749
 50
0.0573544647680434
 51
90.0
  0
LINE
  5
23938
  8
0
 10
4903.3541558076149158
 20
25.0539333744314305
 30
0.0
 11
4903.3543528596001124
 21
24.8570830794583415
 31
0.0
  0
ARC
  5
23939
  8
0
 10
4903.3150812414951361
 20
24.8570437676031197
 30
0.0
 40
0.0392716377808961
 50
269.5688545192210199
 51
0.0573544647647865
  0
ARC
  5
2393A
  8
0
 10
4903.2953143144350179
 20
-23.9190229102796614
 30
0.0
 40
0.0394279869416749
 50
0.0573544647680434
 51
78.0086057948455505
  0
LINE
  5
2393B
  8
0
 10
4903.3347422816223116
 20
-23.9189834419151488
 30
0.0
 11
4903.3349393336065987
 21
-24.1158337368882414
 31
0.0
  0
ARC
  5
2393C
  8
0
 10
4903.2956677155034413
 20
-24.1158730487434596
 30
0.0
 40
0.0392716377808961
 50
281.5131622094493764
 51
0.0573544647647865
  0
ARC
  5
2393D
  8
0
 10
4903.2953635774310897
 20
-24.7623952280691206
 30
0.0
 40
0.0394279869416749
 50
0.0573544647680434
 51
78.0086057948455505
  0
LINE
  5
2393E
  8
0
 10
4903.3347915446192928
 20
-24.7623557597046116
 30
0.0
 11
4903.3348900706114364
 21
-25.1778735433342398
 31
0.0
  0
ARC
  5
2393F
  8
0
 10
4903.2957169784976941
 20
-24.9592453665329188
 30
0.0
 40
0.0392716377808961
 50
281.5131622094493764
 51
0.0573544647647865
  0
ARC
  5
23940
  8
0
 10
4903.2954838289597319
 20
-25.1778449174405914
 30
0.0
 40
0.0394062520482602
 50
281.9658145743118212
 51
359.9583786087324029
  0
LINE
  5
23941
  8
0
 10
4903.3036045871149327
 20
-15.2117984075516901
 30
0.0
 11
4903.5493683666154539
 21
-15.2117984075516901
 31
0.0
  0
LINE
  5
23942
  8
0
 10
4903.5493683666154539
 20
-15.2117984075516901
 30
0.0
 11
4903.5493683666154539
 21
17.8619176264314312
 31
0.0
  0
LINE
  5
23943
  8
0
 10
4903.5493683666154539
 20
17.8619176264314312
 30
0.0
 11
4903.3036045871149327
 21
17.8619176264314206
 31
0.0
  0
ARC
  5
23944
  8
0
 10
4903.3147150790164233
 20
18.0427476861099407
 30
0.0
 40
0.0395322081522593
 50
0.000000000010305
 51
89.897604063201598
  0
LINE
  5
23945
  8
0
 10
4903.3542472871677091
 20
18.0427476861099514
 30
0.0
 11
4903.3541558076149158
 21
17.8619176264314206
 31
0.0
  0
ARC
  5
23946
  8
0
 10
4903.314785728643983
 20
19.2783428231606813
 30
0.0
 40
0.0393700788707392
 50
0.0000001029511964
 51
89.9999997515385246
  0
LINE
  5
23947
  8
0
 10
4903.3541558075148714
 20
19.27834282323143
 30
0.0
 11
4903.3541558076149158
 21
19.082331794430079
 31
0.0
  0
ARC
  5
23948
  8
0
 10
4903.3148337125776379
 20
19.0814542083137901
 30
0.0
 40
0.0393318867517753
 50
269.9301007899524052
 51
1.2785085531193481
  0
LINE
  5
23949
  8
0
 10
4903.3036045871149327
 20
23.2942493980314289
 30
0.0
 11
4903.4312581304147898
 21
23.2942493980314289
 31
0.0
  0
ARC
  5
2394A
  8
0
 10
4903.4315443845689515
 20
23.1744452786872515
 30
0.0
 40
0.1198044613245802
 50
0.8101166508240227
 51
90.1368994968806874
  0
LINE
  5
2394B
  8
0
 10
4903.5513368706160691
 20
23.1761391618314292
 30
0.0
 11
4903.5513368706160691
 21
21.3257454610314205
 31
0.0
  0
LINE
  5
2394C
  8
0
 10
4903.5513368706160691
 20
21.3257454610314205
 30
0.0
 11
4903.4903132485151218
 21
21.3257454610314205
 31
0.0
  0
LINE
  5
2394D
  8
0
 10
4903.4903132485151218
 20
21.3257454610314205
 30
0.0
 11
4903.4903132485151218
 21
23.1761391618314292
 31
0.0
  0
ARC
  5
2394E
  8
0
 10
4903.4312581304147898
 20
23.1761391618314292
 30
0.0
 40
0.0590551181000052
 50
359.9999999999969873
 51
90.0
  0
LINE
  5
2394F
  8
0
 10
4903.4312581304147898
 20
23.2351942799314308
 30
0.0
 11
4903.3036045871149327
 21
23.2351942799314415
 31
0.0
  0
ARC
  5
23950
  8
0
 10
4903.0423287469056959
 20
22.2952765561941995
 30
0.0
 40
0.4108449237520856
 50
5.7300447900090212
 51
50.5096988745776727
  0
LINE
  5
23951
  8
0
 10
4903.4511208231151613
 20
22.3362959394314196
 30
0.0
 11
4903.4706438225148304
 21
22.1131470358314211
 31
0.0
  0
LINE
  5
23952
  8
0
 10
4903.4706438225148304
 20
22.1131470358314211
 30
0.0
 11
4903.4903132485151218
 21
22.1131470358314211
 31
0.0
  0
LINE
  5
23953
  8
0
 10
4903.4903132485151218
 20
21.624958059431421
 30
0.0
 11
4903.4863762406139358
 21
21.624958059431421
 31
0.0
  0
ARC
  5
23954
  8
0
 10
4903.4863762406139358
 20
21.664328138131431
 30
0.0
 40
0.0393700787000029
 50
179.9999998544712128
 51
270.0
  0
LINE
  5
23955
  8
0
 10
4903.4470061619149419
 20
21.6643281382314186
 30
0.0
 11
4903.447006162235084
 21
21.7903123902314206
 31
0.0
  0
LINE
  5
23956
  8
0
 10
4903.447006162235084
 20
21.7903123902314206
 30
0.0
 11
4903.4666912013162801
 21
21.8099974295314212
 31
0.0
  0
LINE
  5
23957
  8
0
 10
4903.4666912013162801
 20
21.8099974295314212
 30
0.0
 11
4903.4470061619149419
 21
21.8296824689314306
 31
0.0
  0
LINE
  5
23958
  8
0
 10
4903.4470061619149419
 20
21.8296824689314306
 30
0.0
 11
4903.4470061619149419
 21
22.0107848311314314
 31
0.0
  0
LINE
  5
23959
  8
0
 10
4903.4470061619149419
 20
22.0107848311314314
 30
0.0
 11
4903.41889721271491
 21
22.0107848311314314
 31
0.0
  0
ARC
  5
2395A
  8
0
 10
4903.41889721271491
 20
22.0304698705577486
 30
0.0
 40
0.0196850394263244
 50
185.0000002749590067
 51
270.0
  0
LINE
  5
2395B
  8
0
 10
4903.399287080816066
 20
22.0287542062314188
 30
0.0
 11
4903.372341733614121
 21
22.3367409348314183
 31
0.0
  0
ARC
  5
2395C
  8
0
 10
4903.058579621849276
 20
22.3092903061547894
 30
0.0
 40
0.3149606321342746
 50
5.000000131508533
 51
38.9263509463868971
  0
LINE
  5
23986
  8
0
 10
4901.2661752577978405
 20
24.3112073279649898
 30
0.0
 11
4901.2660067592114501
 21
17.8677582824425301
 31
0.0
  0
ARC
  5
23987
  8
0
 10
4984.547671170200374
 20
28.0320742793441795
 30
0.0
 40
83.2742796712212368
 50
178.6629410120775105
 51
180.3181862667246946
  0
ARC
  5
23988
  8
0
 10
4810.3957988886113526
 20
27.0649296796986789
 30
0.0
 40
90.8802780867069941
 50
359.3110702301798938
 51
0.3181862667248608
  0
ARC
  5
23989
  8
0
 10
4578.826602223331065
 20
25.7885530190306085
 30
0.0
 40
322.442957449748917
 50
359.7374854461007203
 51
0.0326332942295916
  0
ARC
  5
2398A
  8
0
 10
9156.5564518012088229
 20
-13.2410616424929302
 30
0.0
 40
4255.2633467378791465
 50
179.9052901992729971
 51
180.1694500501799041
  0
ARC
  5
2398B
  8
0
 10
487.639278828892202
 20
1.088652914917297
 30
0.0
 40
4413.6656697308580988
 50
359.9052901992731108
 51
0.0184544870686696
  0
ARC
  5
2398C
  8
0
 10
-312.0027981369003101
 20
0.8310949411104502
 30
0.0
 40
5213.3077881752751637
 50
0.0184544870686696
 51
0.1204118946392291
  0
ARC
  5
2398D
  8
0
 10
3657.2926196303528741
 20
9.2073870856845215
 30
0.0
 40
1244.0035329186619038
 50
0.1188241996256842
 51
0.3988788726410247
  0
LINE
  5
239C4
  8
0
 10
4903.3036045871149327
 20
-20.6427606019685683
 30
0.0
 11
4903.569053406014973
 21
-20.6427606019685683
 31
0.0
  0
LINE
  5
239C5
  8
0
 10
4903.569053406014973
 20
-20.6427606019685683
 30
0.0
 11
4903.569053406014973
 21
-19.0679574523685709
 31
0.0
  0
LINE
  5
239C6
  8
0
 10
4903.569053406014973
 20
-19.0679574523685709
 30
0.0
 11
4903.3036045871149327
 21
-19.0679574523685709
 31
0.0
  0
ARC
  5
239C7
  8
0
 10
4903.314785728814968
 20
-16.23740520826858
 30
0.0
 40
0.03937007870001
 50
0.0000000000154957
 51
90.0
  0
LINE
  5
239C8
  8
0
 10
4903.3541558075148714
 20
-16.23740520826858
 30
0.0
 11
4903.3541558075148714
 21
-16.4342556019685695
 31
0.0
  0
ARC
  5
239C9
  8
0
 10
4903.314785728814968
 20
-16.4342556019685802
 30
0.0
 40
0.0393700786999887
 50
269.999999999895806
 51
0.0000000000108393
  0
LINE
  5
239CA
  8
0
 10
4903.314785728814968
 20
-16.4736256806685688
 30
0.0
 11
4903.3036045871149327
 21
-16.473625680668551
 31
0.0
  0
LINE
  5
239CB
  8
0
 10
4903.314785728814968
 20
-16.1980351295685701
 30
0.0
 11
4903.3036045871149327
 21
-16.1980351295685701
 31
0.0
  0
LINE
  5
239CC
  8
0
 10
4903.314785728814968
 20
-9.7110726740685749
 30
0.0
 11
4903.3036045871149327
 21
-9.7110726740685749
 31
0.0
  0
LINE
  5
239CD
  8
0
 10
4903.314785728814968
 20
-9.9866632251685736
 30
0.0
 11
4903.3036045871149327
 21
-9.9866632251685754
 31
0.0
  0
ARC
  5
239CE
  8
0
 10
4903.314785728814968
 20
-9.7504427527685795
 30
0.0
 40
0.0393700787000064
 50
0.0000000000077606
 51
90.0
  0
LINE
  5
239CF
  8
0
 10
4903.3541558075148714
 20
-9.7504427527685742
 30
0.0
 11
4903.3541558075148714
 21
-9.9472931463685743
 31
0.0
  0
ARC
  5
239D0
  8
0
 10
4903.3147857287212901
 20
-9.9472931463741947
 30
0.0
 40
0.0393700787943789
 50
270.0000001373103942
 51
0.0000000081820151
  0
LINE
  5
239D1
  8
0
 10
4903.314785728814968
 20
2.8137758941314259
 30
0.0
 11
4903.3036045871149327
 21
2.813775894131425
 31
0.0
  0
LINE
  5
239D2
  8
0
 10
4903.314785728814968
 20
3.089366445331426
 30
0.0
 11
4903.3036045871149327
 21
3.089366445331426
 31
0.0
  0
ARC
  5
239D3
  8
0
 10
4903.3147857288022351
 20
3.0499963664187861
 30
0.0
 40
0.0393700788126399
 50
0.0000001639259918
 51
89.999999981605086
  0
LINE
  5
239D4
  8
0
 10
4903.3541558076149158
 20
3.0499963665314249
 30
0.0
 11
4903.3541558081778931
 21
2.8531459728314248
 31
0.0
  0
ARC
  5
239D5
  8
0
 10
4903.3147869845734022
 20
2.8531447177366158
 30
0.0
 40
0.0393688236252175
 50
269.9981724210642255
 51
0.0018266137735174
  0
LINE
  5
239D6
  8
0
 10
4903.314785728814968
 20
9.7822798311314259
 30
0.0
 11
4903.3036045871149327
 21
9.7822798311314259
 31
0.0
  0
LINE
  5
239D7
  8
0
 10
4903.314785728814968
 20
9.5066892800314271
 30
0.0
 11
4903.3036045871149327
 21
9.5066892800314271
 31
0.0
  0
ARC
  5
239D8
  8
0
 10
4903.3147857284211568
 20
9.5460593590255627
 30
0.0
 40
0.0393700790941356
 50
270.0000005735769832
 51
359.9999995719397248
  0
LINE
  5
239D9
  8
0
 10
4903.3541558075148714
 20
9.5460593587314264
 30
0.0
 11
4903.3541558089864338
 21
9.7429097522314265
 31
0.0
  0
ARC
  5
239DA
  8
0
 10
4903.3147857301719341
 20
9.7429097523177788
 30
0.0
 40
0.0393700788136471
 50
359.9999998743227252
 51
90.0000019749247713
  0
LINE
  5
239DB
  8
0
 10
4903.3147857288631712
 20
18.0822798311313413
 30
0.0
 11
4903.3036045871149327
 21
18.0822798311313413
 31
0.0
  0
LINE
  5
239DC
  8
0
 10
4903.314785728814968
 20
19.0421223508314306
 30
0.0
 11
4903.3036045871149327
 21
19.0421223508314306
 31
0.0
  0
LINE
  5
239DD
  8
0
 10
4903.314785728814968
 20
19.3177129019314187
 30
0.0
 11
4903.3036045871149327
 21
19.3177129019314187
 31
0.0
  0
LINE
  5
239DE
  8
0
 10
4903.3150812414951361
 20
24.8177721298222203
 30
0.0
 11
4903.3036045871149327
 21
24.8177721298222203
 31
0.0
  0
LINE
  5
239DF
  8
0
 10
4903.3147278404267126
 20
25.0933218930085999
 30
0.0
 11
4903.3036045871149327
 21
25.0933218930085999
 31
0.0
  0
LINE
  5
239E0
  8
0
 10
4903.314785728814968
 20
29.4923835872314299
 30
0.0
 11
4903.3036045871149327
 21
29.4923835872314299
 31
0.0
  0
LINE
  5
239E1
  8
0
 10
4903.314785728814968
 20
29.7679741384314198
 30
0.0
 11
4903.3036045871149327
 21
29.7679741384314198
 31
0.0
  0
LINE
  5
239E2
  8
0
 10
4903.314785729077812
 20
28.4240121146319815
 30
0.0
 11
4903.3036045871149327
 21
28.4240121146319815
 31
0.0
  0
LINE
  5
239E3
  8
0
 10
4903.314785728814968
 20
28.7822798311314187
 30
0.0
 11
4903.3036045871149327
 21
28.7822798311314187
 31
0.0
  0
ENDSEC
  0
EOF
