  0
SECTION
  2
HEADER
  9
$ACADVER
  1
AC1009
  9
$INSBASE
 10
3156.3361014006050027
 20
143.1341685182148069
 30
0.0
  9
$EXTMIN
 10
3150.2491598246460853
 20
117.8133698010957033
 30
-0.0015258207003583
  9
$EXTMAX
 10
3162.3120511334700495
 20
165.8823785929573091
 30
0.0000000349246037
  9
$LIMMIN
 10
0.0
 20
0.0
  9
$LIMMAX
 10
11.6929133858000007
 20
8.2677165353999982
  9
$ORTHOMODE
 70
     0
  9
$REGENMODE
 70
     1
  9
$FILLMODE
 70
     1
  9
$QTEXTMODE
 70
     0
  9
$MIRRTEXT
 70
     0
  9
$DRAGMODE
 70
     2
  9
$LTSCALE
 40
0.6431102362
  9
$OSMODE
 70
  4095
  9
$ATTMODE
 70
     1
  9
$TEXTSIZE
 40
0.2
  9
$TRACEWID
 40
0.05
  9
$TEXTSTYLE
  7
STANDARD
  9
$CLAYER
  8
0
  9
$CELTYPE
  6
BYLAYER
  9
$CECOLOR
 62
   256
  9
$DIMSCALE
 40
1.0
  9
$DIMASZ
 40
0.1875
  9
$DIMEXO
 40
0.0625
  9
$DIMDLI
 40
0.4443307087
  9
$DIMRND
 40
0.0
  9
$DIMDLE
 40
0.0
  9
$DIMEXE
 40
0.125
  9
$DIMTP
 40
0.01
  9
$DIMTM
 40
0.01
  9
$DIMTXT
 40
2.0
  9
$DIMCEN
 40
0.1052362205
  9
$DIMTSZ
 40
0.0
  9
$DIMTOL
 70
     1
  9
$DIMLIM
 70
     0
  9
$DIMTIH
 70
     1
  9
$DIMTOH
 70
     1
  9
$DIMSE1
 70
     0
  9
$DIMSE2
 70
     0
  9
$DIMTAD
 70
     0
  9
$DIMZIN
 70
     0
  9
$DIMBLK
  1

  9
$DIMASO
 70
     1
  9
$DIMSHO
 70
     1
  9
$DIMPOST
  1
\X
  9
$DIMAPOST
  1

  9
$DIMALT
 70
     1
  9
$DIMALTD
 70
     2
  9
$DIMALTF
 40
25.3999999999999986
  9
$DIMLFAC
 40
1.0
  9
$DIMTOFL
 70
     0
  9
$DIMTVP
 40
0.0
  9
$DIMTIX
 70
     0
  9
$DIMSOXD
 70
     0
  9
$DIMSAH
 70
     0
  9
$DIMBLK1
  1

  9
$DIMBLK2
  1

  9
$DIMSTYLE
  2
STANDARD
  9
$DIMCLRD
 70
     0
  9
$DIMCLRE
 70
     0
  9
$DIMCLRT
 70
     0
  9
$DIMTFAC
 40
1.0
  9
$DIMGAP
 40
0.09
  9
$LUNITS
 70
     2
  9
$LUPREC
 70
     4
  9
$SKETCHINC
 40
0.1
  9
$FILLETRAD
 40
0.0
  9
$AUNITS
 70
     0
  9
$AUPREC
 70
     0
  9
$MENU
  1
.
  9
$ELEVATION
 40
0.0
  9
$PELEVATION
 40
0.0
  9
$THICKNESS
 40
0.0
  9
$LIMCHECK
 70
     0
  9
$BLIPMODE
 70
     0
  9
$CHAMFERA
 40
0.0
  9
$CHAMFERB
 40
0.0
  9
$SKPOLY
 70
     0
  9
$TDCREATE
 40
2458060.468368056230247
  9
$TDUPDATE
 40
2460076.6675810189917684
  9
$TDINDWG
 40
0.6519052083
  9
$TDUSRTIMER
 40
0.6519052083
  9
$USRTIMER
 70
     1
  9
$ANGBASE
 50
0.0
  9
$ANGDIR
 70
     0
  9
$PDMODE
 70
     0
  9
$PDSIZE
 40
0.3125
  9
$PLINEWID
 40
0.0
  9
$COORDS
 70
     1
  9
$SPLFRAME
 70
     0
  9
$SPLINETYPE
 70
     6
  9
$SPLINESEGS
 70
     8
  9
$ATTDIA
 70
     1
  9
$ATTREQ
 70
     1
  9
$HANDLING
 70
     1
  9
$HANDSEED
  5
288ED
  9
$SURFTAB1
 70
     6
  9
$SURFTAB2
 70
     6
  9
$SURFTYPE
 70
     6
  9
$SURFU
 70
     6
  9
$SURFV
 70
     6
  9
$UCSNAME
  2

  9
$UCSORG
 10
0.0
 20
0.0
 30
0.0
  9
$UCSXDIR
 10
1.0
 20
0.0
 30
0.0
  9
$UCSYDIR
 10
0.0
 20
1.0
 30
0.0
  9
$PUCSNAME
  2

  9
$PUCSORG
 10
0.0
 20
0.0
 30
0.0
  9
$PUCSXDIR
 10
1.0
 20
0.0
 30
0.0
  9
$PUCSYDIR
 10
0.0
 20
1.0
 30
0.0
  9
$USERI1
 70
     0
  9
$USERI2
 70
     0
  9
$USERI3
 70
     0
  9
$USERI4
 70
     0
  9
$USERI5
 70
     0
  9
$USERR1
 40
0.0
  9
$USERR2
 40
0.0
  9
$USERR3
 40
0.0
  9
$USERR4
 40
0.0
  9
$USERR5
 40
0.0
  9
$WORLDVIEW
 70
     1
  9
$SHADEDGE
 70
     3
  9
$SHADEDIF
 70
    70
  9
$TILEMODE
 70
     1
  9
$MAXACTVP
 70
    64
  9
$PLIMCHECK
 70
     0
  9
$PEXTMIN
 10
1.0000000000000000E+20
 20
1.0000000000000000E+20
 30
1.0000000000000000E+20
  9
$PEXTMAX
 10
-1.0000000000000000E+20
 20
-1.0000000000000000E+20
 30
-1.0000000000000000E+20
  9
$PLIMMIN
 10
0.0
 20
0.0
  9
$PLIMMAX
 10
12.0
 20
9.0
  9
$UNITMODE
 70
     0
  9
$VISRETAIN
 70
     1
  9
$PLINEGEN
 70
     0
  9
$PSLTSCALE
 70
     1
  0
ENDSEC
  0
SECTION
  2
TABLES
  0
TABLE
  2
VPORT
 70
     1
  0
VPORT
  2
*ACTIVE
 70
     0
 10
0.0
 20
0.0
 11
1.0
 21
1.0
 12
-54.8941992084419326
 22
-4.6378671233925104
 13
0.0
 23
0.0
 14
1.0
 24
1.0
 15
0.0
 25
0.0
 16
0.0
 26
0.0
 36
24.3507166897908292
 17
3211.1748046875
 27
146.4857413204190095
 37
0.0
 40
48.4888254625328372
 41
2.2259475218658888
 42
50.0
 43
0.0
 44
0.0
 50
0.0
 51
0.0
 71
     0
 72
   100
 73
     1
 74
     1
 75
     0
 76
     0
 77
     0
 78
     0
  0
ENDTAB
  0
TABLE
  2
LTYPE
 70
     2
  0
LTYPE
  2
CONTINUOUS
 70
     0
  3
Solid line
 72
    65
 73
     0
 40
0.0
  0
LTYPE
  2
PHANTOM2
 70
     0
  3
___ _ _ ___ _ _ ___ _ _ ___ _ _
 72
    65
 73
     6
 40
1.25
 49
0.625
 49
-0.125
 49
0.125
 49
-0.125
 49
0.125
 49
-0.125
  0
ENDTAB
  0
TABLE
  2
LAYER
 70
     2
  0
LAYER
  2
0
 70
     0
 62
   255
  6
CONTINUOUS
  0
LAYER
  2
DEFPOINTS
 70
     0
 62
     7
  6
CONTINUOUS
  0
ENDTAB
  0
TABLE
  2
STYLE
 70
     1
  0
STYLE
  2
STANDARD
 70
     0
 40
0.0
 41
0.8
 50
0.0
 71
     0
 42
0.2
  3
txt
  4

  0
ENDTAB
  0
TABLE
  2
VIEW
 70
     0
  0
ENDTAB
  0
TABLE
  2
UCS
 70
     0
  0
ENDTAB
  0
TABLE
  2
APPID
 70
     9
  0
APPID
  2
ACAD
 70
     0
  0
APPID
  2
ACAD_MLEADERVER
 70
     0
  0
APPID
  2
ACAD_EXEMPT_FROM_CAD_STANDARDS
 70
     0
  0
APPID
  2
ACAD_NAV_VCDISPLAY
 70
     0
  0
APPID
  2
ACAECLAYERSTANDARD
 70
     0
  0
APPID
  2
ACCMTRANSPARENCY
 70
     0
  0
APPID
  2
ACAD_DSTYLE_DIMJAG
 70
     0
  0
APPID
  2
ACAD_DSTYLE_DIMTALN
 70
     0
  0
APPID
  2
ACDBATTR
 70
     0
  0
ENDTAB
  0
TABLE
  2
DIMSTYLE
 70
     1
  0
DIMSTYLE
  2
STANDARD
 70
     0
  3

  4

  5

  6

  7

 40
1.0
 41
0.1875
 42
0.0625
 43
0.38
 44
0.125
 45
0.0
 46
0.0
 47
0.01
 48
0.01
140
0.15625
141
0.09
142
0.0
143
25.3999999999999986
144
1.0
145
0.0
146
1.0
147
0.09
 71
     1
 72
     0
 73
     1
 74
     1
 75
     0
 76
     0
 77
     0
 78
     4
170
     0
171
     2
172
     0
173
     0
174
     0
175
     0
176
     0
177
     0
178
     0
  0
ENDTAB
  0
ENDSEC
  0
SECTION
  2
BLOCKS
  0
BLOCK
  8
0
  2
$MODEL_SPACE
 70
     0
 10
0.0
 20
0.0
 30
0.0
  3
$MODEL_SPACE
  1

  0
ENDBLK
  5
21
  8
0
  0
BLOCK
 67
     1
  8
0
  2
$PAPER_SPACE
 70
     0
 10
0.0
 20
0.0
 30
0.0
  3
$PAPER_SPACE
  1

  0
ENDBLK
  5
1D
 67
     1
  8
0
  0
ENDSEC
  0
SECTION
  2
ENTITIES
  0
ATTDEF
  5
27734
  8
DEFPOINTS
 10
3156.3360560468290714
 20
143.1385297416375124
 30
0.0
 40
0.001
  1
K-32403T-7
  3

  2
MODELNUMBER
 70
     0
1001
ACDBATTR
1070
     0
1070
     1
  0
ATTDEF
  5
27735
  8
DEFPOINTS
 10
3156.3360560468290714
 20
143.1368630749709041
 30
0.0
 40
0.001
  1
ATOM
  3

  2
TRADENAME
 70
     0
1001
ACDBATTR
1070
     0
1070
     1
  0
ATTDEF
  5
27736
  8
DEFPOINTS
 10
3156.3360560468290714
 20
143.1351964083042105
 30
0.0
 40
0.001
  1
SHOWER COLUMN
  3

  2
PRODUCT
 70
     0
1001
ACDBATTR
1070
     0
1070
     1
  0
LINE
  5
27FB6
  8
0
 10
3152.355744744230833
 20
161.5289410230896863
 30
0.0
 11
3160.3161390805980773
 21
161.5289410230896863
 31
0.0
  0
LINE
  5
27FB7
  8
0
 10
3153.0417650757049159
 20
160.9974449600898083
 30
0.0
 11
3153.205583416267018
 21
160.9974449600898083
 31
0.0
  0
LINE
  5
27FB8
  8
0
 10
3153.3225721523049287
 20
160.9974449600898083
 30
0.0
 11
3153.415181810004924
 21
160.9974449600898083
 31
0.0
  0
LINE
  5
27FB9
  8
0
 10
3153.6620838932049082
 20
160.9974449600898083
 30
0.0
 11
3153.8725202241048464
 21
160.9974449600898083
 31
0.0
  0
LINE
  5
27FBA
  8
0
 10
3154.0394943415049056
 20
160.9974449600898083
 30
0.0
 11
3154.2090489450060886
 21
160.9974449600898083
 31
0.0
  0
LINE
  5
27FBB
  8
0
 10
3154.3409776742050781
 20
160.9974449600898083
 30
0.0
 11
3154.5511154921050547
 21
160.9974449600898083
 31
0.0
  0
LINE
  5
27FBC
  8
0
 10
3154.6657808238051075
 20
160.9974449600898083
 30
0.0
 11
3154.7583904814050584
 21
160.9974449600898083
 31
0.0
  0
LINE
  5
27FBD
  8
0
 10
3154.7969146846048716
 20
160.9974449600898083
 30
0.0
 11
3154.8895243423048669
 21
160.9974449600898083
 31
0.0
  0
LINE
  5
27FBE
  8
0
 10
3154.9905839734051369
 20
160.9974449600898083
 30
0.0
 11
3155.0831936310050878
 21
160.9974449600898083
 31
0.0
  0
LINE
  5
27FBF
  8
0
 10
3155.1646454566048305
 20
160.9974449600898083
 30
0.0
 11
3155.4079967806051172
 21
160.9974449600898083
 31
0.0
  0
LINE
  5
27FC0
  8
0
 10
3155.6172746436050147
 20
160.9974449600898083
 30
0.0
 11
3155.7327999303051911
 21
160.9974449600898083
 31
0.0
  0
LINE
  5
27FC1
  8
0
 10
3155.9502848309048204
 20
160.9974449600898083
 30
0.0
 11
3156.0576030799052205
 21
160.9974449600898083
 31
0.0
  0
LINE
  5
27FC2
  8
0
 10
3156.2897965718047999
 20
160.9974449600898083
 30
0.0
 11
3156.3824062295047952
 21
160.9974449600898083
 31
0.0
  0
ARC
  5
27FC3
  8
0
 10
3152.406318198793997
 20
161.1155551963601056
 30
0.0
 40
0.0590551180703649
 50
181.0000000461866136
 51
270.0000000106566063
  0
LINE
  5
27FC4
  8
0
 10
3152.3472720751051384
 20
161.1145245423896881
 30
0.0
 11
3152.3403180888049064
 21
161.5142262949919996
 31
0.0
  0
ARC
  5
27FC5
  8
0
 10
3152.3560942026938392
 20
161.5131307794993063
 30
0.0
 40
0.0158141052104686
 50
91.2662192822029539
 51
176.0276774469454892
  0
LINE
  5
27FC6
  8
0
 10
3153.0266206427049838
 20
161.0565000782897869
 30
0.0
 11
3153.0339676894031982
 21
161.0042231247095117
 31
0.0
  0
ARC
  5
27FC7
  8
0
 10
3153.0416466561409834
 20
161.0051827496299097
 30
0.0
 40
0.0077386956368946
 50
187.1232096516179126
 51
270.8767893683158832
  0
LINE
  5
27FC8
  8
0
 10
3153.2204964475049564
 20
161.0565000782897869
 30
0.0
 11
3153.2131494008258414
 21
161.004223124709597
 31
0.0
  0
ARC
  5
27FC9
  8
0
 10
3153.2053479660171433
 20
161.0053195448676888
 30
0.0
 40
0.0078781039752777
 50
271.7126347589509123
 51
352.0000000135328833
  0
LINE
  5
27FCA
  8
0
 10
3152.406318198793997
 20
161.0565000782897869
 30
0.0
 11
3160.2658846024050945
 21
161.0565000782897869
 31
0.0
  0
ARC
  5
27FCB
  8
0
 10
3160.2658846024050945
 20
161.1155551964731103
 30
0.0
 40
0.0590551181833057
 50
270.0
 51
358.9999998461324822
  0
LINE
  5
27FCC
  8
0
 10
3160.3249307262049115
 20
161.1145245423896881
 30
0.0
 11
3160.3318847135719807
 21
161.5129181505247118
 31
0.0
  0
ARC
  5
27FCD
  8
0
 10
3160.3161390805980773
 20
161.5131929916128968
 30
0.0
 40
0.0157480314768428
 50
358.9999998461340738
 51
90.0000039750448337
  0
LINE
  5
27FCE
  8
0
 10
3155.536888802204885
 20
161.5289410230896863
 30
0.0
 11
3155.5486998258061249
 21
161.5407520467896916
 31
0.0
  0
LINE
  5
27FCF
  8
0
 10
3155.5486998258061249
 20
161.5407520467896916
 30
0.0
 11
3157.12350297540479
 21
161.5407520467896916
 31
0.0
  0
LINE
  5
27FD0
  8
0
 10
3157.12350297540479
 20
161.5407520467896916
 30
0.0
 11
3157.1353139991060743
 21
161.5289410230896863
 31
0.0
  0
ARC
  5
27FD1
  8
0
 10
3167.617337505696014
 20
161.3484593358845984
 30
0.0
 40
12.0308044417787894
 50
175.5329394379284054
 51
179.0841812266712054
  0
ARC
  5
27FD2
  8
0
 10
3155.6819756950058036
 20
162.2808888335854078
 30
0.0
 40
0.0590758147067482
 50
90.0185688149150138
 51
175.5329394379284054
  0
LINE
  5
27FD3
  8
0
 10
3155.6819565493051414
 20
162.3399646451898093
 30
0.0
 11
3156.9902461831989058
 21
162.3399646451898093
 31
0.0
  0
ARC
  5
27FD4
  8
0
 10
3156.990246251904864
 20
162.2809095270897046
 30
0.0
 40
0.0590551181001162
 50
4.4481703898627503
 51
90.0000666594039984
  0
ARC
  5
27FD5
  8
0
 10
3144.9437212903440013
 20
161.3432345511160975
 30
0.0
 40
12.1420182484156207
 50
0.9320876045638748
 51
4.4507902541994779
  0
ARC
  5
27FD6
  8
0
 10
3156.3361014006050027
 20
162.2010976520896861
 30
0.0
 40
0.8915305920999994
 50
122.0001269722545061
 51
213.4186993541034951
  0
ARC
  5
27FD7
  8
0
 10
3156.3361014006050027
 20
162.2010976520896861
 30
0.0
 40
0.8915305920999994
 50
326.5771514270340958
 51
57.9998714048913229
  0
ARC
  5
27FD8
  8
0
 10
3156.3361014006050027
 20
162.2010976520896861
 30
0.0
 40
0.8213219516999997
 50
125.1150487293594011
 51
205.8115074237585134
  0
ARC
  5
27FD9
  8
0
 10
3156.3361014006050027
 20
162.2010976520896861
 30
0.0
 40
0.8213219516999997
 50
334.1809472073335883
 51
54.8849491351341001
  0
LINE
  5
27FDA
  8
0
 10
3155.8085423455049749
 20
162.3399646451898093
 30
0.0
 11
3155.8085423455049749
 21
162.3478386608898063
 31
0.0
  0
LINE
  5
27FDB
  8
0
 10
3155.8085423455049749
 20
162.3478386608898063
 30
0.0
 11
3156.8636604557050305
 21
162.3478386608898063
 31
0.0
  0
LINE
  5
27FDC
  8
0
 10
3156.8636604557050305
 20
162.3478386608898063
 30
0.0
 11
3156.8636604557050305
 21
162.3399646451898093
 31
0.0
  0
ARC
  5
27FDD
  8
0
 10
3156.3361004423250051
 20
162.1116187922098959
 30
0.0
 40
0.4960618619503334
 50
136.48469805571969
 51
151.5569794382541033
  0
ARC
  5
27FDE
  8
0
 10
3155.9620857055438137
 20
162.4667354132189132
 30
0.0
 40
0.0196850118614711
 50
316.4846980557185248
 51
0.0000365890603445
  0
LINE
  5
27FDF
  8
0
 10
3155.9817707174051975
 20
162.4667354257898069
 30
0.0
 11
3155.9817706359540352
 21
162.5942819732896965
 31
0.0
  0
ARC
  5
27FE0
  8
0
 10
3155.9620861421790323
 20
162.594282385285311
 30
0.0
 40
0.0196844937789832
 50
359.998800801925313
 51
70.0008566377210997
  0
LINE
  5
27FE1
  8
0
 10
3155.9688183590051267
 20
162.6127798594897058
 30
0.0
 11
3155.8744716975302254
 21
162.6471176385198021
 31
0.0
  0
ARC
  5
27FE2
  8
0
 10
3155.8837999223360384
 20
162.6649669422565125
 30
0.0
 40
0.0201398466206793
 50
180.367371591083014
 51
242.4079811877014095
  0
LINE
  5
27FE3
  8
0
 10
3155.8636604897060352
 20
162.6648378095898124
 30
0.0
 11
3155.8636604897060352
 21
163.4522393843897135
 31
0.0
  0
LINE
  5
27FE4
  8
0
 10
3155.8636604897060352
 20
163.4522393843897135
 30
0.0
 11
3156.8085423116049242
 21
163.4522393843897135
 31
0.0
  0
LINE
  5
27FE5
  8
0
 10
3156.8085423116049242
 20
163.4522393843897135
 30
0.0
 11
3156.8085423455049749
 21
162.6648378104372057
 31
0.0
  0
ARC
  5
27FE6
  8
0
 10
3156.7888573060517956
 20
162.6648378095898124
 30
0.0
 40
0.019685039452904
 50
290.0000001172468842
 51
0.0000024667555674
  0
LINE
  5
27FE7
  8
0
 10
3156.7955899861049147
 20
162.6463399232897871
 30
0.0
 11
3156.7101171519029776
 21
162.6152303556036998
 31
0.0
  0
ARC
  5
27FE8
  8
0
 10
2225.8653123387430242
 20
2720.0902963139678832
 30
0.0
 40
2721.6081208811801844
 50
289.9998492826487109
 51
290.0000001172468842
  0
ARC
  5
27FE9
  8
0
 10
3156.7101170468581586
 20
162.5942820272580036
 30
0.0
 40
0.0196849630531062
 50
109.9998492826492935
 51
180.0001570820529082
  0
ARC
  5
27FEA
  8
0
 10
3028.0774024029660723
 20
162.5897976271214134
 30
0.0
 40
128.6130297590169107
 50
359.9825055680237824
 51
0.0019977300107129
  0
ARC
  5
27FEB
  8
0
 10
3157.0486935815370089
 20
162.5269739992750999
 30
0.0
 40
0.3590408172983978
 50
176.2386262972428881
 51
183.7613737027571119
  0
LINE
  5
27FEC
  8
0
 10
3156.6904261667041283
 20
162.5034204866896914
 30
0.0
 11
3156.6904341992130867
 21
162.4667354257898069
 31
0.0
  0
ARC
  5
27FED
  8
0
 10
3156.7100740065270656
 20
162.4667151504669107
 30
0.0
 40
0.0196398177796304
 50
179.9408502337182085
 51
223.5589861084347945
  0
ARC
  5
27FEE
  8
0
 10
3156.3384223418070178
 20
162.1133030033788032
 30
0.0
 40
0.4932199150900557
 50
28.3931760609508714
 51
43.5589861084347731
  0
LINE
  5
27FEF
  8
0
 10
3156.7101171487051943
 20
162.4375079619561006
 30
0.0
 11
3156.7101171487051943
 21
162.6152303643931134
 31
0.0
  0
LINE
  5
27FF0
  8
0
 10
3155.9620856526048556
 20
162.437487353000904
 30
0.0
 11
3155.9620856526048556
 21
162.6152303643904133
 31
0.0
  0
CIRCLE
  5
27FF1
  8
0
 10
3156.3362355170052069
 20
162.527042533989686
 30
0.0
 40
0.0236220472
  0
LINE
  5
27FF2
  8
0
 10
3155.9763610627837807
 20
162.4531813326896952
 30
0.0
 11
3156.6958417384262248
 21
162.4531813326896952
 31
0.0
  0
LINE
  5
27FF3
  8
0
 10
3156.7033844423049231
 20
162.6127798594897058
 30
0.0
 11
3155.9688183590051267
 21
162.6127798594897058
 31
0.0
  0
LINE
  5
27FF4
  8
0
 10
3155.876612848106106
 20
162.6463399232897871
 30
0.0
 11
3156.795589953104809
 21
162.6463399232897871
 31
0.0
  0
LINE
  5
27FF5
  8
0
 10
3156.1827097272048377
 20
162.6463399232897871
 30
0.0
 11
3156.1474532696061033
 21
162.6648378095898124
 31
0.0
  0
LINE
  5
27FF6
  8
0
 10
3156.1474532696061033
 20
162.6648378095898124
 30
0.0
 11
3156.1474532696061033
 21
163.1372787543897118
 31
0.0
  0
LINE
  5
27FF7
  8
0
 10
3156.1474532696061033
 20
163.1372787543897118
 30
0.0
 11
3156.5250777719061261
 21
163.1372787543897118
 31
0.0
  0
LINE
  5
27FF8
  8
0
 10
3156.5250777719061261
 20
163.1372787543897118
 30
0.0
 11
3156.5250777719061261
 21
162.6648378095898124
 31
0.0
  0
LINE
  5
27FF9
  8
0
 10
3156.5250777719061261
 20
162.6648378095898124
 30
0.0
 11
3156.4898213142050736
 21
162.6463399232897871
 31
0.0
  0
LINE
  5
27FFA
  8
0
 10
3155.843975416405101
 20
163.5003102504898038
 30
0.0
 11
3156.8282273849049488
 21
163.5003102504898038
 31
0.0
  0
LINE
  5
27FFB
  8
0
 10
3156.8282273849049488
 20
163.5003102504898038
 30
0.0
 11
3156.8282273849049488
 21
163.5199952898898061
 31
0.0
  0
LINE
  5
27FFC
  8
0
 10
3156.8282273849049488
 20
163.5199952898898061
 30
0.0
 11
3156.7101171487051943
 21
163.6381055260897028
 31
0.0
  0
LINE
  5
27FFD
  8
0
 10
3156.7101171487051943
 20
163.6381055260897028
 30
0.0
 11
3156.7101171487051943
 21
165.5081842661898008
 31
0.0
  0
ARC
  5
27FFE
  8
0
 10
3156.3361014006550249
 20
165.5081842661898008
 30
0.0
 40
0.3740157480499997
 50
0.0
 51
180.0
  0
LINE
  5
27FFF
  8
0
 10
3155.9620856526048556
 20
165.5081842661898008
 30
0.0
 11
3155.9620856526048556
 21
163.6381055260897028
 31
0.0
  0
LINE
  5
28000
  8
0
 10
3155.9620856526048556
 20
163.6381055260897028
 30
0.0
 11
3155.843975416405101
 21
163.5199952898898061
 31
0.0
  0
LINE
  5
28001
  8
0
 10
3155.843975416405101
 20
163.5199952898898061
 30
0.0
 11
3155.843975416405101
 21
163.5003102504898038
 31
0.0
  0
LINE
  5
28002
  8
0
 10
3155.843975416405101
 20
163.5199952898898061
 30
0.0
 11
3156.8282273849049488
 21
163.5199952898898061
 31
0.0
  0
LINE
  5
28003
  8
0
 10
3156.7101171487051943
 20
163.6381055260897028
 30
0.0
 11
3155.9620856526048556
 21
163.6381055260897028
 31
0.0
  0
LINE
  5
28004
  8
0
 10
3155.9620856526048556
 20
163.5003102504898038
 30
0.0
 11
3155.9620856526048556
 21
163.4522393843897135
 31
0.0
  0
LINE
  5
28005
  8
0
 10
3155.9817706920048295
 20
163.4522393843897135
 30
0.0
 11
3155.9817706920048295
 21
163.5003102504898038
 31
0.0
  0
LINE
  5
28006
  8
0
 10
3156.7101171487051943
 20
163.5003102504898038
 30
0.0
 11
3156.7101171487051943
 21
163.4522393843897135
 31
0.0
  0
LINE
  5
28007
  8
0
 10
3156.6904321093052204
 20
163.4522393843897135
 30
0.0
 11
3156.6904321093052204
 21
163.5003102504898038
 31
0.0
  0
ARC
  5
28008
  8
0
 10
3153.3225721526159759
 20
161.0053189761208046
 30
0.0
 40
0.0078740160396216
 50
188.0000014828569874
 51
270.0026740608533942
  0
LINE
  5
28009
  8
0
 10
3153.3147747659868401
 20
161.004223124689787
 30
0.0
 11
3153.307427717938026
 21
161.0565000781116112
 31
0.0
  0
ARC
  5
2800A
  8
0
 10
3153.4151818097088835
 20
161.0053189760940029
 30
0.0
 40
0.0078740160042301
 50
270.0000021572844275
 51
351.9999986779972119
  0
LINE
  5
2800B
  8
0
 10
3153.4229791963048228
 20
161.004223124689787
 30
0.0
 11
3153.430326244205844
 21
161.0565000781209903
 31
0.0
  0
ARC
  5
2800C
  8
0
 10
3153.662083893459112
 20
161.0053189761597991
 30
0.0
 40
0.0078740160705561
 50
188.0000015865497005
 51
270.0006690494470263
  0
LINE
  5
2800D
  8
0
 10
3153.6542865068017818
 20
161.0042231247103075
 30
0.0
 11
3153.6469394586351882
 21
161.0565000782897869
 31
0.0
  0
ARC
  5
2800E
  8
0
 10
3153.8725202237910707
 20
161.0053189762294039
 30
0.0
 40
0.007874016139688
 50
270.0000022863874847
 51
351.9999978211619123
  0
LINE
  5
2800F
  8
0
 10
3153.8803176105047896
 20
161.004223124689787
 30
0.0
 11
3153.8876646592270845
 21
161.0565000782897869
 31
0.0
  0
ARC
  5
28010
  8
0
 10
3153.7799105665048955
 20
161.0053189758897929
 30
0.0
 40
0.0078740157000112
 50
188.0000001324939092
 51
269.9999999999739089
  0
LINE
  5
28011
  8
0
 10
3153.7721131801868069
 20
161.004223124689787
 30
0.0
 11
3153.7673020586839812
 21
161.0384560323869039
 31
0.0
  0
ARC
  5
28012
  8
0
 10
3153.754608587173152
 20
161.0053915039009098
 30
0.0
 40
0.007968472475686
 50
274.2516335904609264
 51
351.5685952565661978
  0
LINE
  5
28013
  8
0
 10
3153.7624909373048467
 20
161.004223124689787
 30
0.0
 11
3153.769837983934849
 21
161.0565000782897869
 31
0.0
  0
ARC
  5
28014
  8
0
 10
3154.039494341865975
 20
161.0053189762830073
 30
0.0
 40
0.0078740161932412
 50
188.0000024738849049
 51
270.000120348733617
  0
LINE
  5
28015
  8
0
 10
3154.0316969551040529
 20
161.0042231246956987
 30
0.0
 11
3154.0243499061089096
 21
161.0565000782897869
 31
0.0
  0
ARC
  5
28016
  8
0
 10
3154.2090489450060886
 20
161.0053189758897929
 30
0.0
 40
0.0078740157000077
 50
270.0
 51
351.999999999957879
  0
LINE
  5
28017
  8
0
 10
3154.2168463313259963
 20
161.0042231247078064
 30
0.0
 11
3154.2241933780178442
 21
161.0565000782897869
 31
0.0
  0
ARC
  5
28018
  8
0
 10
3154.1164392876689817
 20
161.005318976172191
 30
0.0
 40
0.0078740160824076
 50
188.0000017856046952
 51
269.9999980759088203
  0
LINE
  5
28019
  8
0
 10
3154.1086419010048303
 20
161.0042231246939934
 30
0.0
 11
3154.1012948526490618
 21
161.0565000782897869
 31
0.0
  0
ARC
  5
2801A
  8
0
 10
3154.3409776744638293
 20
161.0053189760714929
 30
0.0
 40
0.0078740159817627
 50
188.0000011798931894
 51
269.9999981154863917
  0
LINE
  5
2801B
  8
0
 10
3154.3331802878869894
 20
161.004223124689787
 30
0.0
 11
3154.3258332400951076
 21
161.0565000782897869
 31
0.0
  0
ARC
  5
2801C
  8
0
 10
3154.5511154920950503
 20
161.0053189759956922
 30
0.0
 40
0.0078740158060029
 50
270.0000000733973025
 51
351.9999991970601059
  0
LINE
  5
2801D
  8
0
 10
3154.5589128785049979
 20
161.004223124689787
 30
0.0
 11
3154.566259925947179
 21
161.0565000782897869
 31
0.0
  0
ARC
  5
2801E
  8
0
 10
3154.4335873315521894
 20
161.0053189761592023
 30
0.0
 40
0.0078740160694757
 50
270.0000018422782091
 51
351.9999982652865924
  0
LINE
  5
2801F
  8
0
 10
3154.4413847182031532
 20
161.0042231246771962
 30
0.0
 11
3154.4430099132691794
 21
161.0157869882334865
 31
0.0
  0
LINE
  5
28020
  8
0
 10
3154.4446351083051923
 20
161.004223124689787
 30
0.0
 11
3154.4372880616051589
 21
161.0565000782897869
 31
0.0
  0
ARC
  5
28021
  8
0
 10
3154.452432494956156
 20
161.005318976062199
 30
0.0
 40
0.007874015972444
 50
188.000001120944205
 51
270.0000025403465997
  0
ARC
  5
28022
  8
0
 10
3154.6657808240529448
 20
161.0053189760581063
 30
0.0
 40
0.007874015968407
 50
188.0000010951845013
 51
270.0001604672883104
  0
LINE
  5
28023
  8
0
 10
3154.6579834374870188
 20
161.004223124689787
 30
0.0
 11
3154.6506363897728988
 21
161.0565000782897869
 31
0.0
  0
ARC
  5
28024
  8
0
 10
3154.7583904814050584
 20
161.0053189758897929
 30
0.0
 40
0.0078740157000041
 50
270.0000000000521254
 51
351.9999999999902229
  0
LINE
  5
28025
  8
0
 10
3154.7661878677249661
 20
161.0042231247078064
 30
0.0
 11
3154.7735349144181782
 21
161.0565000782897869
 31
0.0
  0
ARC
  5
28026
  8
0
 10
3154.7969146849918616
 20
161.0053189763125943
 30
0.0
 40
0.0078740162228499
 50
188.0000025935297003
 51
269.9999979152269134
  0
LINE
  5
28027
  8
0
 10
3154.7891172982031094
 20
161.0042231247049074
 30
0.0
 11
3154.7817702490979173
 21
161.0565000782897869
 31
0.0
  0
ARC
  5
28028
  8
0
 10
3154.8895243419469807
 20
161.0053189761866008
 30
0.0
 40
0.0078740160968209
 50
270.0000026123368002
 51
351.9999980923150815
  0
LINE
  5
28029
  8
0
 10
3154.8973217286229556
 20
161.004223124689787
 30
0.0
 11
3154.9046687770919561
 21
161.0565000782897869
 31
0.0
  0
ARC
  5
2802A
  8
0
 10
3154.9905839736798043
 20
161.0053189761839008
 30
0.0
 40
0.0078740160942021
 50
188.0000018474993908
 51
270.0000744052215964
  0
LINE
  5
2802B
  8
0
 10
3154.9827865870038295
 20
161.0042231246956987
 30
0.0
 11
3154.9754395385921271
 21
161.0565000782897869
 31
0.0
  0
ARC
  5
2802C
  8
0
 10
3155.0831936307140495
 20
161.0053189762031991
 30
0.0
 40
0.0078740161133979
 50
270.0000021201037725
 51
351.99999803102952
  0
LINE
  5
2802D
  8
0
 10
3155.090991017405031
 20
161.004223124689787
 30
0.0
 11
3155.0983380641050644
 21
161.0565000782897869
 31
0.0
  0
ARC
  5
2802E
  8
0
 10
3155.1646454569090565
 20
161.0053189761028989
 30
0.0
 40
0.0078740160131081
 50
188.000001378033005
 51
270.0001207605084232
  0
LINE
  5
2802F
  8
0
 10
3155.1495010236048984
 20
161.0565000782897869
 30
0.0
 11
3155.1568480703049318
 21
161.004223124689787
 31
0.0
  0
ARC
  5
28030
  8
0
 10
3155.2572551140069663
 20
161.0053189762109014
 30
0.0
 40
0.0078740161211286
 50
270.0000021690092922
 51
351.999997938557101
  0
LINE
  5
28031
  8
0
 10
3155.2650525007052238
 20
161.004223124689787
 30
0.0
 11
3155.2716773794968503
 21
161.0513615743506932
 31
0.0
  0
LINE
  5
28032
  8
0
 10
3155.2709552082069422
 20
161.0565000782897869
 30
0.0
 11
3155.2783022548869667
 21
161.004223124689787
 31
0.0
  0
ARC
  5
28033
  8
0
 10
3155.2860996411850465
 20
161.0053189758664018
 30
0.0
 40
0.0078740156765947
 50
187.9999999843614091
 51
270.0000001480451033
  0
ARC
  5
28034
  8
0
 10
3155.4079967802967985
 20
161.0053189761283932
 30
0.0
 40
0.0078740160386417
 50
270.0000022443084049
 51
351.9999984603206258
  0
LINE
  5
28035
  8
0
 10
3155.4157941669232059
 20
161.004223124689787
 30
0.0
 11
3155.423141215051146
 21
161.0565000782897869
 31
0.0
  0
ARC
  5
28036
  8
0
 10
3155.3787092989050507
 20
161.0053189758897929
 30
0.0
 40
0.0078740157000041
 50
270.0000000000259774
 51
351.9999999999885176
  0
LINE
  5
28037
  8
0
 10
3155.3865066852249583
 20
161.0042231247078064
 30
0.0
 11
3155.3938537319181705
 21
161.0565000782897869
 31
0.0
  0
ARC
  5
28038
  8
0
 10
3155.617274643896053
 20
161.0053189761082137
 30
0.0
 40
0.0078740160184879
 50
188.0000014121075083
 51
270.000097572065215
  0
LINE
  5
28039
  8
0
 10
3155.609477257286926
 20
161.004223124689787
 30
0.0
 11
3155.6021302092790393
 21
161.0565000782897869
 31
0.0
  0
ARC
  5
2803A
  8
0
 10
3155.732799930019155
 20
161.0053189760818952
 30
0.0
 40
0.0078740159921829
 50
270.0000020810472279
 51
351.9999987541958717
  0
LINE
  5
2803B
  8
0
 10
3155.7405973166050899
 20
161.004223124689787
 30
0.0
 11
3155.7479443644588173
 21
161.0565000782897869
 31
0.0
  0
ARC
  5
2803C
  8
0
 10
3155.7098843009480333
 20
161.0053189760689918
 30
0.0
 40
0.0078740159792083
 50
270.0000018683334133
 51
351.9999988362575891
  0
LINE
  5
2803D
  8
0
 10
3155.7176816875230543
 20
161.004223124689787
 30
0.0
 11
3155.7250287353008389
 21
161.0565000782897869
 31
0.0
  0
ARC
  5
2803E
  8
0
 10
3155.950284831152203
 20
161.0053189760575947
 30
0.0
 40
0.0078740159678361
 50
188.0000010918004989
 51
269.9999982035527069
  0
LINE
  5
2803F
  8
0
 10
3155.9424874445871865
 20
161.004223124689787
 30
0.0
 11
3155.9351403968771592
 21
161.0565000782897869
 31
0.0
  0
ARC
  5
28040
  8
0
 10
3156.0576030796291889
 20
161.0053189760708108
 30
0.0
 40
0.0078740159809954
 50
270.0000020102816052
 51
351.9999988249629723
  0
LINE
  5
28041
  8
0
 10
3156.0654004662051193
 20
161.004223124689787
 30
0.0
 11
3156.0727475139929084
 21
161.0565000782897869
 31
0.0
  0
ARC
  5
28042
  8
0
 10
3156.0439973792831552
 20
161.0053189760089083
 30
0.0
 40
0.0078740158192012
 50
270.0000001569038091
 51
351.9999992646257851
  0
LINE
  5
28043
  8
0
 10
3156.0517947657081095
 20
161.0042231247103075
 30
0.0
 11
3156.0591418130838974
 21
161.0565000782897869
 31
0.0
  0
ARC
  5
28044
  8
0
 10
3156.3824062293138013
 20
161.005318975993589
 30
0.0
 40
0.0078740159038482
 50
269.9999992087064129
 51
351.9999993129458744
  0
LINE
  5
28045
  8
0
 10
3156.3902036158228839
 20
161.004223124689787
 30
0.0
 11
3156.3975506631568351
 21
161.0565000782897869
 31
0.0
  0
ARC
  5
28046
  8
0
 10
3156.2897965719430431
 20
161.0053189759316012
 30
0.0
 40
0.0078740158418924
 50
188.0000002951599072
 51
270.0000004555735131
  0
LINE
  5
28047
  8
0
 10
3156.2819991854880755
 20
161.004223124689787
 30
0.0
 11
3156.2746521385179221
 21
161.0565000782897869
 31
0.0
  0
LINE
  5
28048
  8
0
 10
3155.9620856526048556
 20
160.9974449600898083
 30
0.0
 11
3155.9620856526048556
 21
155.7444047386898092
 31
0.0
  0
LINE
  5
28049
  8
0
 10
3155.9620856526048556
 20
155.5081842661896872
 30
0.0
 11
3155.9620856526048556
 21
144.5378058899898122
 31
0.0
  0
LINE
  5
2804A
  8
0
 10
3156.7101171487051943
 20
153.4866336059048137
 30
0.0
 11
3156.7101171487051943
 21
155.5081842661896872
 31
0.0
  0
LINE
  5
2804B
  8
0
 10
3156.7101171487051943
 20
155.7444047386898092
 30
0.0
 11
3156.7101171487051943
 21
160.9974449600898083
 31
0.0
  0
LINE
  5
2804C
  8
0
 10
3155.9047459894868553
 20
144.5503159090864926
 30
0.0
 11
3155.568556652605821
 21
144.553250140198287
 31
0.0
  0
ARC
  5
2804D
  8
0
 10
3155.5683838103209382
 20
144.5334449763292923
 30
0.0
 40
0.0198059180634282
 50
89.4999848481801052
 51
173.6390086395591084
  0
LINE
  5
2804E
  8
0
 10
3155.5486998258061249
 20
144.5386960766898028
 30
0.0
 11
3155.5172037628049111
 21
144.5386960772898135
 31
0.0
  0
LINE
  5
2804F
  8
0
 10
3155.5172037628049111
 20
144.5386960772898135
 30
0.0
 11
3155.5172037628049111
 21
142.9658614315897864
 31
0.0
  0
LINE
  5
28050
  8
0
 10
3155.5172037628049111
 20
142.9658614315897864
 30
0.0
 11
3155.5486998258061249
 21
142.9658614315897864
 31
0.0
  0
LINE
  5
28051
  8
0
 10
3155.5486998258061249
 20
142.9658614315897864
 30
0.0
 11
3155.5486998258061249
 21
144.5386960772898135
 31
0.0
  0
ARC
  5
28052
  8
0
 10
3155.4972900398997808
 20
144.5309971535517093
 30
0.0
 40
0.0203210293800577
 50
11.4908860337692396
 51
89.8302130268447314
  0
LINE
  5
28053
  8
0
 10
3155.4973502579650813
 20
144.551318093708403
 30
0.0
 11
3154.5671768248048465
 21
144.543200593389713
 31
0.0
  0
ARC
  5
28054
  8
0
 10
3154.5675203901651003
 20
144.5038320099706084
 30
0.0
 40
0.0393700825194226
 50
90.5000013637676233
 51
172.6907481564016109
  0
ARC
  5
28055
  8
0
 10
3160.426804166068905
 20
143.7522787724541899
 30
0.0
 40
5.9466569923788342
 50
172.6907481564016109
 51
187.309383469365514
  0
ARC
  5
28056
  8
0
 10
3154.5675067261390723
 20
143.0007101002481136
 30
0.0
 40
0.0393545658380961
 50
187.309383469365514
 51
269.5124935449852046
  0
LINE
  5
28057
  8
0
 10
3154.5671718782050448
 20
142.9613569589608915
 30
0.0
 11
3155.4973469191918412
 21
142.9532394440826977
 31
0.0
  0
ARC
  5
28058
  8
0
 10
3155.4971550915470289
 20
142.9733201931202871
 30
0.0
 40
0.0200816652634888
 50
270.5473192305842076
 51
356.7151558575928902
  0
LINE
  5
28059
  8
0
 10
3154.5284700705788055
 20
144.5088396015862884
 30
0.0
 11
3154.5284700705788055
 21
142.9957179065156936
 31
0.0
  0
ARC
  5
2805A
  8
0
 10
3155.5685698960069203
 20
142.9713484446567975
 30
0.0
 40
0.0200410804461729
 50
187.4902692833514095
 51
269.962123347632712
  0
LINE
  5
2805B
  8
0
 10
3155.5685566474048755
 20
142.9513073685897098
 30
0.0
 11
3155.9047123134919275
 21
142.9542409546741055
 31
0.0
  0
ARC
  5
2805C
  8
0
 10
3156.3419553399621691
 20
142.2869256519140038
 30
0.0
 40
0.7978039718469605
 50
57.7661270836547232
 51
123.2339006208565024
  0
LINE
  5
2805D
  8
0
 10
3156.7674851880060487
 20
142.9617704680896964
 30
0.0
 11
3157.1039897183050016
 21
142.9647068899357976
 31
0.0
  0
ARC
  5
2805E
  8
0
 10
3157.1038179361180482
 20
142.984391179678596
 30
0.0
 40
0.0196850392887483
 50
270.4999999657799208
 51
0.0007096429618484
  0
LINE
  5
2805F
  8
0
 10
3157.12350297540479
 20
142.9843914234897113
 30
0.0
 11
3157.1234839539019958
 21
144.5201663288719089
 31
0.0
  0
ARC
  5
28060
  8
0
 10
3157.1038179361048606
 20
144.5201663289898022
 30
0.0
 40
0.0196850393999992
 50
359.9992906633956977
 51
89.4999999999042188
  0
LINE
  5
28061
  8
0
 10
3157.1039897182999994
 20
144.5398506188437011
 30
0.0
 11
3156.76748278175819
 21
144.5427872703901926
 31
0.0
  0
ARC
  5
28062
  8
0
 10
3156.3424870289632054
 20
145.2768182548886955
 30
0.0
 40
0.8481879957284127
 50
238.9296839465476125
 51
300.070362701164072
  0
ARC
  5
28063
  8
0
 10
3156.7489045754650761
 20
144.5309706287563927
 30
0.0
 40
0.0087547945382318
 50
36.7723721080561035
 51
86.3834846489523898
  0
LINE
  5
28064
  8
0
 10
3156.7494568121051088
 20
144.5397079888896883
 30
0.0
 11
3156.7140537228051471
 21
144.5396802160898062
 31
0.0
  0
ARC
  5
28065
  8
0
 10
3156.3361012719087739
 20
145.2304445240864936
 30
0.0
 40
0.7874029364568412
 50
241.3146603522797022
 51
298.6853225023285177
  0
LINE
  5
28066
  8
0
 10
3155.9229032416287737
 20
144.5396803291897072
 30
0.0
 11
3155.9581486144061273
 21
144.5396803291897072
 31
0.0
  0
LINE
  5
28067
  8
0
 10
3156.7101171487051943
 20
150.7650334267609082
 30
0.0
 11
3156.7101171487051943
 21
144.5375408451778867
 31
0.0
  0
LINE
  5
28068
  8
0
 10
3157.1372825030048261
 20
144.5197537402897865
 30
0.0
 11
3157.1372825030048261
 21
142.9848037685898134
 31
0.0
  0
ARC
  5
28069
  8
0
 10
3157.1569678382070379
 20
142.9848037685898134
 30
0.0
 40
0.0196853352022215
 50
180.0
 51
269.9991390434306027
  0
LINE
  5
2806A
  8
0
 10
3157.1569675424048
 20
142.9651184333897902
 30
0.0
 11
3157.8817785486048706
 21
142.9714430136897079
 31
0.0
  0
ARC
  5
2806B
  8
0
 10
3157.8827229244088812
 20
142.9860012587517986
 30
0.0
 40
0.0145888431667397
 50
266.2884919987264993
 51
298.2800775566666971
  0
ARC
  5
2806C
  8
0
 10
3158.2770662968300712
 20
142.3510225687780917
 30
0.0
 40
0.7329053665963619
 50
78.8220891492427427
 51
121.9125379488167056
  0
ARC
  5
2806D
  8
0
 10
3158.4321490683500997
 20
143.1178654049791987
 30
0.0
 40
0.04957672896016
 50
254.7927227482030901
 51
264.5287819988682259
  0
LINE
  5
2806E
  8
0
 10
3158.4274221398050031
 20
143.0685145366898041
 30
0.0
 11
3158.7657369491089412
 21
143.0718737502897966
 31
0.0
  0
ARC
  5
2806F
  8
0
 10
3158.7663332478978191
 20
143.0895462555839117
 30
0.0
 40
0.017682562473091
 50
268.0674812953974993
 51
315.5577799154053764
  0
ARC
  5
28070
  8
0
 10
3158.7601602276768062
 20
143.0956002409702137
 30
0.0
 40
0.0263287707576778
 50
315.5577799154053764
 51
342.8040728252506142
  0
ARC
  5
28071
  8
0
 10
3158.7403664597291026
 20
143.101725893861186
 30
0.0
 40
0.0470487339071256
 50
342.8040728252506142
 51
353.0501049705670766
  0
ARC
  5
28072
  8
0
 10
3153.5227675314408771
 20
143.7377354216428103
 30
0.0
 40
5.303268544370062
 50
353.0501049705670766
 51
6.8511551947446216
  0
ARC
  5
28073
  8
0
 10
3158.7677324750679873
 20
144.3674291410096941
 30
0.0
 40
0.0206448603632184
 50
8.1750663483515691
 51
88.7429946859118957
  0
LINE
  5
28074
  8
0
 10
3158.7681853638791836
 20
144.3880690332366044
 30
0.0
 11
3158.4846201276232023
 21
144.3910340086584938
 31
0.0
  0
ARC
  5
28075
  8
0
 10
3157.1569675424111665
 20
144.5197540360823893
 30
0.0
 40
0.0196850394073352
 50
90.0000000148774575
 51
180.0008609417016885
  0
LINE
  5
28076
  8
0
 10
3157.1569675424048
 20
144.5394390754898097
 30
0.0
 11
3157.7834426261051703
 21
144.5339733114898024
 31
0.0
  0
ARC
  5
28077
  8
0
 10
3157.7832387791499968
 20
144.4947781987071949
 30
0.0
 40
0.0391489844062642
 50
57.234567190995989
 51
89.6044076710004873
  0
ARC
  5
28078
  8
0
 10
3158.7830048119790263
 20
146.0481687981009884
 30
0.0
 40
1.8081610801700141
 50
237.234567190995989
 51
242.6095579158262865
  0
ARC
  5
28079
  8
0
 10
3158.3589426680728138
 20
145.2297358583691107
 30
0.0
 40
0.886390404387561
 50
242.6095579158262865
 51
256.7907609461491916
  0
ARC
  5
2807A
  8
0
 10
3158.2776861377788009
 20
144.9162547090452904
 30
0.0
 40
0.5626851985839221
 50
257.5518021198590191
 51
272.1763679598794283
  0
ARC
  5
2807B
  8
0
 10
3158.2653997104112022
 20
145.0098548540426009
 30
0.0
 40
0.6567423450854414
 50
272.9374091335649268
 51
282.0889143395643828
  0
ARC
  5
2807C
  8
0
 10
3158.2643611577382217
 20
145.006771866445888
 30
0.0
 40
0.6539473398733744
 50
282.2344600943029036
 51
289.6829167798953222
  0
LINE
  5
2807D
  8
0
 10
3157.7408259370968153
 20
144.5351347895897902
 30
0.0
 11
3158.801455643053032
 21
144.5351347895897902
 31
0.0
  0
ARC
  5
2807E
  8
0
 10
3158.8014556431007804
 20
144.5548215047913914
 30
0.0
 40
0.0196867152016562
 50
269.999999858025717
 51
359.9871180807082851
  0
LINE
  5
2807F
  8
0
 10
3158.8211423578050017
 20
144.5548170785897071
 30
0.0
 11
3158.8182211791049667
 21
147.5617739926898082
 31
0.0
  0
ARC
  5
28080
  8
0
 10
3176.8344235491617837
 20
147.6544420456731075
 30
0.0
 40
18.0164406919590299
 50
176.0441429233763131
 51
180.2947037005752122
  0
ARC
  5
28081
  8
0
 10
3163.4299415464888625
 20
148.5813974562244937
 30
0.0
 40
4.5799462051847648
 50
167.8505519548160123
 51
176.0441429233763131
  0
ARC
  5
28082
  8
0
 10
3160.452321215856955
 20
149.2224323263843928
 30
0.0
 40
1.53410501790077
 50
142.6949531959490969
 51
167.8505519548160123
  0
ARC
  5
28083
  8
0
 10
3164.7919030178359208
 20
145.3007497974745945
 30
0.0
 40
7.3789082524978902
 50
132.3262431085287005
 51
138.8924957392823956
  0
ARC
  5
28084
  8
0
 10
3158.3642781019348149
 20
152.2447169802595965
 30
0.0
 40
2.084372965891919
 50
314.4257338644790138
 51
350.2162447678668968
  0
ARC
  5
28085
  8
0
 10
3158.1500427631781349
 20
152.2482517814437131
 30
0.0
 40
2.0672016018966208
 50
216.5014087571944117
 51
225.8485076293351028
  0
ARC
  5
28086
  8
0
 10
3158.0493379238791931
 20
152.1737302883936991
 30
0.0
 40
1.94192224372152
 50
193.6129070343233991
 51
216.5014087571944117
  0
ARC
  5
28087
  8
0
 10
3157.9548717628381382
 20
152.1508539916964082
 30
0.0
 40
1.8447256361032349
 50
170.5268663197165893
 51
193.6129070343233991
  0
ARC
  5
28088
  8
0
 10
3157.8017660545278886
 20
152.1764013035954974
 30
0.0
 40
1.6895031407550529
 50
145.0833423107930003
 51
170.5268663197165893
  0
ARC
  5
28089
  8
0
 10
3158.3001512311129773
 20
151.8285075335911927
 30
0.0
 40
2.2973006888317049
 50
133.7990702098427107
 51
145.0833423107930003
  0
ARC
  5
2808A
  8
0
 10
3158.2038116322028145
 20
151.8643459029327119
 30
0.0
 40
2.2052076095566862
 50
107.4078245354998984
 51
132.6368060559344997
  0
ARC
  5
2808B
  8
0
 10
3158.2012614180462151
 20
151.3529768183742874
 30
0.0
 40
2.731188723082925
 50
69.459704343702839
 51
87.190361672171079
  0
ARC
  5
2808C
  8
0
 10
3158.4249973496230268
 20
150.6064166652568019
 30
0.0
 40
3.475627535403174
 50
91.481493873769864
 51
104.6821400347798061
  0
ARC
  5
2808D
  8
0
 10
3158.4222356724458223
 20
151.9960148654706131
 30
0.0
 40
2.0515842060145411
 50
25.6690271844226388
 51
68.9376117918149021
  0
ARC
  5
2808E
  8
0
 10
3156.8698866030149475
 20
152.2470218228910142
 30
0.0
 40
3.5663130207868181
 50
354.2629082985642981
 51
358.5246477158672747
  0
ARC
  5
2808F
  8
0
 10
3158.1883230781400016
 20
152.0342605477628979
 30
0.0
 40
2.249947032559116
 50
3.081262602677711
 51
22.2088354324206314
  0
ARC
  5
28090
  8
0
 10
3160.5083177278570474
 20
154.5154708822387022
 30
0.0
 40
5.3377999912805656
 50
224.6374724989850051
 51
226.1575477187990941
  0
ARC
  5
28091
  8
0
 10
3130.0117027793698981
 20
122.7610254440915014
 30
0.0
 40
38.689331739056982
 50
45.4792972388244578
 51
46.1575477187991225
  0
ARC
  5
28092
  8
0
 10
3155.9429605379641544
 20
149.129799645628708
 30
0.0
 40
1.7063304839630891
 50
35.8010634921984092
 51
45.4792972388244578
  0
ARC
  5
28093
  8
0
 10
3156.0292178221870927
 20
149.1920127949506139
 30
0.0
 40
1.5999782624060379
 50
12.7582933079320604
 51
35.8010634921984092
  0
ARC
  5
28094
  8
0
 10
3153.5349849999211074
 20
148.6272460017860908
 30
0.0
 40
4.1573517005903309
 50
2.1293484204757629
 51
12.7582933079320604
  0
ARC
  5
28095
  8
0
 10
3107.7136555149650121
 20
146.9235512202550069
 30
0.0
 40
50.010343006256079
 50
359.8086033569742881
 51
2.1293484204757629
  0
LINE
  5
28096
  8
0
 10
3157.723719489999894
 20
146.7564919002244039
 30
0.0
 11
3157.7211410135278129
 21
144.5547731090769901
 31
0.0
  0
ARC
  5
28097
  8
0
 10
3157.740828128055
 20
144.5548219646146038
 30
0.0
 40
0.0196871751467223
 50
180.1421848976303863
 51
269.993623632546587
  0
LINE
  5
28098
  8
0
 10
3157.8190844156051753
 20
144.5183455796897078
 30
0.0
 11
3157.8187197814049796
 21
144.5272607737898056
 31
0.0
  0
ARC
  5
28099
  8
0
 10
3157.8267188284039548
 20
144.5272113628421096
 30
0.0
 40
0.007999199605944
 50
97.8925005046794325
 51
179.6460824951080895
  0
LINE
  5
2809A
  8
0
 10
3158.7177919219047908
 20
144.3886206852712917
 30
0.0
 11
3158.7235549339047793
 21
144.5269329741896911
 31
0.0
  0
ARC
  5
2809B
  8
0
 10
3158.7154831199482032
 20
144.5272184063877035
 30
0.0
 40
0.0080768590487854
 50
357.9747738398706929
 51
78.5595549807177491
  0
ARC
  5
2809C
  8
0
 10
3199.7793372599749091
 20
143.1111147952719875
 30
0.0
 40
41.2224108594442029
 50
180.0574233299986133
 51
186.7535663210275914
  0
ARC
  5
2809D
  8
0
 10
3241.8919079262977903
 20
148.0981239929002129
 30
0.0
 40
83.6292365937917452
 50
186.7535663210275914
 51
191.6228267047239058
  0
ARC
  5
2809E
  8
0
 10
3125.4339134998190275
 20
124.1443749454299024
 30
0.0
 40
35.2667118622735174
 50
2.6101626791982731
 51
11.6228267047239608
  0
ARC
  5
2809F
  8
0
 10
3152.9670433068590683
 20
125.3995407757569041
 30
0.0
 40
7.7049869845930363
 50
358.1752585786128975
 51
358.5205182843031935
  0
ARC
  5
280A0
  8
0
 10
3152.9670433068590683
 20
125.3995407757569041
 30
0.0
 40
7.7049869845930363
 50
1.4794817156968421
 51
2.6101626791982731
  0
ARC
  5
280A1
  8
0
 10
3143.6896339392310438
 20
125.3555410164750015
 30
0.0
 40
16.4091840869549408
 50
358.596346771545484
 51
1.7602109968434421
  0
ARC
  5
280A2
  8
0
 10
3136.4868088546882063
 20
125.134189946140296
 30
0.0
 40
23.6154095548993901
 50
1.7602109968434421
 51
9.5908953593827082
  0
ARC
  5
280A3
  8
0
 10
3556.5732319926551099
 20
201.2150246665476914
 30
0.0
 40
403.3065686460358847
 50
189.2360677107527067
 51
190.3049259334831902
  0
ARC
  5
280A4
  8
0
 10
3206.2606251843808423
 20
143.5435950552341922
 30
0.0
 40
48.2842448829064708
 50
183.0457028655729914
 51
188.4081540833068118
  0
ARC
  5
280A5
  8
0
 10
3201.5132965526067892
 20
143.2346793346092113
 30
0.0
 40
43.5272448601008293
 50
180.2774604498108886
 51
182.971670546600393
  0
LINE
  5
280A6
  8
0
 10
3155.9213927362779941
 20
142.9648771795897062
 30
0.0
 11
3155.9583190976550213
 21
142.9648771795897062
 31
0.0
  0
ARC
  5
280A7
  8
0
 10
3156.3361808319668853
 20
142.1945370927772103
 30
0.0
 40
0.8580229248729908
 50
63.8706292624353935
 51
116.1285455543041962
  0
LINE
  5
280A8
  8
0
 10
3156.7140536608048933
 20
142.9648717374828095
 30
0.0
 11
3156.7494873203531824
 21
142.9648908844359028
 31
0.0
  0
ARC
  5
280A9
  8
0
 10
3156.7489617832998192
 20
142.9734214390502132
 30
0.0
 40
0.0085467275152773
 50
273.5253332210735948
 51
327.1840136425506103
  0
LINE
  5
280AA
  8
0
 10
3155.9620856526048556
 20
142.9667133267975032
 30
0.0
 11
3155.9620856526048556
 21
135.8231448961898025
 31
0.0
  0
LINE
  5
280AB
  8
0
 10
3155.9620856526048556
 20
135.5869244236897089
 30
0.0
 11
3155.9620856526048556
 21
124.9484014436737027
 31
0.0
  0
LINE
  5
280AC
  8
0
 10
3156.7101171487051943
 20
124.9489160404788066
 30
0.0
 11
3156.7101171487051943
 21
135.5869244236897089
 31
0.0
  0
LINE
  5
280AD
  8
0
 10
3156.7101171487051943
 20
135.8231448961898025
 30
0.0
 11
3156.7101171487051943
 21
142.9667155670896932
 31
0.0
  0
ARC
  5
280AE
  8
0
 10
3157.1333454951050044
 20
144.4902963168898111
 30
0.0
 40
0.0098425197000008
 50
180.0013638756041132
 51
269.4999999857557214
  0
LINE
  5
280AF
  8
0
 10
3157.1332596040051612
 20
144.4804541719626911
 30
0.0
 11
3157.1372825030048261
 21
144.480419064654086
 31
0.0
  0
ARC
  5
280B0
  8
0
 10
3157.1333454950699888
 20
143.014261191997889
 30
0.0
 40
0.0098425196645908
 50
90.4999998098862761
 51
179.9986361716223939
  0
LINE
  5
280B1
  8
0
 10
3157.1332596040051612
 20
143.0241033368897092
 30
0.0
 11
3157.1372825030048261
 21
143.0241384441841035
 31
0.0
  0
LINE
  5
280B2
  8
0
 10
3158.7870984960050009
 20
144.3745822866439141
 30
0.0
 11
3158.7870984960050009
 21
143.096206696584602
 31
0.0
  0
LINE
  5
280B3
  8
0
 10
3152.2219281723050699
 20
124.938609136089795
 30
0.0
 11
3152.2219281723050699
 21
123.1958696325897051
 31
0.0
  0
ARC
  5
280B4
  8
0
 10
3152.2337391959049455
 20
123.1958696325897051
 30
0.0
 40
0.0118110235999995
 50
179.9999999999984084
 51
269.5000000000085265
  0
LINE
  5
280B5
  8
0
 10
3152.2336361265888627
 20
123.1840590587172954
 30
0.0
 11
3152.5250777746809945
 21
123.1815156859857012
 31
0.0
  0
ARC
  5
280B6
  8
0
 10
3152.525179956266129
 20
123.193224535790506
 30
0.0
 40
0.011709295658906
 50
269.5000000000085265
 51
0.5021624556066684
  0
LINE
  5
280B7
  8
0
 10
3152.536888802204885
 20
123.1933271592897938
 30
0.0
 11
3152.536888802204885
 21
124.9411516093898058
 31
0.0
  0
ARC
  5
280B8
  8
0
 10
3152.5250777786059189
 20
124.9411516093898058
 30
0.0
 40
0.0118110235999995
 50
0.0000000000081422
 51
90.0
  0
LINE
  5
280B9
  8
0
 10
3152.5250777786059189
 20
124.9529626329897951
 30
0.0
 11
3152.2336361265888627
 21
124.9504197099622047
 31
0.0
  0
ARC
  5
280BA
  8
0
 10
3152.2337391959049455
 20
124.938609136089795
 30
0.0
 40
0.0118110236000007
 50
90.4999999188789133
 51
179.9999999999917861
  0
LINE
  5
280BB
  8
0
 10
3152.1786210856048456
 20
125.1432768822157016
 30
0.0
 11
3152.17862108570489
 21
123.1880522703898038
 31
0.0
  0
ARC
  5
280BC
  8
0
 10
3152.1668100618799144
 20
123.1880522703890932
 30
0.0
 40
0.0118110238257301
 50
269.5000006176682064
 51
0.0000000029295708
  0
LINE
  5
280BD
  8
0
 10
3152.1667069926879776
 20
123.1762416962899067
 30
0.0
 11
3150.529852370350909
 21
123.1905262925246944
 31
0.0
  0
ARC
  5
280BE
  8
0
 10
3150.5300241519471456
 20
123.2102105380437962
 30
0.0
 40
0.0196849950615401
 50
224.9998740677343108
 51
269.5000006176682064
  0
LINE
  5
280BF
  8
0
 10
3150.5161047278579645
 20
123.1962911751420933
 30
0.0
 11
3150.4492205753649614
 21
123.263175621649097
 31
0.0
  0
ARC
  5
280C0
  8
0
 10
3150.4561806949018319
 20
123.2701357105904947
 30
0.0
 40
0.0098430738106493
 50
180.0030472576682996
 51
224.9998740677297064
  0
LINE
  5
280C1
  8
0
 10
3150.4463376211051582
 20
123.2701351870898065
 30
0.0
 11
3150.4462386879308724
 21
125.1303170062589061
 31
0.0
  0
ARC
  5
280C2
  8
0
 10
3150.4560803428489635
 20
125.1303175296841061
 30
0.0
 40
0.0098416549312465
 50
89.9190375404028259
 51
180.0030472576682996
  0
LINE
  5
280C3
  8
0
 10
3150.4560942497078031
 20
125.140159174789801
 30
0.0
 11
3152.1667069924051248
 21
125.1550874660897961
 31
0.0
  0
ARC
  5
280C4
  8
0
 10
3152.1668123552731231
 20
125.1432792055865946
 30
0.0
 40
0.0118087305602786
 50
359.988727040214826
 51
90.5112258037350443
  0
ARC
  5
280C5
  8
0
 10
3160.3937689879649042
 20
124.068045745827007
 30
0.0
 40
9.9767680714307776
 50
175.6050409439554016
 51
184.3533304939614936
  0
ARC
  5
280C6
  8
0
 10
3150.4537715318519986
 20
123.3113431731247971
 30
0.0
 40
0.008009463893713
 50
184.3150193689068885
 51
201.8140500408792946
  0
ARC
  5
280C7
  8
0
 10
3152.1660443039681923
 20
124.9340726665642052
 30
0.0
 40
0.0135074665789332
 50
21.3932989937002382
 51
87.1878874603156362
  0
LINE
  5
280C8
  8
0
 10
3152.1667069927048033
 20
124.9475638672898015
 30
0.0
 11
3150.5298585193049803
 21
124.9350548270897008
 31
0.0
  0
ARC
  5
280C9
  8
0
 10
3150.5295011288640126
 20
124.9167994102713948
 30
0.0
 40
0.0182589148400814
 50
88.8784507809435667
 51
137.1967202994256922
  0
LINE
  5
280CA
  8
0
 10
3150.5161047279048034
 20
124.9292060380361988
 30
0.0
 11
3150.4488412047949168
 21
124.861302278810399
 31
0.0
  0
ARC
  5
280CB
  8
0
 10
3150.4572019879278741
 20
124.8541280736815935
 30
0.0
 40
0.011016892203687
 50
139.3678282975400862
 51
173.6206571024310108
  0
LINE
  5
280CC
  8
0
 10
3150.5161047278579645
 20
123.1962911751420933
 30
0.0
 11
3150.5161047279048034
 21
124.9292060380361988
 31
0.0
  0
ARC
  5
280CD
  8
0
 10
3153.3833454951050044
 20
124.0672393843896941
 30
0.0
 40
1.3777779556999989
 50
219.9117068926125
 51
319.9886981503989887
  0
ARC
  5
280CE
  8
0
 10
3153.3833454951050044
 20
124.0672393843896941
 30
0.0
 40
1.3777779556999989
 50
40.0113018441707027
 51
140.0882931128413986
  0
ARC
  5
280CF
  8
0
 10
3153.3833454951050044
 20
124.0672393843896941
 30
0.0
 40
1.3564464943000001
 50
220.6833102597362029
 51
319.228078618164318
  0
ARC
  5
280D0
  8
0
 10
3153.3833454951050044
 20
124.0672393843896941
 30
0.0
 40
1.3564464943000001
 50
40.7719213762545465
 51
139.316689745886606
  0
ARC
  5
280D1
  8
0
 10
3153.3833454951050044
 20
124.0672393843896941
 30
0.0
 40
1.246285357399999
 50
225.2805161352891048
 51
314.7021048268489949
  0
ARC
  5
280D2
  8
0
 10
3153.3833454951050044
 20
124.0672393843896941
 30
0.0
 40
1.246285357399999
 50
45.2978951666197389
 51
134.7194838713078013
  0
LINE
  5
280D3
  8
0
 10
3152.5565738416048589
 20
124.9530661559898022
 30
0.0
 11
3155.952243132905096
 21
124.9530661559898022
 31
0.0
  0
LINE
  5
280D4
  8
0
 10
3156.7188583285460481
 20
124.9530661559898022
 30
0.0
 11
3160.1156289597051909
 21
124.9530661559898022
 31
0.0
  0
LINE
  5
280D5
  8
0
 10
3152.5565738416048589
 20
123.1814126126897975
 30
0.0
 11
3155.8321643928052254
 21
123.1814126126897975
 31
0.0
  0
LINE
  5
280D6
  8
0
 10
3156.8400384085048245
 20
123.1814126126897975
 30
0.0
 11
3160.1156289597051909
 21
123.1814126126897975
 31
0.0
  0
LINE
  5
280D7
  8
0
 10
3152.1786210856180332
 20
124.8936331026889945
 30
0.0
 11
3152.2102178116560935
 21
124.8939088430899034
 31
0.0
  0
ARC
  5
280D8
  8
0
 10
3152.2101171482349855
 20
124.9057194381832971
 30
0.0
 40
0.0118110240701149
 50
270.488328441353417
 51
359.9999990612004126
  0
LINE
  5
280D9
  8
0
 10
3152.178621085703071
 20
123.2408456659897951
 30
0.0
 11
3152.2105347393589909
 21
123.2405629698119043
 31
0.0
  0
ARC
  5
280DA
  8
0
 10
3152.21011401689384
 20
123.2287374525515986
 30
0.0
 40
0.0118329990224707
 50
3.2339249757696811
 51
87.9624182092602922
  0
ARC
  5
280DB
  8
0
 10
3152.5567629160941578
 20
124.9330636636954068
 30
0.0
 40
0.0200033858921017
 50
90.5415748903545676
 51
173.4826315004144988
  0
ARC
  5
280DC
  8
0
 10
3152.5567198813778305
 20
123.2014865164957058
 30
0.0
 40
0.020074435026304
 50
188.9305164709753058
 51
269.5831744999035209
  0
ARC
  5
280DD
  8
0
 10
3156.3355507307260268
 20
125.7491270839919935
 30
0.0
 40
0.8835370482546512
 50
244.2889359140546048
 51
295.7110640859453952
  0
ARC
  5
280DE
  8
0
 10
3156.3361014006550249
 20
122.3124336801692067
 30
0.0
 40
1.0045281942510711
 50
59.88975873412776
 51
120.1102412658722045
  0
LINE
  5
280DF
  8
0
 10
3155.8910519373048373
 20
123.2129934328881973
 30
0.0
 11
3155.941614549004953
 21
121.9994907515898035
 31
0.0
  0
ARC
  5
280E0
  8
0
 10
3155.9612825229278315
 20
122.0003102505029062
 30
0.0
 40
0.019685039413113
 50
182.3859440294087904
 51
269.9999999336898213
  0
LINE
  5
280E1
  8
0
 10
3155.9612825229050941
 20
121.980625211089702
 30
0.0
 11
3156.7109202783049113
 21
121.9806252102222004
 31
0.0
  0
ARC
  5
280E2
  8
0
 10
3156.7109202783281034
 20
122.0003102495500968
 30
0.0
 40
0.0196850393279249
 50
269.9999999336898213
 51
357.6140586996070283
  0
LINE
  5
280E3
  8
0
 10
3156.7305882522050524
 20
121.9994907515772979
 30
0.0
 11
3156.7811508071758908
 21
123.2129934609728963
 31
0.0
  0
ARC
  5
280E4
  8
0
 10
3159.288857306105001
 20
124.0672393843896941
 30
0.0
 40
1.3777779556999989
 50
220.0113018496010113
 51
295.7978636564586168
  0
ARC
  5
280E5
  8
0
 10
3159.288857306105001
 20
124.0672393843896941
 30
0.0
 40
1.3777779556999989
 50
54.04058214026076
 51
139.9886981558292973
  0
ARC
  5
280E6
  8
0
 10
3159.288857306105001
 20
124.0672393843896941
 30
0.0
 40
1.3564464943000001
 50
220.7719213818357105
 51
296.4467796193911227
  0
ARC
  5
280E7
  8
0
 10
3159.288857306105001
 20
124.0672393843896941
 30
0.0
 40
1.3564464943000001
 50
53.3998464006238365
 51
139.2280786237454038
  0
ARC
  5
280E8
  8
0
 10
3159.288857306105001
 20
124.0672393843896941
 30
0.0
 40
1.246285357399999
 50
225.2978951731510051
 51
300.2553151013426032
  0
ARC
  5
280E9
  8
0
 10
3159.288857306105001
 20
124.0672393843896941
 30
0.0
 40
1.246285357399999
 50
49.6717667711995503
 51
134.70210483338019
  0
ARC
  5
280EA
  8
0
 10
3148.5405373992070963
 20
124.8951857635171052
 30
0.0
 40
11.5342150908297096
 50
343.2353867134041252
 51
351.455257738638295
  0
ARC
  5
280EB
  8
0
 10
3150.9695131208700332
 20
124.1634713696571026
 30
0.0
 40
8.9974200635150101
 50
331.8297855220873203
 51
343.2353867134041252
  0
ARC
  5
280EC
  8
0
 10
3153.5848116057991319
 20
122.7629106010535054
 30
0.0
 40
6.0307120172412114
 50
319.9001849393002885
 51
331.8297855220873203
  0
ARC
  5
280ED
  8
0
 10
3156.7356298211147987
 20
120.1096926790444996
 30
0.0
 40
1.9115833754487681
 50
303.3193189616725931
 51
319.9001849393002885
  0
ARC
  5
280EE
  8
0
 10
3157.3002516190240385
 20
119.2507694103015012
 30
0.0
 40
0.8836986755617307
 50
289.8349413147709015
 51
303.3193189616725931
  0
ARC
  5
280EF
  8
0
 10
3157.4768558275809482
 20
118.7611693835383022
 30
0.0
 40
0.3632207868030993
 50
251.3861395756084107
 51
289.8349413147709015
  0
ARC
  5
280F0
  8
0
 10
3157.571522241672028
 20
118.8245247639111994
 30
0.0
 40
0.4587722471329806
 50
217.6035779705813979
 51
242.6737640948954891
  0
ARC
  5
280F1
  8
0
 10
3158.7853765238642154
 20
119.6698921257000023
 30
0.0
 40
1.937588024087685
 50
194.7745711969380977
 51
215.5052536705896955
  0
ARC
  5
280F2
  8
0
 10
3164.5422794304258787
 20
121.1881984373558936
 30
0.0
 40
7.8913418929998844
 50
187.7944170548005047
 51
194.7745711969380977
  0
ARC
  5
280F3
  8
0
 10
3166.7562822811928527
 20
121.4912593233872968
 30
0.0
 40
10.1259905284342899
 50
180.805390654182105
 51
187.7944170548005047
  0
ARC
  5
280F4
  8
0
 10
2950.2793227579568338
 20
118.4481031662028983
 30
0.0
 40
206.3723577419895889
 50
0.8053906541821069
 51
0.9807926386308823
  0
ARC
  5
280F5
  8
0
 10
3174.7133412581360972
 20
121.9583039986942055
 30
0.0
 40
18.6625966033669393
 50
179.9314719384452133
 51
183.9209244991799892
  0
ARC
  5
280F6
  8
0
 10
3165.6775345175660732
 20
121.3389891852439035
 30
0.0
 40
9.6055907906780256
 50
183.9209244991799892
 51
192.8152765429757949
  0
ARC
  5
280F7
  8
0
 10
3159.3241137503168829
 20
119.893745868168196
 30
0.0
 40
3.0898649146710548
 50
192.8152765429757949
 51
210.1214294558234883
  0
ARC
  5
280F8
  8
0
 10
3157.662346021706071
 20
118.9296222532880023
 30
0.0
 40
1.168665724420104
 50
210.1214294558234883
 51
235.1265092536860095
  0
ARC
  5
280F9
  8
0
 10
3157.463302189415117
 20
118.6440180980689973
 30
0.0
 40
0.8205447962190984
 50
235.1265092536860095
 51
257.5874639477405026
  0
ARC
  5
280FA
  8
0
 10
3157.4673994390727785
 20
118.6626340363227001
 30
0.0
 40
0.8396062917487668
 50
257.5874639477405026
 51
282.0651645043378721
  0
ARC
  5
280FB
  8
0
 10
3157.3725998468707985
 20
119.1061500925404033
 30
0.0
 40
1.2931406948590589
 50
282.0651645043378721
 51
299.6653169189888786
  0
ARC
  5
280FC
  8
0
 10
3156.5536078298659959
 20
120.3426041382846989
 30
0.0
 40
2.7746715670574749
 50
301.7242364335829734
 51
321.9248007336743171
  0
ARC
  5
280FD
  8
0
 10
3152.7424597576150518
 20
123.301666520288606
 30
0.0
 40
7.5996834599595751
 50
322.0826479722782096
 51
338.6596822701295082
  0
ARC
  5
280FE
  8
0
 10
3149.8912262631301928
 20
124.567918284301598
 30
0.0
 40
10.7171595634268897
 50
337.9013131814041913
 51
352.5418250157259763
  0
ARC
  5
280FF
  8
0
 10
3160.1157004233627958
 20
123.201026189029804
 30
0.0
 40
0.0196137065314697
 50
269.7912390985115962
 51
0.20875944619202
  0
LINE
  5
28100
  8
0
 10
3160.1353139997049766
 20
123.2010976521898016
 30
0.0
 11
3160.135305747799066
 21
124.9339507128824067
 31
0.0
  0
ARC
  5
28101
  8
0
 10
3160.1156289507048314
 20
124.9333811163896968
 30
0.0
 40
0.0196850396000055
 50
1.658113547857154
 51
89.9999738034428844
  0
LINE
  5
28102
  8
0
 10
3160.16681006200497
 20
124.9054097685897062
 30
0.0
 11
3160.1353139991051648
 21
124.9051349065897938
 31
0.0
  0
LINE
  5
28103
  8
0
 10
3160.166810062075001
 20
124.9488214889897932
 30
0.0
 11
3160.166810062075001
 21
123.1856572796897069
 31
0.0
  0
ARC
  5
28104
  8
0
 10
3160.1786010963169247
 20
123.1856372903316981
 30
0.0
 40
0.0117910511859787
 50
179.9028664720073891
 51
270.0971336749923921
  0
LINE
  5
28105
  8
0
 10
3160.17862108570489
 20
123.1738462560898029
 30
0.0
 11
3160.4700627377051205
 21
123.1763891791181038
 31
0.0
  0
ARC
  5
28106
  8
0
 10
3160.4699596682307856
 20
123.1881997531657049
 30
0.0
 40
0.0118110237765897
 50
270.5000025643021786
 51
359.9999991464592881
  0
LINE
  5
28107
  8
0
 10
3160.4817706920080127
 20
123.186421652608999
 30
0.0
 11
3160.4817706920080127
 21
125.1458932317896995
 31
0.0
  0
ARC
  5
28108
  8
0
 10
3160.4916132524322165
 20
125.145893231965502
 30
0.0
 40
0.0098425604243361
 50
90.000237079351237
 51
180.0000010230959901
  0
LINE
  5
28109
  8
0
 10
3160.4916132117050438
 20
125.1557357923898053
 30
0.0
 11
3160.9483420206138362
 21
125.1517503552087049
 31
0.0
  0
ARC
  5
2810A
  8
0
 10
3160.9483076673800497
 20
125.147813497174198
 30
0.0
 40
0.0039370079254524
 50
0.0000002256323149
 51
89.499998747960916
  0
LINE
  5
2810B
  8
0
 10
3160.9522446753048825
 20
125.147813497189702
 30
0.0
 11
3160.9527288221797789
 21
124.9496812757189019
 31
0.0
  0
ARC
  5
2810C
  8
0
 10
3160.9592425481150713
 20
124.9495159495292
 30
0.0
 40
0.0065158236854235
 50
178.5460764358344079
 51
186.5380149708269926
  0
ARC
  5
2810D
  8
0
 10
3160.956093244306885
 20
124.9491550148787979
 30
0.0
 40
0.0033459043970716
 50
186.5380149708431929
 51
212.3152961977430095
  0
ARC
  5
2810E
  8
0
 10
3160.9555103610359765
 20
124.9492499393944058
 30
0.0
 40
0.0029303564225776
 50
219.9993506568409884
 51
244.1471568839552049
  0
ARC
  5
2810F
  8
0
 10
3160.9587127188551676
 20
124.9554882438457071
 30
0.0
 40
0.0099420497249347
 50
243.2159734000792071
 51
261.165056385898481
  0
ARC
  5
28110
  8
0
 10
3160.9641050205468673
 20
124.9901804319291045
 30
0.0
 40
0.0450508069166407
 50
261.165056385898481
 51
268.2661015070272015
  0
LINE
  5
28111
  8
0
 10
3160.4817706920080127
 20
124.9447760901659024
 30
0.0
 11
3162.2140541565158856
 21
124.9396715019664015
 31
0.0
  0
ARC
  5
28112
  8
0
 10
3161.733984534071169
 20
124.964649978955606
 30
0.0
 40
0.0252950079586697
 50
268.6048967393020916
 51
285.9291424532030987
  0
ARC
  5
28113
  8
0
 10
3161.7401120410881958
 20
124.9431806499858055
 30
0.0
 40
0.0029683774769674
 50
285.9291424532290193
 51
359.0740055377610815
  0
LINE
  5
28114
  8
0
 10
3161.7430800309048209
 20
124.943132678189798
 30
0.0
 11
3161.7435631431048932
 21
125.1408486303896979
 31
0.0
  0
ARC
  5
28115
  8
0
 10
3161.7475001392740523
 20
125.1408390502646029
 30
0.0
 40
0.0039370078251745
 50
89.9999995524775329
 51
179.8605790728398972
  0
LINE
  5
28116
  8
0
 10
3161.7475001393049752
 20
125.1447760580898034
 30
0.0
 11
3162.2040940413571661
 21
125.1407915733907998
 31
0.0
  0
ARC
  5
28117
  8
0
 10
3162.2042064749689416
 20
125.1309445332392016
 30
0.0
 40
0.0098476820148431
 50
0.0178691491710774
 51
90.6541754091307155
  0
LINE
  5
28118
  8
0
 10
3162.2140541565049716
 20
125.1309476044897053
 30
0.0
 11
3162.214054156605016
 21
123.2740721949897988
 31
0.0
  0
ARC
  5
28119
  8
0
 10
3162.2042116369048017
 20
123.2740721949897988
 30
0.0
 40
0.0098425196999976
 50
315.0000000015901946
 51
0.0
  0
LINE
  5
2811A
  8
0
 10
3162.2111713493291063
 20
123.2671124825661053
 30
0.0
 11
3162.1406721241328341
 21
123.1966132573662946
 31
0.0
  0
ARC
  5
2811B
  8
0
 10
3162.1267526996061861
 20
123.210532681893099
 30
0.0
 40
0.0196850389467555
 50
270.4999991508755102
 51
315.0000000015901946
  0
LINE
  5
2811C
  8
0
 10
3162.1269244815048296
 20
123.1908483924897979
 30
0.0
 11
3160.4916132117050438
 21
123.176577621989793
 31
0.0
  0
ARC
  5
2811D
  8
0
 10
3160.4916125353847747
 20
123.1864194655875053
 30
0.0
 40
0.0098418436209413
 50
179.9872679237678881
 51
270.0039372968698785
  0
LINE
  5
2811E
  8
0
 10
3160.16681006200497
 20
123.2290690001897957
 30
0.0
 11
3160.1353139991051648
 21
123.2290690001897957
 31
0.0
  0
ARC
  5
2811F
  8
0
 10
3160.1786210815098457
 20
124.9488214931540995
 30
0.0
 40
0.0118110194356803
 50
89.999979651667303
 51
180.0000202012857926
  0
LINE
  5
28120
  8
0
 10
3160.17862108570489
 20
124.9606325125896973
 30
0.0
 11
3160.4709548430691939
 21
124.9580480388297019
 31
0.0
  0
ARC
  5
28121
  8
0
 10
3160.4699561792640452
 20
124.9462658234666037
 30
0.0
 40
0.0118244631277365
 50
2.350700732761184
 51
85.1551741047174886
  0
LINE
  5
28122
  8
0
 10
3160.9584667695880853
 20
124.9454838400012022
 30
0.0
 11
3160.9598112959051832
 21
125.1380699181897995
 31
0.0
  0
ARC
  5
28123
  8
0
 10
3160.9716220651580443
 20
125.1379874621251957
 30
0.0
 40
0.0118110570805423
 50
89.5128895752632729
 51
179.5999999968871066
  0
LINE
  5
28124
  8
0
 10
3160.9717224777859883
 20
125.1497980923652023
 30
0.0
 11
3161.7263203605148192
 21
125.1432128166953959
 31
0.0
  0
ARC
  5
28125
  8
0
 10
3161.726217294991784
 20
125.1314022427579005
 30
0.0
 40
0.011811023631945
 50
0.3998554425526733
 51
89.5000184059304758
  0
LINE
  5
28126
  8
0
 10
3161.7380280310048875
 20
125.1314846687897955
 30
0.0
 11
3161.7393653293711395
 21
124.9399339018081037
 31
0.0
  0
ARC
  5
28127
  8
0
 10
3158.1849832279608563
 20
152.0613731537488036
 30
0.0
 40
0.0261133975330208
 50
73.9931594745391834
 51
176.1688810656532951
  0
ARC
  5
28128
  8
0
 10
3158.1833732412810605
 20
152.0557609918504909
 30
0.0
 40
0.0319519263102044
 50
18.1065649356723206
 51
73.9931594745391834
  0
ARC
  5
28129
  8
0
 10
3158.186486545020216
 20
152.0642661798158031
 30
0.0
 40
0.0272935924429128
 50
237.464665342174186
 51
2.9927812910434581
  0
ARC
  5
2812A
  8
0
 10
3158.1831598407829915
 20
152.0626686515730057
 30
0.0
 40
0.0242358203166128
 50
178.9377743106431922
 51
242.0687975564860039
  0
ARC
  5
2812B
  8
0
 10
3158.1755170575897864
 20
152.0707701062900981
 30
0.0
 40
0.0418631235766218
 50
135.6174065901726067
 51
190.7882814084709082
  0
ARC
  5
2812C
  8
0
 10
3158.1849925585329402
 20
152.061496647789113
 30
0.0
 40
0.0551214096907729
 50
91.1444848203653351
 51
135.6174065901726067
  0
ARC
  5
2812D
  8
0
 10
3158.1849961148809598
 20
152.0613186317708028
 30
0.0
 40
0.0552994612293243
 50
36.8086540841386025
 51
91.1444848203653351
  0
ARC
  5
2812E
  8
0
 10
3158.1780191176158041
 20
152.0628984325863087
 30
0.0
 40
0.0601858191268471
 50
355.5672184774754783
 51
31.61793898467905
  0
ARC
  5
2812F
  8
0
 10
3158.2110205417548059
 20
152.0808877263490047
 30
0.0
 40
0.0787018557738275
 50
193.1864951392533101
 51
227.6226751292533947
  0
ARC
  5
28130
  8
0
 10
3158.3229083773389902
 20
152.1866046728636093
 30
0.0
 40
0.2324904851278182
 50
224.8121574857559892
 51
238.6010369673037985
  0
ARC
  5
28131
  8
0
 10
3158.2085852428808721
 20
151.9993056902725073
 30
0.0
 40
0.0130578349775874
 50
238.6010369673037985
 51
333.627579535039672
  0
ARC
  5
28132
  8
0
 10
3158.0657613245748507
 20
152.0706499918381951
 30
0.0
 40
0.1727095304223382
 50
333.4695883560175957
 51
355.8817070630933017
  0
ARC
  5
28133
  8
0
 10
3158.2317728470020484
 20
152.1209808204438048
 30
0.0
 40
0.1226860757512485
 50
201.1695725593750979
 51
232.2494939655852875
  0
ARC
  5
28134
  8
0
 10
3158.1728344285020285
 20
152.0946644203881135
 30
0.0
 40
0.0583124258491405
 50
141.6113068961047077
 51
197.9686145461174078
  0
ARC
  5
28135
  8
0
 10
3158.1835992500250541
 20
152.0858506068684903
 30
0.0
 40
0.0722237288126872
 50
89.8306584491610352
 51
141.4339795205997063
  0
ARC
  5
28136
  8
0
 10
3158.1835745601151757
 20
152.0774969364200899
 30
0.0
 40
0.0805774357474033
 50
51.1265902639447134
 51
89.8306584491610352
  0
ARC
  5
28137
  8
0
 10
3158.1972451689648551
 20
152.0944552056031114
 30
0.0
 40
0.0587951392655453
 50
8.6776122690415374
 51
51.1265902639447134
  0
ARC
  5
28138
  8
0
 10
3158.132710305099863
 20
152.0846057889810936
 30
0.0
 40
0.1240772935030101
 50
351.3223877309567911
 51
8.6776122690415374
  0
ARC
  5
28139
  8
0
 10
3158.0355938828652143
 20
152.1066626017048975
 30
0.0
 40
0.2235242744027206
 50
334.8806332769560754
 51
349.4888272674007226
  0
ARC
  5
2813A
  8
0
 10
3158.2109326381241772
 20
152.0244447822082066
 30
0.0
 40
0.0298662040448998
 50
291.3456140958141987
 51
334.8994996113709135
  0
ARC
  5
2813B
  8
0
 10
3158.0392207579029673
 20
151.9806813308217102
 30
0.0
 40
0.022885574152775
 50
150.7759033297425049
 51
232.0731215049808043
  0
ARC
  5
2813C
  8
0
 10
3158.0445224756631433
 20
151.9874851000157889
 30
0.0
 40
0.0315110878446429
 50
232.0731215049808043
 51
279.9602385711636998
  0
ARC
  5
2813D
  8
0
 10
3158.0453379008831689
 20
151.9828417531454079
 30
0.0
 40
0.0267966856080487
 50
279.960238571163984
 51
332.7608745417255136
  0
ARC
  5
2813E
  8
0
 10
3158.0497175704081201
 20
151.9805871267573139
 30
0.0
 40
0.0218707496260079
 50
332.7608745417239788
 51
40.8935979379381394
  0
ARC
  5
2813F
  8
0
 10
3158.0438685038880067
 20
151.9761321680734056
 30
0.0
 40
0.0292123274842114
 50
39.9883812923217619
 51
147.4377935284373962
  0
ARC
  5
28140
  8
0
 10
3158.0357944577031049
 20
151.9859722326457074
 30
0.0
 40
0.0466877671956167
 50
124.0216372553008028
 51
182.8239973564340914
  0
ARC
  5
28141
  8
0
 10
3158.0404097466798703
 20
151.9771831940419133
 30
0.0
 40
0.0565651818511531
 50
68.5779411509670922
 51
122.9152147448369021
  0
ARC
  5
28142
  8
0
 10
3158.0200202322730547
 20
151.9506657422705018
 30
0.0
 40
0.0891834362123599
 50
17.3856428390043796
 51
62.5949977906631787
  0
ARC
  5
28143
  8
0
 10
3157.1070133543889824
 20
151.6647979595157096
 30
0.0
 40
1.0458975775732471
 50
15.2658886481896392
 51
17.3856428390043796
  0
ARC
  5
28144
  8
0
 10
3158.1038342376568835
 20
151.9383000208725036
 30
0.0
 40
0.0123160729533819
 50
268.5252602049391726
 51
8.7871836653097812
  0
ARC
  5
28145
  8
0
 10
3158.1156904022300296
 20
152.2339453990311995
 30
0.0
 40
0.308197871397925
 50
258.400515714689277
 51
267.7363546874595954
  0
ARC
  5
28146
  8
0
 10
3158.0797182855048959
 20
152.0586949024963133
 30
0.0
 40
0.1292936240546092
 50
235.8731695160234949
 51
258.400515714689277
  0
ARC
  5
28147
  8
0
 10
3158.035469802291118
 20
151.9886655170571998
 30
0.0
 40
0.0465748753072972
 50
186.1547683796700028
 51
232.599631930855594
  0
ARC
  5
28148
  8
0
 10
3158.0356905694361558
 20
152.0165879809769933
 30
0.0
 40
0.0670079741101326
 50
206.5014199237780019
 51
235.4966780145157941
  0
ARC
  5
28149
  8
0
 10
3158.0264549158150658
 20
152.0119829681626982
 30
0.0
 40
0.0566879236831699
 50
161.9911213671211101
 51
206.5014199237793946
  0
ARC
  5
2814A
  8
0
 10
3158.031638374198792
 20
152.0102978723587057
 30
0.0
 40
0.0621384088624931
 50
126.263763708859301
 51
161.9911213671196037
  0
ARC
  5
2814B
  8
0
 10
3158.039752229809892
 20
151.9992375423155124
 30
0.0
 40
0.0758557538511336
 50
82.9768239038184703
 51
126.263763708859301
  0
ARC
  5
2814C
  8
0
 10
3158.0394549388020096
 20
151.9968243715130995
 30
0.0
 40
0.0782871681031681
 50
50.7647031920005389
 51
82.9768239038184703
  0
ARC
  5
2814D
  8
0
 10
3158.029887848349972
 20
151.9851087028212078
 30
0.0
 40
0.0934128453644631
 50
30.1073564111485403
 51
50.7647031920005389
  0
ARC
  5
2814E
  8
0
 10
3157.9366083740878821
 20
151.9310204807559899
 30
0.0
 40
0.2012395400402896
 50
10.4027272648864901
 51
30.1073564111485403
  0
ARC
  5
2814F
  8
0
 10
3158.1074479039771177
 20
151.9623838078188953
 30
0.0
 40
0.0275449711642999
 50
288.018371808243387
 51
10.4027272648864901
  0
ARC
  5
28150
  8
0
 10
3158.3336207817501418
 20
151.9987481177952873
 30
0.0
 40
0.0126869859949352
 50
204.4558752807045039
 51
303.1310127734275284
  0
ARC
  5
28151
  8
0
 10
3158.1731304362238006
 20
152.2446487664693962
 30
0.0
 40
0.3063266972493341
 50
303.1310127734275284
 51
314.1457057353794085
  0
ARC
  5
28152
  8
0
 10
3158.331204661908032
 20
152.0817889805371976
 30
0.0
 40
0.0793668534453889
 50
314.1457057353782716
 51
345.0378376745604783
  0
ARC
  5
28153
  8
0
 10
3158.5175554879569972
 20
152.0832415769299075
 30
0.0
 40
0.2150980274046524
 50
188.53413596175929
 51
204.6596958087289977
  0
ARC
  5
28154
  8
0
 10
3158.3724834116919737
 20
152.0614720397238102
 30
0.0
 40
0.0684016741375282
 50
157.4467376372460876
 51
188.53413596176091
  0
ARC
  5
28155
  8
0
 10
3158.3470968884098511
 20
152.0720151410480128
 30
0.0
 40
0.0409129027954198
 50
123.1576494746290962
 51
157.4467376372460876
  0
ARC
  5
28156
  8
0
 10
3158.3572085659211552
 20
152.0604347878378917
 30
0.0
 40
0.0561785863509874
 50
81.1391440613988522
 51
125.3319264536873021
  0
ARC
  5
28157
  8
0
 10
3158.3600705006701901
 20
152.0665418783106873
 30
0.0
 40
0.0497393526068961
 50
36.4254080208496802
 51
83.3134210404300148
  0
ARC
  5
28158
  8
0
 10
3158.3645650643538829
 20
152.0698586339634062
 30
0.0
 40
0.0441534801803206
 50
348.8204341749978994
 51
36.4254080208496802
  0
ARC
  5
28159
  8
0
 10
3158.5071422192540922
 20
152.1108106604926888
 30
0.0
 40
0.2162170531482733
 50
192.7358497301910063
 51
206.7063196305605004
  0
ARC
  5
2815A
  8
0
 10
3158.3744852362779056
 20
152.0864034362828932
 30
0.0
 40
0.0816244965045889
 50
150.6274342750803044
 51
196.5561095275556056
  0
ARC
  5
2815B
  8
0
 10
3158.3557403112531574
 20
152.0889360119658136
 30
0.0
 40
0.064427058347285
 50
103.8073486649123964
 51
144.4014535968105122
  0
ARC
  5
2815C
  8
0
 10
3158.3568752658011363
 20
152.0831290502148931
 30
0.0
 40
0.0703376584761375
 50
54.5518943326549035
 51
103.5762353587034994
  0
ARC
  5
2815D
  8
0
 10
3158.3671207573379434
 20
152.0975202529228056
 30
0.0
 40
0.0526719625594678
 50
16.9506496169118996
 51
54.5518943326558414
  0
ARC
  5
2815E
  8
0
 10
3158.3678819318201931
 20
152.0977522506026958
 30
0.0
 40
0.0518762179308312
 50
342.6007865572295827
 51
16.9506496169134593
  0
ARC
  5
2815F
  8
0
 10
3158.3478216016669649
 20
152.1040384745749918
 30
0.0
 40
0.0728984313647674
 50
325.941485848296395
 51
342.6007865572279911
  0
ARC
  5
28160
  8
0
 10
3158.3551846623131496
 20
152.060059482604288
 30
0.0
 40
0.0271667282565102
 50
77.2708041347483032
 51
165.8893635807174007
  0
ARC
  5
28161
  8
0
 10
3158.3581238853930699
 20
152.0614723142520859
 30
0.0
 40
0.025270545821191
 50
355.6922507291939155
 51
83.0751986001375116
  0
ARC
  5
28162
  8
0
 10
3158.3555398993808012
 20
152.065674946453214
 30
0.0
 40
0.0284450816637951
 50
223.8806178057172929
 51
347.6151995413699183
  0
ARC
  5
28163
  8
0
 10
3158.35144268508202
 20
152.0621550279120129
 30
0.0
 40
0.0230539986966163
 50
168.6740804882772125
 51
224.6334581853066084
  0
ARC
  5
28164
  8
0
 10
3158.4977068277489707
 20
151.9792261175682029
 30
0.0
 40
0.026697508005223
 50
66.105420984111916
 51
182.847990048095312
  0
ARC
  5
28165
  8
0
 10
3158.5023887570941952
 20
151.980874188293086
 30
0.0
 40
0.0235727923169032
 50
307.6644398413238832
 51
74.9221194374150485
  0
ARC
  5
28166
  8
0
 10
3158.4986233913759861
 20
151.9837825392239949
 30
0.0
 40
0.0282015191532317
 50
192.040500222121608
 51
310.1104182003314804
  0
ARC
  5
28167
  8
0
 10
3158.4378013194118466
 20
151.9376143959651131
 30
0.0
 40
0.0117459112072904
 50
166.6988632616092048
 51
277.3201756261017863
  0
ARC
  5
28168
  8
0
 10
3158.6418776755422186
 20
151.8967989995144876
 30
0.0
 40
0.2198570867313004
 50
156.4261531531745106
 51
168.5836763695185994
  0
ARC
  5
28169
  8
0
 10
3158.5410775926370661
 20
151.9392212752489115
 30
0.0
 40
0.1105125325602746
 50
130.5262541527411031
 51
155.684167288866405
  0
ARC
  5
2816A
  8
0
 10
3158.5019114542337775
 20
151.9778755076883954
 30
0.0
 40
0.0558752000358682
 50
50.3628631587485174
 51
125.7492950409598933
  0
ARC
  5
2816B
  8
0
 10
3158.5098164571700181
 20
151.9874184142769877
 30
0.0
 40
0.0434834230208181
 50
345.0781917832385943
 51
50.3628631587485174
  0
ARC
  5
2816C
  8
0
 10
3158.507631282102011
 20
151.9880007351146958
 30
0.0
 40
0.0457448578835899
 50
303.3294089847453847
 51
345.0781917832385943
  0
ARC
  5
2816D
  8
0
 10
3158.4414313989809671
 20
152.1129139947946101
 30
0.0
 40
0.1869619499829526
 50
269.3461638524041746
 51
299.243289858482683
  0
LINE
  5
2816E
  8
0
 10
3158.4260935475099359
 20
151.9385601798595076
 30
0.0
 11
3158.4207590390051337
 21
151.9902498668897977
 31
0.0
  0
ARC
  5
2816F
  8
0
 10
3158.4353130572208102
 20
151.9659746475448117
 30
0.0
 40
0.0202559125379499
 50
210.3179299519374013
 51
239.6156188954352899
  0
ARC
  5
28170
  8
0
 10
3158.4348540361747837
 20
151.965706224573097
 30
0.0
 40
0.0197241689795794
 50
169.8223232426790901
 51
210.3179299519374013
  0
ARC
  5
28171
  8
0
 10
3158.6034058141822243
 20
151.9354467643788098
 30
0.0
 40
0.1909705902574277
 50
150.9401161579966129
 51
169.8223232426790901
  0
ARC
  5
28172
  8
0
 10
3158.5177570779919733
 20
151.9830397244986102
 30
0.0
 40
0.0929869392536135
 50
124.1223355965908013
 51
150.9401161579966129
  0
ARC
  5
28173
  8
0
 10
3158.5022361290239132
 20
152.0014412019482961
 30
0.0
 40
0.0690929731059394
 50
95.2818799245723085
 51
122.0268653737011988
  0
ARC
  5
28174
  8
0
 10
3158.5023767248671902
 20
152.0027923058086117
 30
0.0
 40
0.0677610646104239
 50
50.7293600874260591
 51
95.5054249173241345
  0
ARC
  5
28175
  8
0
 10
3158.5123904991119161
 20
152.0149820566551
 30
0.0
 40
0.0519856415016547
 50
359.8955644598526078
 51
50.7694671351988802
  0
ARC
  5
28176
  8
0
 10
3158.5076335338922036
 20
152.0172489921924068
 30
0.0
 40
0.0567916473282422
 50
323.1792073220378256
 51
357.6166562919963212
  0
ARC
  5
28177
  8
0
 10
3158.6342465665729833
 20
151.6937562234930965
 30
0.0
 40
0.2142695024293632
 50
117.1326588630412004
 51
135.4497166817932055
  0
ARC
  5
28178
  8
0
 10
3158.5754977914280062
 20
151.8084002089844091
 30
0.0
 40
0.0854492323224627
 50
86.4596329402048838
 51
117.1326588630412004
  0
ARC
  5
28179
  8
0
 10
3158.5779502777281778
 20
151.8480396668612968
 30
0.0
 40
0.0457339794612597
 50
316.9590555025159233
 51
86.4596329402048838
  0
ARC
  5
2817A
  8
0
 10
3158.5757099389938958
 20
151.850131811696599
 30
0.0
 40
0.0487992996160675
 50
275.4374820712826022
 51
316.9590555025159233
  0
ARC
  5
2817B
  8
0
 10
3158.5688185248682203
 20
151.9225298150097956
 30
0.0
 40
0.1215245529493839
 50
252.7150599262417927
 51
275.4374820712826022
  0
ARC
  5
2817C
  8
0
 10
3158.6219557093149888
 20
152.0932917454287008
 30
0.0
 40
0.3003630198723227
 50
242.8245786989762962
 51
252.7150599262417927
  0
ARC
  5
2817D
  8
0
 10
3158.4900239801818316
 20
151.8363092644499943
 30
0.0
 40
0.0114928471615883
 50
137.4996711055451044
 51
242.8245786989739941
  0
LINE
  5
2817E
  8
0
 10
3158.4787114275900421
 20
151.8342815342593894
 30
0.0
 11
3158.4731550085048184
 21
151.8779361244897075
 31
0.0
  0
ARC
  5
2817F
  8
0
 10
3158.4883221390609833
 20
151.8655546137169097
 30
0.0
 40
0.0216519484908548
 50
201.8481984321446134
 51
238.7409489452529954
  0
ARC
  5
28180
  8
0
 10
3158.4850661426280567
 20
151.8642491297929098
 30
0.0
 40
0.0181439859695604
 50
131.0317595999233049
 51
201.848198432141487
  0
ARC
  5
28181
  8
0
 10
3158.6502778525018584
 20
151.6955587820453957
 30
0.0
 40
0.2542320463186071
 50
119.3670067774511949
 51
134.1626386933222932
  0
ARC
  5
28182
  8
0
 10
3158.5783401213170691
 20
151.8230905804958013
 30
0.0
 40
0.1078102495392466
 50
92.0516403872933466
 51
119.2864271823591054
  0
ARC
  5
28183
  8
0
 10
3158.5761534164348632
 20
151.8694827528161966
 30
0.0
 40
0.0613717725255783
 50
20.5764444171532297
 51
91.5620130683216047
  0
ARC
  5
28184
  8
0
 10
3158.5952977273718716
 20
151.8745538076358059
 30
0.0
 40
0.0417135924340553
 50
312.5167713350164718
 51
23.2982757866605787
  0
ARC
  5
28185
  8
0
 10
3158.5646552454882112
 20
151.8428245390757922
 30
0.0
 40
0.0233403597813256
 50
121.6996007640583031
 51
186.1601269531819014
  0
ARC
  5
28186
  8
0
 10
3158.5702567435678247
 20
151.8339939598139949
 30
0.0
 40
0.0337971759353042
 50
56.6430923861176581
 51
121.9126484810722957
  0
ARC
  5
28187
  8
0
 10
3158.5706169367040275
 20
151.8442025793729897
 30
0.0
 40
0.0256288770137708
 50
327.5748264105392877
 51
44.6800280973966721
  0
ARC
  5
28188
  8
0
 10
3158.5692627352568707
 20
151.8478223229822959
 30
0.0
 40
0.0288071707691292
 50
195.0958414301593962
 51
322.9369646151670281
  0
ARC
  5
28189
  8
0
 10
3157.9679292695950608
 20
151.8433930591482124
 30
0.0
 40
0.0219803475969674
 50
121.1429593053560012
 51
204.8255666908638091
  0
ARC
  5
2818A
  8
0
 10
3157.9737725069139742
 20
151.8337230142583962
 30
0.0
 40
0.0332787187425207
 50
58.8570406946431319
 51
121.1429593053560012
  0
ARC
  5
2818B
  8
0
 10
3157.9798056868789899
 20
151.8437073975541125
 30
0.0
 40
0.0216130781566366
 50
331.758300738052526
 51
58.8570406946431319
  0
ARC
  5
2818C
  8
0
 10
3157.9735908897268928
 20
151.8470455682926001
 30
0.0
 40
0.0286676573447911
 50
206.7004279976578118
 51
331.7583007380538902
  0
ARC
  5
2818D
  8
0
 10
3157.9598508657081766
 20
151.8485277043822919
 30
0.0
 40
0.0422942911274079
 50
133.2097526601060906
 51
190.983242683870202
  0
ARC
  5
2818E
  8
0
 10
3157.9684525335492253
 20
151.8393709823895961
 30
0.0
 40
0.05485750119897
 50
94.1962867829981718
 51
133.2097526601060906
  0
ARC
  5
2818F
  8
0
 10
3157.9693794212221292
 20
151.8267379650417013
 30
0.0
 40
0.0675244758997102
 50
65.7853178435058652
 51
94.1962867829981718
  0
ARC
  5
28190
  8
0
 10
3157.907835500103829
 20
151.6898903295023899
 30
0.0
 40
0.2175742329115647
 50
45.3134062942684892
 51
65.7853178435058652
  0
ARC
  5
28191
  8
0
 10
3158.0529183523121901
 20
151.8365691255957017
 30
0.0
 40
0.0112645064610742
 50
291.5842692273062084
 51
45.3134062942684892
  0
ARC
  5
28192
  8
0
 10
3157.9336395463451481
 20
152.0577801520269929
 30
0.0
 40
0.2625097915030025
 50
290.2437717448153194
 51
298.0449471234645102
  0
ARC
  5
28193
  8
0
 10
3157.9743868134560216
 20
151.9302768923689939
 30
0.0
 40
0.1289178930804774
 50
262.3769119712166003
 51
292.8614264618340144
  0
ARC
  5
28194
  8
0
 10
3157.9671015284038731
 20
151.8515352996456897
 30
0.0
 40
0.0500098404190292
 50
192.7835269216712959
 51
258.6799202042607249
  0
ARC
  5
28195
  8
0
 10
3157.9607879922718894
 20
151.8778352301596897
 30
0.0
 40
0.0545040069567964
 50
190.50411728368789
 51
217.8671391643190134
  0
ARC
  5
28196
  8
0
 10
3157.9519924035839722
 20
151.8767011422033022
 30
0.0
 40
0.0456516778780411
 50
151.9395428075156076
 51
191.1171116664845044
  0
ARC
  5
28197
  8
0
 10
3157.9648048975700476
 20
151.8705344830046045
 30
0.0
 40
0.0598617611258853
 50
100.4787255461410069
 51
152.4997207942909085
  0
ARC
  5
28198
  8
0
 10
3157.9685850720488816
 20
151.8500961367670925
 30
0.0
 40
0.0806467488818698
 50
75.2579640332898947
 51
100.4787255461666007
  0
ARC
  5
28199
  8
0
 10
3157.9558524687349745
 20
151.8017070046994945
 30
0.0
 40
0.130683008628212
 50
55.6012474745552581
 51
75.2579640332898947
  0
ARC
  5
2819A
  8
0
 10
3157.8361587315280303
 20
151.6268905455071092
 30
0.0
 40
0.3425494409180588
 50
47.1439024580481316
 51
55.6012474745552581
  0
ARC
  5
2819B
  8
0
 10
3158.0561730649219498
 20
151.8640182801275103
 30
0.0
 40
0.0190747596444071
 50
299.4108895681379181
 51
47.143902458049233
  0
LINE
  5
2819C
  8
0
 10
3158.0641378569598601
 20
151.8355632323265922
 30
0.0
 11
3158.0691642576048253
 21
151.8779994980897072
 31
0.0
  0
ARC
  5
2819D
  8
0
 10
3157.9955343115789219
 20
151.693390849718611
 30
0.0
 40
0.02516606928337
 50
94.9021125868010529
 51
141.1283447760210947
  0
ARC
  5
2819E
  8
0
 10
3157.996098343248832
 20
151.6868145541575927
 30
0.0
 40
0.0317665082862214
 50
39.8005292527013594
 51
94.9021125868010529
  0
ARC
  5
2819F
  8
0
 10
3158.004264670700195
 20
151.693618609477511
 30
0.0
 40
0.0211371116513765
 50
319.9664255886149249
 51
39.8005292527026029
  0
ARC
  5
281A0
  8
0
 10
3157.9925068774077772
 20
151.6940335997944942
 30
0.0
 40
0.0224493407308887
 50
137.5540966868566954
 51
206.8639597496043905
  0
ARC
  5
281A1
  8
0
 10
3157.9974322428652158
 20
151.6974073000527028
 30
0.0
 40
0.0283790778332787
 50
208.4499161698174987
 51
278.5753817865958126
  0
ARC
  5
281A2
  8
0
 10
3157.9971764038500623
 20
151.699103886723492
 30
0.0
 40
0.0300948458633792
 50
278.5753817865958126
 51
320.6509330118872754
  0
ARC
  5
281A3
  8
0
 10
3157.9854235807019904
 20
151.6966608540199957
 30
0.0
 40
0.0434359114008133
 50
116.6301727272001045
 51
183.2846108774400875
  0
ARC
  5
281A4
  8
0
 10
3158.0124755692731924
 20
151.6358265133129066
 30
0.0
 40
0.1099856413419328
 50
83.3805374215819768
 51
115.0226041807745929
  0
ARC
  5
281A5
  8
0
 10
3157.9591994625570806
 20
151.1767410071886104
 30
0.0
 40
0.5721521107879874
 50
78.584324648946648
 51
83.3805312076513729
  0
ARC
  5
281A6
  8
0
 10
3158.0701438718569989
 20
151.7261881013427001
 30
0.0
 40
0.0116159645589161
 50
332.2959274084489039
 51
78.5843246489463212
  0
ARC
  5
281A7
  8
0
 10
3157.9213753959870701
 20
151.8043067870353013
 30
0.0
 40
0.1796474748985882
 50
311.5670203261421989
 51
332.2959274084489039
  0
ARC
  5
281A8
  8
0
 10
3157.9808392140480464
 20
151.7372533772910117
 30
0.0
 40
0.090025460768836
 50
288.5894740952575717
 51
311.5670203261421989
  0
ARC
  5
281A9
  8
0
 10
3157.9941207735760145
 20
151.7056973190285873
 30
0.0
 40
0.05593901056324
 50
230.7815977225529025
 51
285.9982343468827821
  0
ARC
  5
281AA
  8
0
 10
3157.9877157242131034
 20
151.697842799850207
 30
0.0
 40
0.0458040162619004
 50
184.5965009281653124
 51
230.7766145072540098
  0
LINE
  5
281AB
  8
0
 10
3158.0817388410519015
 20
151.7254900168053098
 30
0.0
 11
3158.0868648627952098
 21
151.7677222947012865
 31
0.0
  0
ARC
  5
281AC
  8
0
 10
3157.9528705386837828
 20
151.8216500683089976
 30
0.0
 40
0.1576908240689511
 50
325.2994709713404973
 51
330.7927301040343195
  0
ARC
  5
281AD
  8
0
 10
3158.0736692056811989
 20
151.754117858984813
 30
0.0
 40
0.0192967590061139
 50
330.7927301040372186
 51
19.5678276013678882
  0
ARC
  5
281AE
  8
0
 10
3158.0763566984610407
 20
151.7550731320484942
 30
0.0
 40
0.0164445381048584
 50
19.5678276013648187
 51
50.2822343539229095
  0
ARC
  5
281AF
  8
0
 10
3158.0669051656259398
 20
151.7436958855230955
 30
0.0
 40
0.0312355222318159
 50
50.2822343539229095
 51
74.187094867100484
  0
ARC
  5
281B0
  8
0
 10
3158.0199783566949918
 20
151.5780025153239876
 30
0.0
 40
0.2034459119426345
 50
74.187094867100484
 51
104.0146744516056003
  0
ARC
  5
281B1
  8
0
 10
3157.98760598157196
 20
151.7202654928834988
 30
0.0
 40
0.0576583023016636
 50
107.0400581747605031
 51
162.5888768349904865
  0
ARC
  5
281B2
  8
0
 10
3157.9815028631419409
 20
151.7249725050099869
 30
0.0
 40
0.0504967342002408
 50
165.6142605581337079
 51
218.7702905211060909
  0
ARC
  5
281B3
  8
0
 10
3158.1298935838190118
 20
151.5580840888366936
 30
0.0
 40
0.0818909981813383
 50
115.0623875333428998
 51
145.0113284229414887
  0
ARC
  5
281B4
  8
0
 10
3158.2213754011881974
 20
151.3935100108976997
 30
0.0
 40
0.2700426567039011
 50
105.9577881554037049
 51
117.8544503846126048
  0
ARC
  5
281B5
  8
0
 10
3158.1512514087489762
 20
151.6410133675450993
 30
0.0
 40
0.012813049282757
 50
11.6293988316300005
 51
108.7498510066536994
  0
ARC
  5
281B6
  8
0
 10
3157.9277526311161637
 20
151.6167175861662884
 30
0.0
 40
0.2375741934279311
 50
358.9621895830175049
 51
6.4962329177583582
  0
ARC
  5
281B7
  8
0
 10
3158.0614490216530612
 20
151.6102215359736078
 30
0.0
 40
0.1038619871419827
 50
328.0849095698461042
 51
1.209895082593794
  0
ARC
  5
281B8
  8
0
 10
3158.1050317087269832
 20
151.5933617144843879
 30
0.0
 40
0.0586081793723853
 50
257.8108254674418163
 51
319.5191687230328057
  0
ARC
  5
281B9
  8
0
 10
3158.1077567241050019
 20
151.5898810158797119
 30
0.0
 40
0.0558847418550073
 50
205.975174329117209
 51
254.3243681840619956
  0
ARC
  5
281BA
  8
0
 10
3158.0943563251121304
 20
151.5806627513605065
 30
0.0
 40
0.0398739471043181
 50
142.3094004420707961
 51
202.4986452718783028
  0
ARC
  5
281BB
  8
0
 10
3158.1056272610130691
 20
151.5786521495064108
 30
0.0
 40
0.0248583853529901
 50
104.1334589615738935
 51
168.1488979842665969
  0
ARC
  5
281BC
  8
0
 10
3158.1075933820170576
 20
151.5708439948575119
 30
0.0
 40
0.0329102740024715
 50
49.701419188565751
 51
104.1334589615738935
  0
ARC
  5
281BD
  8
0
 10
3158.1152588826998908
 20
151.5798832968914098
 30
0.0
 40
0.0210583171183026
 50
329.8151376601433071
 51
49.7014191885668097
  0
ARC
  5
281BE
  8
0
 10
3158.1086606329208735
 20
151.5837212365389917
 30
0.0
 40
0.0286915786025523
 50
238.3313791072220909
 51
329.8151376601433071
  0
ARC
  5
281BF
  8
0
 10
3158.1072978986671842
 20
151.5815120764445965
 30
0.0
 40
0.0260959220441828
 50
175.0643399264415052
 51
238.3313791072220909
  0
ARC
  5
281C0
  8
0
 10
3158.0957309668178823
 20
151.6095885104471961
 30
0.0
 40
0.0522821646153364
 50
184.074633839108003
 51
218.1670718154616964
  0
ARC
  5
281C1
  8
0
 10
3158.0899658509288201
 20
151.6091778271845101
 30
0.0
 40
0.046502439538478
 50
148.9681828673977861
 51
184.074633839108003
  0
ARC
  5
281C2
  8
0
 10
3158.116764240421162
 20
151.593055469284991
 30
0.0
 40
0.0777767757199303
 50
121.8939107384323961
 51
148.9681828673977861
  0
ARC
  5
281C3
  8
0
 10
3158.2166294414919321
 20
151.4325773005280098
 30
0.0
 40
0.266790799095227
 50
105.9698951166614052
 51
121.8939107384323961
  0
ARC
  5
281C4
  8
0
 10
3158.1502814435639266
 20
151.6644199541703131
 30
0.0
 40
0.0256413166640835
 50
16.8594587048740507
 51
105.9698951166614052
  0
ARC
  5
281C5
  8
0
 10
3158.0727838728030292
 20
151.6409342765024064
 30
0.0
 40
0.1066194033882857
 50
326.0531597660141756
 51
16.8594587048665012
  0
ARC
  5
281C6
  8
0
 10
3158.2710988177800573
 20
151.6088668158261896
 30
0.0
 40
0.0135425942806795
 50
42.9631318043446981
 51
137.0172250720289071
  0
ARC
  5
281C7
  8
0
 10
3158.1224384951888169
 20
151.4704175570242057
 30
0.0
 40
0.2166880810034383
 50
31.2083548798712407
 51
42.9631318043446981
  0
ARC
  5
281C8
  8
0
 10
3158.2018174227318923
 20
151.518506966246008
 30
0.0
 40
0.123878569544457
 50
16.5022925492792893
 51
31.2083548798726298
  0
ARC
  5
281C9
  8
0
 10
3158.2606877939401784
 20
151.5384308996582945
 30
0.0
 40
0.0618195628386258
 50
349.9920742247663838
 51
14.2950865183023996
  0
ARC
  5
281CA
  8
0
 10
3158.2746472768999411
 20
151.5404455075857868
 30
0.0
 40
0.0486229906977638
 50
286.2624650096828987
 51
344.7884458221196269
  0
ARC
  5
281CB
  8
0
 10
3158.271283103641963
 20
151.5469276250385064
 30
0.0
 40
0.0558057729078861
 50
223.4379236035514111
 51
287.7147137353031781
  0
ARC
  5
281CC
  8
0
 10
3158.2620450949070801
 20
151.5381800846242868
 30
0.0
 40
0.0430833411952327
 50
162.6661884374173894
 51
223.4379236035514111
  0
ARC
  5
281CD
  8
0
 10
3158.3818274338000265
 20
151.5000461784507024
 30
0.0
 40
0.1687888433337793
 50
135.6197989704353972
 51
162.4237100338619086
  0
ARC
  5
281CE
  8
0
 10
3158.2598517425208229
 20
151.5661094027211959
 30
0.0
 40
0.0515974572884981
 50
181.1678779590124861
 51
217.8789671216750037
  0
ARC
  5
281CF
  8
0
 10
3158.274744433620981
 20
151.566413007193006
 30
0.0
 40
0.0664932427286491
 50
156.7561780227433985
 51
181.1678779590124861
  0
ARC
  5
281D0
  8
0
 10
3158.3931430749530591
 20
151.5155600588246898
 30
0.0
 40
0.1953507633744313
 50
136.1840422195440112
 51
156.7561780227449049
  0
ARC
  5
281D1
  8
0
 10
3158.271089147865041
 20
151.6326708394456091
 30
0.0
 40
0.0261996591656622
 50
43.8159577804560172
 51
136.1840422195463134
  0
ARC
  5
281D2
  8
0
 10
3158.1514655556120488
 20
151.5178919658461041
 30
0.0
 40
0.1919826306927761
 50
31.497055193935541
 51
43.8159577804560172
  0
ARC
  5
281D3
  8
0
 10
3158.1826117497389532
 20
151.536976176273896
 30
0.0
 40
0.1554546620077107
 50
14.7793203141506595
 51
31.497055193935541
  0
ARC
  5
281D4
  8
0
 10
3158.2883012862580472
 20
151.5648597509448905
 30
0.0
 40
0.0461487981846822
 50
317.497875577286095
 51
14.7793203141490892
  0
ARC
  5
281D5
  8
0
 10
3158.2691057436632036
 20
151.534823571485191
 30
0.0
 40
0.0261970934363059
 50
108.4880631885399964
 51
153.3111570746829955
  0
ARC
  5
281D6
  8
0
 10
3158.2710278433210078
 20
151.5290750413603007
 30
0.0
 40
0.0322584518393888
 50
67.6757846677004977
 51
108.4880631885393996
  0
ARC
  5
281D7
  8
0
 10
3158.2735828083009437
 20
151.5352971979559129
 30
0.0
 40
0.0255321542880072
 50
32.0320805685839076
 51
67.6757846677245851
  0
ARC
  5
281D8
  8
0
 10
3158.2764656844638012
 20
151.5371008641232891
 30
0.0
 40
0.0221315386645323
 50
342.9545266949597249
 51
32.0320805685839076
  0
ARC
  5
281D9
  8
0
 10
3158.2757739582029899
 20
151.5373129465203021
 30
0.0
 40
0.0228550468977351
 50
305.4026313375018731
 51
342.9545266949629081
  0
ARC
  5
281DA
  8
0
 10
3158.2708712344660853
 20
151.544211078067292
 30
0.0
 40
0.0313179612235669
 50
257.5299699765427022
 51
305.4026313375028963
  0
ARC
  5
281DB
  8
0
 10
3158.270157992842087
 20
151.5409858702529959
 30
0.0
 40
0.0280148295186657
 50
218.5707907889108981
 51
257.5299699765427022
  0
ARC
  5
281DC
  8
0
 10
3158.26525923318286
 20
151.5370793289949916
 30
0.0
 40
0.0217491363570298
 50
154.0693193937061096
 51
218.5707907889095907
  0
ARC
  5
281DD
  8
0
 10
3158.5467472297409586
 20
151.693390849718611
 30
0.0
 40
0.02516606928337
 50
38.8716552239788626
 51
85.0978874131989613
  0
ARC
  5
281DE
  8
0
 10
3158.5461831980710485
 20
151.6868145541575927
 30
0.0
 40
0.0317665082862214
 50
85.0978874131989613
 51
140.1994707472985908
  0
ARC
  5
281DF
  8
0
 10
3158.5380168706201403
 20
151.693618609477511
 30
0.0
 40
0.0211371116513765
 50
140.1994707472973971
 51
220.0335744113851035
  0
ARC
  5
281E0
  8
0
 10
3158.5497746639121033
 20
151.6940335997944942
 30
0.0
 40
0.0224493407308887
 50
333.1360402503955811
 51
42.445903313143269
  0
ARC
  5
281E1
  8
0
 10
3158.5448492984551194
 20
151.6974073000527028
 30
0.0
 40
0.0283790778332787
 50
261.4246182134043011
 51
331.5500838301824729
  0
ARC
  5
281E2
  8
0
 10
3158.5451051374689087
 20
151.699103886723492
 30
0.0
 40
0.0300948458633792
 50
219.3490669881115025
 51
261.4246182134043011
  0
ARC
  5
281E3
  8
0
 10
3158.5568579606187996
 20
151.6966608540199957
 30
0.0
 40
0.0434359114008133
 50
356.7153891225598841
 51
63.3698272727998315
  0
ARC
  5
281E4
  8
0
 10
3158.5298059720471429
 20
151.6358265133129066
 30
0.0
 40
0.1099856413419328
 50
64.9773958192254071
 51
96.6194625784180516
  0
ARC
  5
281E5
  8
0
 10
3158.5830820787627999
 20
151.1767410071886104
 30
0.0
 40
0.5721521107879874
 50
96.6194687923486413
 51
101.4156753510532951
  0
ARC
  5
281E6
  8
0
 10
3158.4721376694628816
 20
151.7261881013427001
 30
0.0
 40
0.0116159645589161
 50
101.415675351053693
 51
207.7040725915510961
  0
ARC
  5
281E7
  8
0
 10
3158.6209061453328104
 20
151.8043067870353013
 30
0.0
 40
0.1796474748985882
 50
207.7040725915510961
 51
228.4329796738578011
  0
ARC
  5
281E8
  8
0
 10
3158.5614423272718341
 20
151.7372533772910117
 30
0.0
 40
0.090025460768836
 50
228.4329796738578011
 51
251.4105259047423999
  0
ARC
  5
281E9
  8
0
 10
3158.5481607677447755
 20
151.7056973190285873
 30
0.0
 40
0.05593901056324
 50
254.0017656531171895
 51
309.2184022774471259
  0
ARC
  5
281EA
  8
0
 10
3158.5545658171067771
 20
151.697842799850207
 30
0.0
 40
0.0458040162619004
 50
309.2233854927459902
 51
355.4034990718346876
  0
LINE
  5
281EB
  8
0
 10
3158.4605427002679789
 20
151.7254900168053098
 30
0.0
 11
3158.4554166785251255
 21
151.7677222947012865
 31
0.0
  0
ARC
  5
281EC
  8
0
 10
3158.5894110026370072
 20
151.8216500683089976
 30
0.0
 40
0.1576908240689511
 50
209.2072698959657089
 51
214.700529028659389
  0
ARC
  5
281ED
  8
0
 10
3158.4686123356391363
 20
151.754117858984813
 30
0.0
 40
0.0192967590061139
 50
160.4321723986321047
 51
209.2072698959628099
  0
ARC
  5
281EE
  8
0
 10
3158.4659248428588398
 20
151.7550731320484942
 30
0.0
 40
0.0164445381048584
 50
129.7177656460771118
 51
160.4321723986352026
  0
ARC
  5
281EF
  8
0
 10
3158.4753763756939406
 20
151.7436958855230955
 30
0.0
 40
0.0312355222318159
 50
105.8129051328995018
 51
129.7177656460771118
  0
ARC
  5
281F0
  8
0
 10
3158.5223031846248887
 20
151.5780025153239876
 30
0.0
 40
0.2034459119426345
 50
75.9853255483943286
 51
105.8129051328995018
  0
ARC
  5
281F1
  8
0
 10
3158.5546755597479205
 20
151.7202654928834988
 30
0.0
 40
0.0576583023016636
 50
17.4111231650094282
 51
72.95994182523944
  0
ARC
  5
281F2
  8
0
 10
3158.5607786781770301
 20
151.7249725050099869
 30
0.0
 40
0.0504967342002408
 50
321.2297094788938807
 51
14.3857394418662992
  0
ARC
  5
281F3
  8
0
 10
3158.4123879575008687
 20
151.5580840888366936
 30
0.0
 40
0.0818909981813383
 50
34.9886715770584331
 51
64.9376124666571002
  0
ARC
  5
281F4
  8
0
 10
3158.3209061401321378
 20
151.3935100108976997
 30
0.0
 40
0.2700426567039011
 50
62.145549615387381
 51
74.0422118445963235
  0
ARC
  5
281F5
  8
0
 10
3158.3910301325709042
 20
151.6410133675450993
 30
0.0
 40
0.012813049282757
 50
71.2501489933462864
 51
168.3706011683700012
  0
ARC
  5
281F6
  8
0
 10
3158.6145289102041716
 20
151.6167175861662884
 30
0.0
 40
0.2375741934279311
 50
173.5037670822416089
 51
181.0378104169824951
  0
ARC
  5
281F7
  8
0
 10
3158.4808325196668193
 20
151.6102215359736078
 30
0.0
 40
0.1038619871419827
 50
178.7901049174062109
 51
211.9150904301538958
  0
ARC
  5
281F8
  8
0
 10
3158.4372498325928973
 20
151.5933617144843879
 30
0.0
 40
0.0586081793723853
 50
220.4808312769671943
 51
282.1891745325581837
  0
ARC
  5
281F9
  8
0
 10
3158.4345248172157881
 20
151.5898810158797119
 30
0.0
 40
0.0558847418550073
 50
285.6756318159380044
 51
334.0248256708828762
  0
ARC
  5
281FA
  8
0
 10
3158.4479252162082048
 20
151.5806627513605065
 30
0.0
 40
0.0398739471043181
 50
337.5013547281217257
 51
37.690599557929211
  0
ARC
  5
281FB
  8
0
 10
3158.4366542803059019
 20
151.5786521495064108
 30
0.0
 40
0.0248583853529901
 50
11.8511020157334102
 51
75.8665410384260781
  0
ARC
  5
281FC
  8
0
 10
3158.4346881593028229
 20
151.5708439948575119
 30
0.0
 40
0.0329102740024715
 50
75.8665410384260781
 51
130.2985808114341921
  0
ARC
  5
281FD
  8
0
 10
3158.4270226586190802
 20
151.5798832968914098
 30
0.0
 40
0.0210583171183026
 50
130.2985808114331974
 51
210.1848623398566929
  0
ARC
  5
281FE
  8
0
 10
3158.433620908399007
 20
151.5837212365389917
 30
0.0
 40
0.0286915786025523
 50
210.1848623398566929
 51
301.6686208927778239
  0
ARC
  5
281FF
  8
0
 10
3158.434983642653151
 20
151.5815120764445965
 30
0.0
 40
0.0260959220441828
 50
301.6686208927778239
 51
4.9356600735585099
  0
ARC
  5
28200
  8
0
 10
3158.4465505745010887
 20
151.6095885104471961
 30
0.0
 40
0.0522821646153364
 50
321.8329281845382752
 51
355.925366160891997
  0
ARC
  5
28201
  8
0
 10
3158.4523156903919698
 20
151.6091778271845101
 30
0.0
 40
0.046502439538478
 50
355.925366160891997
 51
31.0318171326021606
  0
ARC
  5
28202
  8
0
 10
3158.4255173008991733
 20
151.593055469284991
 30
0.0
 40
0.0777767757199303
 50
31.0318171326021606
 51
58.106089261567611
  0
ARC
  5
28203
  8
0
 10
3158.3256520998279484
 20
151.4325773005280098
 30
0.0
 40
0.266790799095227
 50
58.106089261567611
 51
74.0301048833385948
  0
ARC
  5
28204
  8
0
 10
3158.3920000977550444
 20
151.6644199541703131
 30
0.0
 40
0.0256413166640835
 50
74.0301048833385948
 51
163.1405412951258995
  0
ARC
  5
28205
  8
0
 10
3158.4694976685168513
 20
151.6409342765024064
 30
0.0
 40
0.1066194033882857
 50
163.1405412951334881
 51
213.946840233985796
  0
ARC
  5
28206
  8
0
 10
3158.2720951476449045
 20
153.4483890165546995
 30
0.0
 40
0.0268421309250733
 50
92.0375915231333579
 51
171.4251233024789087
  0
ARC
  5
28207
  8
0
 10
3158.271994373194957
 20
153.4512215353620093
 30
0.0
 40
0.0240078200240748
 50
20.9872574083818009
 51
92.0375915231333579
  0
ARC
  5
28208
  8
0
 10
3158.2642698575941722
 20
153.4482583425402993
 30
0.0
 40
0.0322811901337913
 50
317.4619143162075829
 51
20.9872574083833108
  0
ARC
  5
28209
  8
0
 10
3158.2710921311490893
 20
153.4448906875146861
 30
0.0
 40
0.0250682844449278
 50
213.6926887514972861
 51
312.5853924600659752
  0
ARC
  5
2820A
  8
0
 10
3158.2840745761518519
 20
153.4496004199104959
 30
0.0
 40
0.0386224760254502
 50
175.8562759546497887
 51
208.8161668953476067
  0
ARC
  5
2820B
  8
0
 10
3158.2765258025301591
 20
153.4540180393238131
 30
0.0
 40
0.0700290240786877
 50
200.769266874039289
 51
233.0793657169054995
  0
ARC
  5
2820C
  8
0
 10
3158.270818445364057
 20
153.4462345474177027
 30
0.0
 40
0.0603780176036005
 50
232.9723660026037066
 51
286.9836896163652114
  0
ARC
  5
2820D
  8
0
 10
3158.2691958853101823
 20
153.4515471107123972
 30
0.0
 40
0.0659328380229237
 50
286.9836896163652114
 51
332.8139523080433833
  0
ARC
  5
2820E
  8
0
 10
3158.2661879902179862
 20
153.4530920330037986
 30
0.0
 40
0.0693142900439592
 50
332.813952308042019
 51
12.6898317034054102
  0
ARC
  5
2820F
  8
0
 10
3158.2664156339960755
 20
153.4531432922946976
 30
0.0
 40
0.0690809465105997
 50
12.6898317034054102
 51
44.0047337430290213
  0
ARC
  5
28210
  8
0
 10
3158.2711584118510473
 20
153.4577240969539957
 30
0.0
 40
0.0624871833127678
 50
44.0047337430290213
 51
127.7880216857844999
  0
ARC
  5
28211
  8
0
 10
3158.2739794318022177
 20
153.4540856895592924
 30
0.0
 40
0.0670911122797793
 50
127.7880216857844999
 51
174.335132718495089
  0
ARC
  5
28212
  8
0
 10
3158.2796726167512134
 20
153.4535209596762115
 30
0.0
 40
0.0728122375803954
 50
174.335132718495089
 51
199.5253554437692003
  0
ARC
  5
28213
  8
0
 10
3158.2687675471629518
 20
153.4731770111671949
 30
0.0
 40
0.0725731623058452
 50
204.2717111539637926
 51
217.3130549473206941
  0
ARC
  5
28214
  8
0
 10
3158.28542900688808
 20
153.4806900474970064
 30
0.0
 40
0.0908501958464673
 50
165.9043330749350105
 51
204.2717111539637926
  0
ARC
  5
28215
  8
0
 10
3158.2818912408979486
 20
153.481578388468904
 30
0.0
 40
0.087202602410119
 50
133.5394258261734137
 51
165.9043330749350105
  0
ARC
  5
28216
  8
0
 10
3158.2719412188512251
 20
153.4920490847501924
 30
0.0
 40
0.0727582810569489
 50
92.37063746691868
 51
133.5394258261734137
  0
ARC
  5
28217
  8
0
 10
3158.2717922142951466
 20
153.4956483107038991
 30
0.0
 40
0.0691559720997063
 50
47.6287149124060534
 51
92.37063746691868
  0
ARC
  5
28218
  8
0
 10
3158.2552552991460288
 20
153.4775198401362104
 30
0.0
 40
0.093693922457152
 50
25.7207321549836507
 51
47.6287149124060534
  0
ARC
  5
28219
  8
0
 10
3158.2653858891358141
 20
153.4823998793717976
 30
0.0
 40
0.0824492065209747
 50
356.1304072945197277
 51
25.7207321549836507
  0
ARC
  5
2821A
  8
0
 10
3158.2509424274430785
 20
153.4833768352077925
 30
0.0
 40
0.0969256711585577
 50
325.9296385379860794
 51
356.1304072945197277
  0
LINE
  5
2821B
  8
0
 10
3158.2072774665221004
 20
153.4457386615048051
 30
0.0
 11
3158.1973142712849949
 21
153.5028158571988968
 31
0.0
  0
ARC
  5
2821C
  8
0
 10
3158.3291132331592053
 20
153.5386277704606073
 30
0.0
 40
0.1442342873926253
 50
201.3158272985679957
 51
209.3627287961168975
  0
LINE
  5
2821D
  8
0
 10
3158.3351185097549205
 20
153.4458081960580955
 30
0.0
 11
3158.3451717172829376
 21
153.5031867329803106
 31
0.0
  0
ARC
  5
2821E
  8
0
 10
3158.2557618386517788
 20
153.5198635759956005
 30
0.0
 40
0.0976097502695255
 50
328.7690640241992241
 51
340.3759285453389793
  0
ARC
  5
2821F
  8
0
 10
3157.334782053319941
 20
153.2034422632505937
 30
0.0
 40
0.0268421309250733
 50
92.0375915231333579
 51
171.4251233024789087
  0
ARC
  5
28220
  8
0
 10
3157.334681278870903
 20
153.2062747820579034
 30
0.0
 40
0.0240078200240748
 50
20.9872574083818009
 51
92.0375915231333579
  0
ARC
  5
28221
  8
0
 10
3157.3269567632701182
 20
153.2033115892361934
 30
0.0
 40
0.0322811901337913
 50
317.4619143162075829
 51
20.9872574083833108
  0
ARC
  5
28222
  8
0
 10
3157.3337790368250353
 20
153.1999439342106086
 30
0.0
 40
0.0250682844449278
 50
213.6926887514972861
 51
312.5853924600659752
  0
ARC
  5
28223
  8
0
 10
3157.3467614818291622
 20
153.2046536666063901
 30
0.0
 40
0.0386224760254502
 50
175.8562759546497887
 51
208.8161668953476067
  0
ARC
  5
28224
  8
0
 10
3157.3392127082061052
 20
153.2090712860197073
 30
0.0
 40
0.0700290240786877
 50
200.769266874039289
 51
233.0793657169054995
  0
ARC
  5
28225
  8
0
 10
3157.333505351040003
 20
153.2012877941135116
 30
0.0
 40
0.0603780176036005
 50
232.9723660026037066
 51
286.9836896163652114
  0
ARC
  5
28226
  8
0
 10
3157.3318827909861284
 20
153.2066003574082913
 30
0.0
 40
0.0659328380229237
 50
286.9836896163652114
 51
332.8139523080433833
  0
ARC
  5
28227
  8
0
 10
3157.3288748958939323
 20
153.2081452796996928
 30
0.0
 40
0.0693142900439592
 50
332.813952308042019
 51
12.6898317034054102
  0
ARC
  5
28228
  8
0
 10
3157.3291025396720215
 20
153.2081965389905918
 30
0.0
 40
0.0690809465105997
 50
12.6898317034054102
 51
44.0047337430290213
  0
ARC
  5
28229
  8
0
 10
3157.3338453175269933
 20
153.2127773436498899
 30
0.0
 40
0.0624871833127678
 50
44.0047337430290213
 51
127.7880216857844999
  0
ARC
  5
2822A
  8
0
 10
3157.3366663374781638
 20
153.2091389362551865
 30
0.0
 40
0.0670911122797793
 50
127.7880216857844999
 51
174.335132718495089
  0
ARC
  5
2822B
  8
0
 10
3157.3423595224271594
 20
153.2085742063721057
 30
0.0
 40
0.0728122375803954
 50
174.335132718495089
 51
199.5253554437692003
  0
ARC
  5
2822C
  8
0
 10
3157.3314544528388979
 20
153.2282302578630038
 30
0.0
 40
0.0725731623058452
 50
204.2717111539637926
 51
217.3130549473206941
  0
ARC
  5
2822D
  8
0
 10
3157.3481159125631166
 20
153.2357432941929005
 30
0.0
 40
0.0908501958464673
 50
165.9043330749350105
 51
204.2717111539637926
  0
ARC
  5
2822E
  8
0
 10
3157.3445781465738946
 20
153.2366316351647981
 30
0.0
 40
0.087202602410119
 50
133.5394258261734137
 51
165.9043330749350105
  0
ARC
  5
2822F
  8
0
 10
3157.3346281245271712
 20
153.2471023314460865
 30
0.0
 40
0.0727582810569489
 50
92.37063746691868
 51
133.5394258261734137
  0
ARC
  5
28230
  8
0
 10
3157.3344791199701831
 20
153.2507015573997933
 30
0.0
 40
0.0691559720997063
 50
47.6287149124060534
 51
92.37063746691868
  0
ARC
  5
28231
  8
0
 10
3157.3179422048219749
 20
153.2325730868321045
 30
0.0
 40
0.093693922457152
 50
25.7207321549836507
 51
47.6287149124060534
  0
ARC
  5
28232
  8
0
 10
3157.3280727948122149
 20
153.2374531260676918
 30
0.0
 40
0.0824492065209747
 50
356.1304072945197277
 51
25.7207321549836507
  0
ARC
  5
28233
  8
0
 10
3157.313629333118115
 20
153.2384300819036866
 30
0.0
 40
0.0969256711585577
 50
325.9296385379860794
 51
356.1304072945197277
  0
LINE
  5
28234
  8
0
 10
3157.2699643721980465
 20
153.2007919082006993
 30
0.0
 11
3157.2600011769609409
 21
153.2578691038947909
 31
0.0
  0
ARC
  5
28235
  8
0
 10
3157.3918001388337871
 20
153.2936810171565014
 30
0.0
 40
0.1442342873926253
 50
201.3158272985679957
 51
209.3627287961168975
  0
LINE
  5
28236
  8
0
 10
3157.3978054154308666
 20
153.2008614427539896
 30
0.0
 11
3157.4078586229588836
 21
153.2582399796762047
 31
0.0
  0
ARC
  5
28237
  8
0
 10
3157.3184487443268154
 20
153.2749168226914946
 30
0.0
 40
0.0976097502695255
 50
328.7690640241992241
 51
340.3759285453389793
  0
ARC
  5
28238
  8
0
 10
3157.8628789615790993
 20
153.0966756275479952
 30
0.0
 40
0.0268421309250733
 50
92.0375915231333579
 51
171.4251233024789087
  0
ARC
  5
28239
  8
0
 10
3157.8627781871300613
 20
153.0995081463553902
 30
0.0
 40
0.0240078200240748
 50
20.9872574083818009
 51
92.0375915231333579
  0
ARC
  5
2823A
  8
0
 10
3157.8550536715288217
 20
153.0965449535337086
 30
0.0
 40
0.0322811901337913
 50
317.4619143162075829
 51
20.9872574083833108
  0
ARC
  5
2823B
  8
0
 10
3157.8618759450841935
 20
153.0931772985080102
 30
0.0
 40
0.0250682844449278
 50
213.6926887514972861
 51
312.5853924600659752
  0
ARC
  5
2823C
  8
0
 10
3157.8748583900869562
 20
153.0978870309039053
 30
0.0
 40
0.0386224760254502
 50
175.8562759546497887
 51
208.8161668953476067
  0
ARC
  5
2823D
  8
0
 10
3157.8673096164638991
 20
153.102304650317194
 30
0.0
 40
0.0700290240786877
 50
200.769266874039289
 51
233.0793657169054995
  0
ARC
  5
2823E
  8
0
 10
3157.8616022592991612
 20
153.0945211584109984
 30
0.0
 40
0.0603780176036005
 50
232.9723660026037066
 51
286.9836896163652114
  0
ARC
  5
2823F
  8
0
 10
3157.8599796992448319
 20
153.0998337217058065
 30
0.0
 40
0.0659328380229237
 50
286.9836896163652114
 51
332.8139523080433833
  0
ARC
  5
28240
  8
0
 10
3157.8569718041530905
 20
153.1013786439970943
 30
0.0
 40
0.0693142900439592
 50
332.813952308042019
 51
12.6898317034054102
  0
ARC
  5
28241
  8
0
 10
3157.8571994479311797
 20
153.101429903288107
 30
0.0
 40
0.0690809465105997
 50
12.6898317034054102
 51
44.0047337430290213
  0
ARC
  5
28242
  8
0
 10
3157.8619422257861515
 20
153.1060107079474051
 30
0.0
 40
0.0624871833127678
 50
44.0047337430290213
 51
127.7880216857844999
  0
ARC
  5
28243
  8
0
 10
3157.8647632457368672
 20
153.1023723005525881
 30
0.0
 40
0.0670911122797793
 50
127.7880216857844999
 51
174.335132718495089
  0
ARC
  5
28244
  8
0
 10
3157.8704564306858629
 20
153.1018075706695072
 30
0.0
 40
0.0728122375803954
 50
174.335132718495089
 51
199.5253554437692003
  0
ARC
  5
28245
  8
0
 10
3157.8595513610980561
 20
153.1214636221604906
 30
0.0
 40
0.0725731623058452
 50
204.2717111539637926
 51
217.3130549473206941
  0
ARC
  5
28246
  8
0
 10
3157.8762128208218201
 20
153.128976658490302
 30
0.0
 40
0.0908501958464673
 50
165.9043330749350105
 51
204.2717111539637926
  0
ARC
  5
28247
  8
0
 10
3157.8726750548330529
 20
153.1298649994623133
 30
0.0
 40
0.087202602410119
 50
133.5394258261734137
 51
165.9043330749350105
  0
ARC
  5
28248
  8
0
 10
3157.8627250327858746
 20
153.140335695743488
 30
0.0
 40
0.0727582810569489
 50
92.37063746691868
 51
133.5394258261734137
  0
ARC
  5
28249
  8
0
 10
3157.8625760282288866
 20
153.1439349216971948
 30
0.0
 40
0.0691559720997063
 50
47.6287149124060534
 51
92.37063746691868
  0
ARC
  5
2824A
  8
0
 10
3157.8460391130811331
 20
153.1258064511295061
 30
0.0
 40
0.093693922457152
 50
25.7207321549836507
 51
47.6287149124060534
  0
ARC
  5
2824B
  8
0
 10
3157.8561697030709183
 20
153.130686490365207
 30
0.0
 40
0.0824492065209747
 50
356.1304072945197277
 51
25.7207321549836507
  0
ARC
  5
2824C
  8
0
 10
3157.8417262413781827
 20
153.1316634462010882
 30
0.0
 40
0.0969256711585577
 50
325.9296385379860794
 51
356.1304072945197277
  0
LINE
  5
2824D
  8
0
 10
3157.7980612804581142
 20
153.094025272498186
 30
0.0
 11
3157.7880980852191897
 21
153.1511024681923061
 31
0.0
  0
ARC
  5
2824E
  8
0
 10
3157.9198970470929453
 20
153.1869143814539029
 30
0.0
 40
0.1442342873926253
 50
201.3158272985679957
 51
209.3627287961168975
  0
LINE
  5
2824F
  8
0
 10
3157.9259023236900248
 20
153.0940948070513912
 30
0.0
 11
3157.9359555312171324
 21
153.1514733439736062
 31
0.0
  0
ARC
  5
28250
  8
0
 10
3157.8465456525868831
 20
153.1681501869888962
 30
0.0
 40
0.0976097502695255
 50
328.7690640241992241
 51
340.3759285453389793
  0
ARC
  5
28251
  8
0
 10
3157.1796459334359497
 20
152.7019490880109061
 30
0.0
 40
0.0268421309250733
 50
92.0375915231333579
 51
171.4251233024789087
  0
ARC
  5
28252
  8
0
 10
3157.1795451589860022
 20
152.704781606818301
 30
0.0
 40
0.0240078200240748
 50
20.9872574083818009
 51
92.0375915231333579
  0
ARC
  5
28253
  8
0
 10
3157.1718206433852174
 20
152.7018184139965911
 30
0.0
 40
0.0322811901337913
 50
317.4619143162075829
 51
20.9872574083833108
  0
ARC
  5
28254
  8
0
 10
3157.1786429169410439
 20
152.6984507589708926
 30
0.0
 40
0.0250682844449278
 50
213.6926887514972861
 51
312.5853924600659752
  0
ARC
  5
28255
  8
0
 10
3157.1916253619438066
 20
152.7031604913667877
 30
0.0
 40
0.0386224760254502
 50
175.8562759546497887
 51
208.8161668953476067
  0
ARC
  5
28256
  8
0
 10
3157.1840765883212043
 20
152.7075781107801049
 30
0.0
 40
0.0700290240786877
 50
200.769266874039289
 51
233.0793657169054995
  0
ARC
  5
28257
  8
0
 10
3157.1783692311560117
 20
152.6997946188739093
 30
0.0
 40
0.0603780176036005
 50
232.9723660026037066
 51
286.9836896163652114
  0
ARC
  5
28258
  8
0
 10
3157.176746671102137
 20
152.705107182168689
 30
0.0
 40
0.0659328380229237
 50
286.9836896163652114
 51
332.8139523080433833
  0
ARC
  5
28259
  8
0
 10
3157.1737387760090314
 20
152.7066521044600904
 30
0.0
 40
0.0693142900439592
 50
332.813952308042019
 51
12.6898317034054102
  0
ARC
  5
2825A
  8
0
 10
3157.1739664197871207
 20
152.7067033637509894
 30
0.0
 40
0.0690809465105997
 50
12.6898317034054102
 51
44.0047337430290213
  0
ARC
  5
2825B
  8
0
 10
3157.1787091976420925
 20
152.7112841684102875
 30
0.0
 40
0.0624871833127678
 50
44.0047337430290213
 51
127.7880216857844999
  0
ARC
  5
2825C
  8
0
 10
3157.1815302175928082
 20
152.7076457610156126
 30
0.0
 40
0.0670911122797793
 50
127.7880216857844999
 51
174.335132718495089
  0
ARC
  5
2825D
  8
0
 10
3157.187223402543168
 20
152.7070810311323896
 30
0.0
 40
0.0728122375803954
 50
174.335132718495089
 51
199.5253554437692003
  0
ARC
  5
2825E
  8
0
 10
3157.176318332953997
 20
152.7267370826234014
 30
0.0
 40
0.0725731623058452
 50
204.2717111539637926
 51
217.3130549473206941
  0
ARC
  5
2825F
  8
0
 10
3157.1929797926791252
 20
152.7342501189532129
 30
0.0
 40
0.0908501958464673
 50
165.9043330749350105
 51
204.2717111539637926
  0
ARC
  5
28260
  8
0
 10
3157.1894420266899033
 20
152.7351384599251958
 30
0.0
 40
0.087202602410119
 50
133.5394258261734137
 51
165.9043330749350105
  0
ARC
  5
28261
  8
0
 10
3157.1794920046418156
 20
152.7456091562065126
 30
0.0
 40
0.0727582810569489
 50
92.37063746691868
 51
133.5394258261734137
  0
ARC
  5
28262
  8
0
 10
3157.1793430000861918
 20
152.7492083821601057
 30
0.0
 40
0.0691559720997063
 50
47.6287149124060534
 51
92.37063746691868
  0
ARC
  5
28263
  8
0
 10
3157.1628060849379835
 20
152.7310799115923885
 30
0.0
 40
0.093693922457152
 50
25.7207321549836507
 51
47.6287149124060534
  0
ARC
  5
28264
  8
0
 10
3157.1729366749268593
 20
152.7359599508280894
 30
0.0
 40
0.0824492065209747
 50
356.1304072945197277
 51
25.7207321549836507
  0
ARC
  5
28265
  8
0
 10
3157.1584932132341237
 20
152.7369369066641127
 30
0.0
 40
0.0969256711585577
 50
325.9296385379860794
 51
356.1304072945197277
  0
LINE
  5
28266
  8
0
 10
3157.1148282523140551
 20
152.6992987329610969
 30
0.0
 11
3157.1048650570760401
 21
152.7563759286551885
 31
0.0
  0
ARC
  5
28267
  8
0
 10
3157.2366640189488862
 20
152.7921878419168991
 30
0.0
 40
0.1442342873926253
 50
201.3158272985679957
 51
209.3627287961168975
  0
LINE
  5
28268
  8
0
 10
3157.2426692955459657
 20
152.699368267514302
 30
0.0
 11
3157.2527225030739828
 21
152.7567468044364887
 31
0.0
  0
ARC
  5
28269
  8
0
 10
3157.163312624442824
 20
152.773423647451807
 30
0.0
 40
0.0976097502695255
 50
328.7690640241992241
 51
340.3759285453389793
  0
ARC
  5
2826A
  8
0
 10
3156.6920720330208496
 20
152.5495424245609968
 30
0.0
 40
0.0268421309250733
 50
92.0375915231333579
 51
171.4251233024789087
  0
ARC
  5
2826B
  8
0
 10
3156.6919712585718116
 20
152.5523749433683065
 30
0.0
 40
0.0240078200240748
 50
20.9872574083818009
 51
92.0375915231333579
  0
ARC
  5
2826C
  8
0
 10
3156.6842467429701173
 20
152.5494117505465965
 30
0.0
 40
0.0322811901337913
 50
317.4619143162075829
 51
20.9872574083833108
  0
ARC
  5
2826D
  8
0
 10
3156.6910690165259439
 20
152.5460440955210117
 30
0.0
 40
0.0250682844449278
 50
213.6926887514972861
 51
312.5853924600659752
  0
ARC
  5
2826E
  8
0
 10
3156.7040514615291613
 20
152.5507538279167932
 30
0.0
 40
0.0386224760254502
 50
175.8562759546497887
 51
208.8161668953476067
  0
ARC
  5
2826F
  8
0
 10
3156.6965026879061043
 20
152.5551714473301104
 30
0.0
 40
0.0700290240786877
 50
200.769266874039289
 51
233.0793657169054995
  0
ARC
  5
28270
  8
0
 10
3156.6907953307409116
 20
152.5473879554238863
 30
0.0
 40
0.0603780176036005
 50
232.9723660026037066
 51
286.9836896163652114
  0
ARC
  5
28271
  8
0
 10
3156.689172770687037
 20
152.5527005187186944
 30
0.0
 40
0.0659328380229237
 50
286.9836896163652114
 51
332.8139523080433833
  0
ARC
  5
28272
  8
0
 10
3156.6861648755948409
 20
152.5542454410100959
 30
0.0
 40
0.0693142900439592
 50
332.813952308042019
 51
12.6898317034054102
  0
ARC
  5
28273
  8
0
 10
3156.6863925193729301
 20
152.5542967003009949
 30
0.0
 40
0.0690809465105997
 50
12.6898317034054102
 51
44.0047337430290213
  0
ARC
  5
28274
  8
0
 10
3156.6911352972279019
 20
152.558877504960293
 30
0.0
 40
0.0624871833127678
 50
44.0047337430290213
 51
127.7880216857844999
  0
ARC
  5
28275
  8
0
 10
3156.6939563171781629
 20
152.5552390975655896
 30
0.0
 40
0.0670911122797793
 50
127.7880216857844999
 51
174.335132718495089
  0
ARC
  5
28276
  8
0
 10
3156.699649502128068
 20
152.5546743676825088
 30
0.0
 40
0.0728122375803954
 50
174.335132718495089
 51
199.5253554437692003
  0
ARC
  5
28277
  8
0
 10
3156.6887444325388969
 20
152.5743304191734921
 30
0.0
 40
0.0725731623058452
 50
204.2717111539637926
 51
217.3130549473206941
  0
ARC
  5
28278
  8
0
 10
3156.7054058922640252
 20
152.5818434555033036
 30
0.0
 40
0.0908501958464673
 50
165.9043330749350105
 51
204.2717111539637926
  0
ARC
  5
28279
  8
0
 10
3156.7018681262748032
 20
152.5827317964752012
 30
0.0
 40
0.087202602410119
 50
133.5394258261734137
 51
165.9043330749350105
  0
ARC
  5
2827A
  8
0
 10
3156.6919181042280798
 20
152.5932024927564896
 30
0.0
 40
0.0727582810569489
 50
92.37063746691868
 51
133.5394258261734137
  0
ARC
  5
2827B
  8
0
 10
3156.6917690996710917
 20
152.5968017187101964
 30
0.0
 40
0.0691559720997063
 50
47.6287149124060534
 51
92.37063746691868
  0
ARC
  5
2827C
  8
0
 10
3156.6752321845228835
 20
152.5786732481425076
 30
0.0
 40
0.093693922457152
 50
25.7207321549836507
 51
47.6287149124060534
  0
ARC
  5
2827D
  8
0
 10
3156.6853627745131234
 20
152.5835532873780949
 30
0.0
 40
0.0824492065209747
 50
356.1304072945197277
 51
25.7207321549836507
  0
ARC
  5
2827E
  8
0
 10
3156.6709193128190236
 20
152.5845302432140898
 30
0.0
 40
0.0969256711585577
 50
325.9296385379860794
 51
356.1304072945197277
  0
LINE
  5
2827F
  8
0
 10
3156.6272543518980456
 20
152.5468920695111024
 30
0.0
 11
3156.61729115666094
 21
152.603969265205194
 31
0.0
  0
ARC
  5
28280
  8
0
 10
3156.7490901185351504
 20
152.6397811784669045
 30
0.0
 40
0.1442342873926253
 50
201.3158272985679957
 51
209.3627287961168975
  0
LINE
  5
28281
  8
0
 10
3156.7550953951317751
 20
152.5469616040643928
 30
0.0
 11
3156.7651486026588827
 21
152.6043401409866078
 31
0.0
  0
ARC
  5
28282
  8
0
 10
3156.6757387240281787
 20
152.6210169840018978
 30
0.0
 40
0.0976097502695255
 50
328.7690640241992241
 51
340.3759285453389793
  0
ARC
  5
28283
  8
0
 10
3157.7812064415888926
 20
150.4099952998824961
 30
0.0
 40
0.032544057421958
 50
35.6442331952169909
 51
111.4767111221960931
  0
ARC
  5
28284
  8
0
 10
3157.7982280646970139
 20
150.4222014725237955
 30
0.0
 40
0.0115982630045883
 50
303.5716341622260757
 51
35.6442331952169909
  0
ARC
  5
28285
  8
0
 10
3157.7751046926418894
 20
150.4229591215824939
 30
0.0
 40
0.0182701423768342
 50
108.5535081828778061
 51
164.6941788954769095
  0
ARC
  5
28286
  8
0
 10
3157.7696494017181976
 20
150.4244521160401007
 30
0.0
 40
0.0126142400159476
 50
164.6941788954783874
 51
244.2679808004388065
  0
ARC
  5
28287
  8
0
 10
3157.7847738351338194
 20
150.4397441728719116
 30
0.0
 40
0.0336884875590938
 50
232.3007668171022999
 51
306.1393564434553127
  0
ARC
  5
28288
  8
0
 10
3157.7533268708148171
 20
150.432906083975098
 30
0.0
 40
0.0343546845451782
 50
143.9555696210273084
 51
197.9321222346675029
  0
ARC
  5
28289
  8
0
 10
3157.7693649379748422
 20
150.4212347336276139
 30
0.0
 40
0.0541900070074988
 50
99.9711838223797145
 51
143.9555696210273084
  0
ARC
  5
2828A
  8
0
 10
3157.7764535764849825
 20
150.380914496422406
 30
0.0
 40
0.0951286235473024
 50
55.4953429302537131
 51
99.9711838223797145
  0
ARC
  5
2828B
  8
0
 10
3157.8079157136130561
 20
150.4266842197743017
 30
0.0
 40
0.0395882450071387
 50
351.1985423256498962
 51
55.4953429302546226
  0
ARC
  5
2828C
  8
0
 10
3157.810158979004882
 20
150.4263368855044121
 30
0.0
 40
0.0373182492555917
 50
308.6784390679566741
 51
351.1985423256514878
  0
ARC
  5
2828D
  8
0
 10
3157.7891343099731785
 20
150.4526002101964934
 30
0.0
 40
0.0709604687390558
 50
262.4213458959823129
 51
308.6784390679566741
  0
ARC
  5
2828E
  8
0
 10
3157.7920728601311566
 20
150.4746863825610035
 30
0.0
 40
0.0932412695941094
 50
230.6420082552656083
 51
262.4213458959823129
  0
ARC
  5
2828F
  8
0
 10
3157.7559345165482227
 20
150.4306250182652889
 30
0.0
 40
0.0362554494236015
 50
193.2283059482992087
 51
230.6420082552656083
  0
LINE
  5
28290
  8
0
 10
3157.7127144439050426
 20
150.4836710287897859
 30
0.0
 11
3157.7190560930198444
 21
150.4305064716089078
 31
0.0
  0
ARC
  5
28291
  8
0
 10
3157.7507182764479694
 20
150.4692552913057
 30
0.0
 40
0.0442075529010529
 50
204.7354115731641002
 51
222.2155920541057981
  0
ARC
  5
28292
  8
0
 10
3157.7428132484751586
 20
150.4656134637183129
 30
0.0
 40
0.0355039688448612
 50
172.1969684997540924
 51
204.7354115731641002
  0
ARC
  5
28293
  8
0
 10
3157.7384425602649571
 20
150.4662124091219937
 30
0.0
 40
0.0310924327147971
 50
145.839916628540692
 51
172.1969684997525007
  0
ARC
  5
28294
  8
0
 10
3157.7552286874838501
 20
150.454821656424798
 30
0.0
 40
0.0513784701304842
 50
122.7834724129301947
 51
145.839916628540692
  0
ARC
  5
28295
  8
0
 10
3157.7723583344259168
 20
150.4282248012640082
 30
0.0
 40
0.0830141700403471
 50
93.3822760047068385
 51
122.7834724129301947
  0
ARC
  5
28296
  8
0
 10
3157.7751257488898773
 20
150.3813992484575124
 30
0.0
 40
0.1299214293767807
 50
74.584530156534143
 51
93.3822760047068385
  0
ARC
  5
28297
  8
0
 10
3157.7875569575230656
 20
150.4264829180808931
 30
0.0
 40
0.0831552854819973
 50
47.8608135702782675
 51
74.584530156534143
  0
ARC
  5
28298
  8
0
 10
3157.8053717705738563
 20
150.4461718751952901
 30
0.0
 40
0.0566030238783478
 50
17.5060978863048291
 51
47.8608135702782675
  0
ARC
  5
28299
  8
0
 10
3157.8290749464599685
 20
150.4536482314126999
 30
0.0
 40
0.0317487194343671
 50
307.4010939112325218
 51
17.5060978863048291
  0
LINE
  5
2829A
  8
0
 10
3157.8472465896070389
 20
150.4221774097782998
 30
0.0
 11
3157.8483588331241663
 21
150.4284269526810078
 31
0.0
  0
LINE
  5
2829B
  8
0
 10
3157.8483588331241663
 20
150.4284269526810078
 30
0.0
 11
3157.855732210377937
 21
150.472012316656901
 31
0.0
  0
ARC
  5
2829C
  8
0
 10
3157.4896797829987918
 20
150.7665865787203927
 30
0.0
 40
0.032544057421958
 50
35.6442331952169909
 51
111.4767111221960931
  0
ARC
  5
2829D
  8
0
 10
3157.5067014061069131
 20
150.7787927513616921
 30
0.0
 40
0.0115982630045883
 50
303.5716341622260757
 51
35.6442331952169909
  0
ARC
  5
2829E
  8
0
 10
3157.4835780340508791
 20
150.7795504004205043
 30
0.0
 40
0.0182701423768342
 50
108.5535081828778061
 51
164.6941788954769095
  0
ARC
  5
2829F
  8
0
 10
3157.4781227431271873
 20
150.7810433948779973
 30
0.0
 40
0.0126142400159476
 50
164.6941788954783874
 51
244.2679808004388065
  0
ARC
  5
282A0
  8
0
 10
3157.493247176542809
 20
150.7963354517098082
 30
0.0
 40
0.0336884875590938
 50
232.3007668171022999
 51
306.1393564434553127
  0
ARC
  5
282A1
  8
0
 10
3157.461800212225171
 20
150.7894973628131083
 30
0.0
 40
0.0343546845451782
 50
143.9555696210273084
 51
197.9321222346675029
  0
ARC
  5
282A2
  8
0
 10
3157.4778382793851961
 20
150.7778260124655105
 30
0.0
 40
0.0541900070074988
 50
99.9711838223797145
 51
143.9555696210273084
  0
ARC
  5
282A3
  8
0
 10
3157.4849269178948816
 20
150.737505775260388
 30
0.0
 40
0.0951286235473024
 50
55.4953429302537131
 51
99.9711838223797145
  0
ARC
  5
282A4
  8
0
 10
3157.5163890550229553
 20
150.7832754986121984
 30
0.0
 40
0.0395882450071387
 50
351.1985423256498962
 51
55.4953429302546226
  0
ARC
  5
282A5
  8
0
 10
3157.5186323204138716
 20
150.7829281643423087
 30
0.0
 40
0.0373182492555917
 50
308.6784390679566741
 51
351.1985423256514878
  0
ARC
  5
282A6
  8
0
 10
3157.4976076513830776
 20
150.8091914890343901
 30
0.0
 40
0.0709604687390558
 50
262.4213458959823129
 51
308.6784390679566741
  0
ARC
  5
282A7
  8
0
 10
3157.5005462015401463
 20
150.8312776613989001
 30
0.0
 40
0.0932412695941094
 50
230.6420082552656083
 51
262.4213458959823129
  0
ARC
  5
282A8
  8
0
 10
3157.4644078579581219
 20
150.7872162971032139
 30
0.0
 40
0.0362554494236015
 50
193.2283059482992087
 51
230.6420082552656083
  0
LINE
  5
282A9
  8
0
 10
3157.4211877853149417
 20
150.8402623076277109
 30
0.0
 11
3157.4275294344288341
 21
150.7870977504468897
 31
0.0
  0
ARC
  5
282AA
  8
0
 10
3157.4591916178569591
 20
150.8258465701437103
 30
0.0
 40
0.0442075529010529
 50
204.7354115731641002
 51
222.2155920541057981
  0
ARC
  5
282AB
  8
0
 10
3157.4512865898850578
 20
150.8222047425562096
 30
0.0
 40
0.0355039688448612
 50
172.1969684997540924
 51
204.7354115731641002
  0
ARC
  5
282AC
  8
0
 10
3157.4469159016748563
 20
150.8228036879598903
 30
0.0
 40
0.0310924327147971
 50
145.839916628540692
 51
172.1969684997525007
  0
ARC
  5
282AD
  8
0
 10
3157.463702028894204
 20
150.8114129352628083
 30
0.0
 40
0.0513784701304842
 50
122.7834724129301947
 51
145.839916628540692
  0
ARC
  5
282AE
  8
0
 10
3157.4808316758349065
 20
150.7848160801019048
 30
0.0
 40
0.0830141700403471
 50
93.3822760047068385
 51
122.7834724129301947
  0
ARC
  5
282AF
  8
0
 10
3157.4835990902997764
 20
150.737990527295409
 30
0.0
 40
0.1299214293767807
 50
74.584530156534143
 51
93.3822760047068385
  0
ARC
  5
282B0
  8
0
 10
3157.4960302989329648
 20
150.7830741969187898
 30
0.0
 40
0.0831552854819973
 50
47.8608135702782675
 51
74.584530156534143
  0
ARC
  5
282B1
  8
0
 10
3157.513845111982846
 20
150.8027631540331868
 30
0.0
 40
0.0566030238783478
 50
17.5060978863048291
 51
47.8608135702782675
  0
ARC
  5
282B2
  8
0
 10
3157.5375482878698676
 20
150.8102395102507103
 30
0.0
 40
0.0317487194343671
 50
307.4010939112325218
 51
17.5060978863048291
  0
LINE
  5
282B3
  8
0
 10
3157.5557199310160286
 20
150.7787686886161964
 30
0.0
 11
3157.5568321745331559
 21
150.7850182315189045
 31
0.0
  0
LINE
  5
282B4
  8
0
 10
3157.5568321745331559
 20
150.7850182315189045
 30
0.0
 11
3157.5642055517869267
 21
150.8286035954949114
 31
0.0
  0
ARC
  5
282B5
  8
0
 10
3156.9608431461010696
 20
150.8831397755585897
 30
0.0
 40
0.032544057421958
 50
35.6442331952169909
 51
111.4767111221960931
  0
ARC
  5
282B6
  8
0
 10
3156.9778647692091909
 20
150.8953459481998891
 30
0.0
 40
0.0115982630045883
 50
303.5716341622260757
 51
35.6442331952183125
  0
ARC
  5
282B7
  8
0
 10
3156.9547413971531569
 20
150.8961035972585876
 30
0.0
 40
0.0182701423768342
 50
108.5535081828778061
 51
164.6941788954769095
  0
ARC
  5
282B8
  8
0
 10
3156.9492861062290103
 20
150.8975965917161943
 30
0.0
 40
0.0126142400159476
 50
164.6941788954783874
 51
244.2679808004388065
  0
ARC
  5
282B9
  8
0
 10
3156.9644105396450868
 20
150.9128886485480052
 30
0.0
 40
0.0336884875590938
 50
232.3007668171022999
 51
306.1393564434553127
  0
ARC
  5
282BA
  8
0
 10
3156.9329635753260845
 20
150.9060505596511916
 30
0.0
 40
0.0343546845451782
 50
143.9555696210273084
 51
197.9321222346675029
  0
ARC
  5
282BB
  8
0
 10
3156.9490016424870191
 20
150.8943792093037075
 30
0.0
 40
0.0541900070074988
 50
99.9711838223797145
 51
143.9555696210273084
  0
ARC
  5
282BC
  8
0
 10
3156.9560902809957952
 20
150.8540589720984997
 30
0.0
 40
0.0951286235473024
 50
55.4953429302537131
 51
99.9711838223797145
  0
ARC
  5
282BD
  8
0
 10
3156.9875524181247783
 20
150.8998286954503953
 30
0.0
 40
0.0395882450071387
 50
351.1985423256498962
 51
55.4953429302546226
  0
ARC
  5
282BE
  8
0
 10
3156.9897956835170589
 20
150.8994813611805057
 30
0.0
 40
0.0373182492555917
 50
308.6784390679566741
 51
351.1985423256514878
  0
ARC
  5
282BF
  8
0
 10
3156.9687710144849007
 20
150.9257446858725871
 30
0.0
 40
0.0709604687390558
 50
262.4213458959823129
 51
308.6784390679566741
  0
ARC
  5
282C0
  8
0
 10
3156.9717095646419693
 20
150.9478308582370971
 30
0.0
 40
0.0932412695941094
 50
230.6420082552656083
 51
262.4213458959823129
  0
ARC
  5
282C1
  8
0
 10
3156.9355712210590355
 20
150.9037694939414109
 30
0.0
 40
0.0362554494236015
 50
193.2283059482992087
 51
230.6420082552656083
  0
LINE
  5
282C2
  8
0
 10
3156.8923511484172195
 20
150.9568155044659079
 30
0.0
 11
3156.8986927975311119
 21
150.9036509472850867
 31
0.0
  0
ARC
  5
282C3
  8
0
 10
3156.9303549809587821
 20
150.9423997669817936
 30
0.0
 40
0.0442075529010529
 50
204.7354115731641002
 51
222.2155920541057981
  0
ARC
  5
282C4
  8
0
 10
3156.9224499529859713
 20
150.9387579393944065
 30
0.0
 40
0.0355039688448612
 50
172.1969684997540924
 51
204.7354115731641002
  0
ARC
  5
282C5
  8
0
 10
3156.9180792647771341
 20
150.9393568847980873
 30
0.0
 40
0.0310924327147971
 50
145.839916628540692
 51
172.1969684997525007
  0
ARC
  5
282C6
  8
0
 10
3156.9348653919951175
 20
150.9279661321008916
 30
0.0
 40
0.0513784701304842
 50
122.7834724129301947
 51
145.839916628540692
  0
ARC
  5
282C7
  8
0
 10
3156.9519950389371843
 20
150.9013692769401871
 30
0.0
 40
0.0830141700403471
 50
93.3822760047068385
 51
122.7834724129301947
  0
ARC
  5
282C8
  8
0
 10
3156.9547624534020542
 20
150.854543724133606
 30
0.0
 40
0.1299214293767807
 50
74.584530156534143
 51
93.3822760047068385
  0
ARC
  5
282C9
  8
0
 10
3156.9671936620347878
 20
150.8996273937571004
 30
0.0
 40
0.0831552854819973
 50
47.8608135702782675
 51
74.584530156534143
  0
ARC
  5
282CA
  8
0
 10
3156.9850084750851238
 20
150.9193163508714122
 30
0.0
 40
0.0566030238783478
 50
17.5060978863048291
 51
47.8608135702782675
  0
ARC
  5
282CB
  8
0
 10
3157.0087116509721454
 20
150.9267927070889073
 30
0.0
 40
0.0317487194343671
 50
307.4010939112325218
 51
17.5060978863048291
  0
LINE
  5
282CC
  8
0
 10
3157.0268832941178516
 20
150.8953218854543934
 30
0.0
 11
3157.027995537634979
 21
150.9015714283571015
 31
0.0
  0
LINE
  5
282CD
  8
0
 10
3157.027995537634979
 20
150.9015714283571015
 30
0.0
 11
3157.0353689148892045
 21
150.9451567923331083
 31
0.0
  0
ARC
  5
282CE
  8
0
 10
3156.9556513501770496
 20
151.3141028465483089
 30
0.0
 40
0.032544057421958
 50
35.6442331952169909
 51
111.4767111221960931
  0
ARC
  5
282CF
  8
0
 10
3156.9726729732851709
 20
151.3263090191896083
 30
0.0
 40
0.0115982630045883
 50
303.5716341622260757
 51
35.6442331952183125
  0
ARC
  5
282D0
  8
0
 10
3156.9495496012291369
 20
151.3270666682483068
 30
0.0
 40
0.0182701423768342
 50
108.5535081828778061
 51
164.6941788954769095
  0
ARC
  5
282D1
  8
0
 10
3156.9440943103049904
 20
151.3285596627059135
 30
0.0
 40
0.0126142400159476
 50
164.6941788954783874
 51
244.2679808004388065
  0
ARC
  5
282D2
  8
0
 10
3156.9592187437210669
 20
151.343851719537696
 30
0.0
 40
0.0336884875590938
 50
232.3007668171022999
 51
306.1393564434553127
  0
ARC
  5
282D3
  8
0
 10
3156.9277717794029741
 20
151.3370136306409961
 30
0.0
 40
0.0343546845451782
 50
143.9555696210273084
 51
197.9321222346675029
  0
ARC
  5
282D4
  8
0
 10
3156.9438098465629992
 20
151.3253422802933983
 30
0.0
 40
0.0541900070074988
 50
99.9711838223797145
 51
143.9555696210273084
  0
ARC
  5
282D5
  8
0
 10
3156.9508984850731395
 20
151.2850220430883041
 30
0.0
 40
0.0951286235473024
 50
55.4953429302537131
 51
99.9711838223797145
  0
ARC
  5
282D6
  8
0
 10
3156.9823606222012131
 20
151.3307917664400861
 30
0.0
 40
0.0395882450071387
 50
351.1985423256498962
 51
55.4953429302546226
  0
ARC
  5
282D7
  8
0
 10
3156.984603887593039
 20
151.3304444321701965
 30
0.0
 40
0.0373182492555917
 50
308.6784390679566741
 51
351.1985423256514878
  0
ARC
  5
282D8
  8
0
 10
3156.9635792185608807
 20
151.3567077568623063
 30
0.0
 40
0.0709604687390558
 50
262.4213458959823129
 51
308.6784390679566741
  0
ARC
  5
282D9
  8
0
 10
3156.9665177687188589
 20
151.3787939292267879
 30
0.0
 40
0.0932412695941094
 50
230.6420082552656083
 51
262.4213458959823129
  0
ARC
  5
282DA
  8
0
 10
3156.930379425135925
 20
151.3347325649311017
 30
0.0
 40
0.0362554494236015
 50
193.2283059482992087
 51
230.6420082552656083
  0
LINE
  5
282DB
  8
0
 10
3156.8871593524931995
 20
151.3877785754555987
 30
0.0
 11
3156.8935010016070919
 21
151.3346140182746922
 31
0.0
  0
ARC
  5
282DC
  8
0
 10
3156.9251631850352169
 20
151.3733628379715981
 30
0.0
 40
0.0442075529010529
 50
204.7354115731641002
 51
222.2155920541057981
  0
ARC
  5
282DD
  8
0
 10
3156.9172581570628608
 20
151.3697210103840973
 30
0.0
 40
0.0355039688448612
 50
172.1969684997540924
 51
204.7354115731641002
  0
ARC
  5
282DE
  8
0
 10
3156.9128874688522046
 20
151.3703199557878065
 30
0.0
 40
0.0310924327147971
 50
145.839916628540692
 51
172.1969684997525007
  0
ARC
  5
282DF
  8
0
 10
3156.9296735960720071
 20
151.3589292030906108
 30
0.0
 40
0.0513784701304842
 50
122.7834724129301947
 51
145.839916628540692
  0
ARC
  5
282E0
  8
0
 10
3156.9468032430131643
 20
151.3323323479299063
 30
0.0
 40
0.0830141700403471
 50
93.3822760047068385
 51
122.7834724129301947
  0
ARC
  5
282E1
  8
0
 10
3156.9495706574780343
 20
151.2855067951232968
 30
0.0
 40
0.1299214293767807
 50
74.584530156534143
 51
93.3822760047068385
  0
ARC
  5
282E2
  8
0
 10
3156.9620018661112226
 20
151.3305904647467059
 30
0.0
 40
0.0831552854819973
 50
47.8608135702782675
 51
74.584530156534143
  0
ARC
  5
282E3
  8
0
 10
3156.9798166791611038
 20
151.3502794218611029
 30
0.0
 40
0.0566030238783478
 50
17.5060978863048291
 51
47.8608135702782675
  0
ARC
  5
282E4
  8
0
 10
3157.0035198550481255
 20
151.357755778078598
 30
0.0
 40
0.0317487194343671
 50
307.4010939112325218
 51
17.5060978863048291
  0
LINE
  5
282E5
  8
0
 10
3157.0216914981951959
 20
151.3262849564441126
 30
0.0
 11
3157.022803741710959
 21
151.3325344993467922
 31
0.0
  0
LINE
  5
282E6
  8
0
 10
3157.022803741710959
 20
151.3325344993467922
 30
0.0
 11
3157.0301771189651845
 21
151.3761198633227139
 31
0.0
  0
ARC
  5
282E7
  8
0
 10
3156.5599421901570167
 20
151.679105895636809
 30
0.0
 40
0.032544057421958
 50
35.6442331952169909
 51
111.4767111221960931
  0
ARC
  5
282E8
  8
0
 10
3156.576963813265138
 20
151.6913120682781084
 30
0.0
 40
0.0115982630045883
 50
303.5716341622260757
 51
35.6442331952183125
  0
ARC
  5
282E9
  8
0
 10
3156.553840441209104
 20
151.6920697173368069
 30
0.0
 40
0.0182701423768342
 50
108.5535081828778061
 51
164.6941788954769095
  0
ARC
  5
282EA
  8
0
 10
3156.548385150284048
 20
151.6935627117944136
 30
0.0
 40
0.0126142400159476
 50
164.6941788954783874
 51
244.2679808004388065
  0
ARC
  5
282EB
  8
0
 10
3156.563509583701034
 20
151.7088547686261109
 30
0.0
 40
0.0336884875590938
 50
232.3007668171022999
 51
306.1393564434553127
  0
ARC
  5
282EC
  8
0
 10
3156.5320626193820317
 20
151.702016679729411
 30
0.0
 40
0.0343546845451782
 50
143.9555696210273084
 51
197.9321222346675029
  0
ARC
  5
282ED
  8
0
 10
3156.5481006865429663
 20
151.6903453293818131
 30
0.0
 40
0.0541900070074988
 50
99.9711838223797145
 51
143.9555696210273084
  0
ARC
  5
282EE
  8
0
 10
3156.5551893250521971
 20
151.6500250921766906
 30
0.0
 40
0.0951286235473024
 50
55.4953429302537131
 51
99.9711838223797145
  0
ARC
  5
282EF
  8
0
 10
3156.586651462179816
 20
151.6957948155285862
 30
0.0
 40
0.0395882450071387
 50
351.1985423256498962
 51
55.4953429302546226
  0
ARC
  5
282F0
  8
0
 10
3156.5888947275720966
 20
151.6954474812586113
 30
0.0
 40
0.0373182492555917
 50
308.6784390679566741
 51
351.1985423256514878
  0
ARC
  5
282F1
  8
0
 10
3156.5678700585399383
 20
151.7217108059508064
 30
0.0
 40
0.0709604687390558
 50
262.4213458959823129
 51
308.6784390679566741
  0
ARC
  5
282F2
  8
0
 10
3156.5708086086979165
 20
151.743796978315288
 30
0.0
 40
0.0932412695941094
 50
230.6420082552656083
 51
262.4213458959823129
  0
ARC
  5
282F3
  8
0
 10
3156.5346702651149826
 20
151.6997356140196018
 30
0.0
 40
0.0362554494236015
 50
193.2283059482992087
 51
230.6420082552656083
  0
LINE
  5
282F4
  8
0
 10
3156.4914501924731667
 20
151.7527816245440135
 30
0.0
 11
3156.497791841587059
 21
151.6996170673631923
 31
0.0
  0
ARC
  5
282F5
  8
0
 10
3156.5294540250138198
 20
151.7383658870600129
 30
0.0
 40
0.0442075529010529
 50
204.7354115731641002
 51
222.2155920541057981
  0
ARC
  5
282F6
  8
0
 10
3156.5215489970419185
 20
151.7347240594725974
 30
0.0
 40
0.0355039688448612
 50
172.1969684997540924
 51
204.7354115731641002
  0
ARC
  5
282F7
  8
0
 10
3156.5171783088321718
 20
151.7353230048763066
 30
0.0
 40
0.0310924327147971
 50
145.839916628540692
 51
172.1969684997525007
  0
ARC
  5
282F8
  8
0
 10
3156.5339644360510647
 20
151.7239322521791109
 30
0.0
 40
0.0513784701304842
 50
122.7834724129301947
 51
145.839916628540692
  0
ARC
  5
282F9
  8
0
 10
3156.5510940829931315
 20
151.6973353970182927
 30
0.0
 40
0.0830141700403471
 50
93.3822760047068385
 51
122.7834724129301947
  0
ARC
  5
282FA
  8
0
 10
3156.5538614974570919
 20
151.6505098442117969
 30
0.0
 40
0.1299214293767807
 50
74.584530156534143
 51
93.3822760047068385
  0
ARC
  5
282FB
  8
0
 10
3156.5662927060898255
 20
151.6955935138352061
 30
0.0
 40
0.0831552854819973
 50
47.8608135702782675
 51
74.584530156534143
  0
ARC
  5
282FC
  8
0
 10
3156.584107519141071
 20
151.7152824709496031
 30
0.0
 40
0.0566030238783478
 50
17.5060978863048291
 51
47.8608135702782675
  0
ARC
  5
282FD
  8
0
 10
3156.6078106950271831
 20
151.7227588271670129
 30
0.0
 40
0.0317487194343671
 50
307.4010939112325218
 51
17.5060978863048291
  0
LINE
  5
282FE
  8
0
 10
3156.6259823381737988
 20
151.6912880055326127
 30
0.0
 11
3156.6270945816909261
 21
151.6975375484352071
 31
0.0
  0
LINE
  5
282FF
  8
0
 10
3156.6270945816909261
 20
151.6975375484352071
 30
0.0
 11
3156.6344679589437874
 21
151.741122912411214
 31
0.0
  0
ARC
  5
28300
  8
0
 10
3156.8447015712108623
 20
152.0429741663967036
 30
0.0
 40
0.032544057421958
 50
35.6442331952169909
 51
111.4767111221960931
  0
ARC
  5
28301
  8
0
 10
3156.8617231943180741
 20
152.055180339038003
 30
0.0
 40
0.0115982630045883
 50
303.5716341622260757
 51
35.6442331952183125
  0
ARC
  5
28302
  8
0
 10
3156.8385998222620401
 20
152.0559379880967015
 30
0.0
 40
0.0182701423768342
 50
108.5535081828778061
 51
164.6941788954769095
  0
ARC
  5
28303
  8
0
 10
3156.8331445313388031
 20
152.0574309825543082
 30
0.0
 40
0.0126142400159476
 50
164.6941788954783874
 51
244.2679808004388065
  0
ARC
  5
28304
  8
0
 10
3156.8482689647548796
 20
152.0727230393860907
 30
0.0
 40
0.0336884875590938
 50
232.3007668171022999
 51
306.1393564434553127
  0
ARC
  5
28305
  8
0
 10
3156.8168220004358773
 20
152.0658849504893055
 30
0.0
 40
0.0343546845451782
 50
143.9555696210273084
 51
197.9321222346675029
  0
ARC
  5
28306
  8
0
 10
3156.8328600675968119
 20
152.0542136001417077
 30
0.0
 40
0.0541900070074988
 50
99.9711838223797145
 51
143.9555696210273084
  0
ARC
  5
28307
  8
0
 10
3156.8399487061060427
 20
152.0138933629366136
 30
0.0
 40
0.0951286235473024
 50
55.4953429302537131
 51
99.9711838223797145
  0
ARC
  5
28308
  8
0
 10
3156.8714108432341163
 20
152.0596630862885092
 30
0.0
 40
0.0395882450071387
 50
351.1985423256498962
 51
55.4953429302546226
  0
ARC
  5
28309
  8
0
 10
3156.8736541086259422
 20
152.0593157520185912
 30
0.0
 40
0.0373182492555917
 50
308.6784390679566741
 51
351.1985423256514878
  0
ARC
  5
2830A
  8
0
 10
3156.8526294395937839
 20
152.085579076710701
 30
0.0
 40
0.0709604687390558
 50
262.4213458959823129
 51
308.6784390679566741
  0
ARC
  5
2830B
  8
0
 10
3156.8555679897522168
 20
152.107665249075211
 30
0.0
 40
0.0932412695941094
 50
230.6420082552656083
 51
262.4213458959823129
  0
ARC
  5
2830C
  8
0
 10
3156.8194296461688282
 20
152.0636038847794964
 30
0.0
 40
0.0362554494236015
 50
193.2283059482992087
 51
230.6420082552656083
  0
LINE
  5
2830D
  8
0
 10
3156.7762095735261028
 20
152.1166498953039081
 30
0.0
 11
3156.7825512226409046
 21
152.0634853381230869
 31
0.0
  0
ARC
  5
2830E
  8
0
 10
3156.8142134060690296
 20
152.1022341578199075
 30
0.0
 40
0.0442075529010529
 50
204.7354115731641002
 51
222.2155920541057981
  0
ARC
  5
2830F
  8
0
 10
3156.8063083780962188
 20
152.098592330232492
 30
0.0
 40
0.0355039688448612
 50
172.1969684997540924
 51
204.7354115731641002
  0
ARC
  5
28310
  8
0
 10
3156.8019376898860173
 20
152.0991912756362012
 30
0.0
 40
0.0310924327147971
 50
145.839916628540692
 51
172.1969684997525007
  0
ARC
  5
28311
  8
0
 10
3156.8187238171049103
 20
152.0878005229390055
 30
0.0
 40
0.0513784701304842
 50
122.7834724129301947
 51
145.839916628540692
  0
ARC
  5
28312
  8
0
 10
3156.835853464046977
 20
152.0612036677781873
 30
0.0
 40
0.0830141700403471
 50
93.3822760047068385
 51
122.7834724129301947
  0
ARC
  5
28313
  8
0
 10
3156.838620878511847
 20
152.0143781149716915
 30
0.0
 40
0.1299214293767807
 50
74.584530156534143
 51
93.3822760047068385
  0
ARC
  5
28314
  8
0
 10
3156.8510520871441258
 20
152.0594617845951007
 30
0.0
 40
0.0831552854819973
 50
47.8608135702782675
 51
74.584530156534143
  0
ARC
  5
28315
  8
0
 10
3156.8688669001949165
 20
152.0791507417094977
 30
0.0
 40
0.0566030238783478
 50
17.5060978863048291
 51
47.8608135702782675
  0
ARC
  5
28316
  8
0
 10
3156.8925700760810287
 20
152.0866270979269075
 30
0.0
 40
0.0317487194343671
 50
307.4010939112325218
 51
17.5060978863048291
  0
LINE
  5
28317
  8
0
 10
3156.9107417192280991
 20
152.0551562762925073
 30
0.0
 11
3156.9118539627438622
 21
152.061405819195187
 31
0.0
  0
LINE
  5
28318
  8
0
 10
3156.9118539627438622
 20
152.061405819195187
 30
0.0
 11
3156.9192273399980877
 21
152.1049911831711086
 31
0.0
  0
ARC
  5
28319
  8
0
 10
3158.2702733825631185
 20
151.0438133139234083
 30
0.0
 40
0.0255798350541456
 50
88.0567815038938306
 51
160.7387491416643002
  0
ARC
  5
2831A
  8
0
 10
3158.2701380307280488
 20
151.0398239966131086
 30
0.0
 40
0.0295714478510929
 50
34.7480882462538574
 51
88.0567815038938306
  0
ARC
  5
2831B
  8
0
 10
3158.2778686064411886
 20
151.047688244639204
 30
0.0
 40
0.0188495359605226
 50
320.5747321033550747
 51
28.4873747456331294
  0
ARC
  5
2831C
  8
0
 10
3158.273863736939802
 20
151.0504775566398905
 30
0.0
 40
0.0237177099216007
 50
298.2420902445472279
 51
321.5139246967158897
  0
ARC
  5
2831D
  8
0
 10
3158.2711697429899687
 20
151.0554929837020097
 30
0.0
 40
0.0294108735427872
 50
263.7367437130546932
 51
298.2420902445472279
  0
ARC
  5
2831E
  8
0
 10
3158.2711056912639833
 20
151.0549093792988913
 30
0.0
 40
0.0288237647598669
 50
230.0880692151079074
 51
263.7367437130546932
  0
ARC
  5
2831F
  8
0
 10
3158.2651494395609006
 20
151.0477887957935934
 30
0.0
 40
0.0195404655730405
 50
166.7981625167311108
 51
230.0880692151079074
  0
ARC
  5
28320
  8
0
 10
3158.2555044417781573
 20
151.0526733164527116
 30
0.0
 40
0.0484572422601305
 50
141.3345973750122937
 51
189.4705109999214869
  0
ARC
  5
28321
  8
0
 10
3158.2679719484272027
 20
151.0426973145567899
 30
0.0
 40
0.064424688388718
 50
97.5345971341259883
 51
141.3345973750134874
  0
ARC
  5
28322
  8
0
 10
3158.2696166740979606
 20
151.0302624095367037
 30
0.0
 40
0.0769678931383846
 50
51.2444478857468582
 51
97.5345971341259883
  0
ARC
  5
28323
  8
0
 10
3158.2882400937119201
 20
151.0534621037132865
 30
0.0
 40
0.0472179760291364
 50
339.5802726858224787
 51
51.2444478857478884
  0
ARC
  5
28324
  8
0
 10
3158.2780826272210106
 20
151.0572436131315044
 30
0.0
 40
0.0580565155521089
 50
296.8319221186545178
 51
339.5802726858224787
  0
ARC
  5
28325
  8
0
 10
3158.2714178519258894
 20
151.0704193800175972
 30
0.0
 40
0.0728220180079248
 50
233.0758354701096096
 51
296.8319221186545178
  0
ARC
  5
28326
  8
0
 10
3158.2589065524721264
 20
151.0537705222943998
 30
0.0
 40
0.0519961428160376
 50
190.0462407751305136
 51
233.0758354701096096
  0
ARC
  5
28327
  8
0
 10
3158.2539178464789984
 20
151.0833082431038008
 30
0.0
 40
0.0602159939425495
 50
190.3529330467023044
 51
219.8783720275937981
  0
ARC
  5
28328
  8
0
 10
3158.2447188180531157
 20
151.0816277155796001
 30
0.0
 40
0.0508647214760567
 50
158.0334457821539047
 51
190.3529330467023044
  0
ARC
  5
28329
  8
0
 10
3158.2595404888252233
 20
151.0756494338185973
 30
0.0
 40
0.0668466418018999
 50
123.1389967347685968
 51
158.0334457821539047
  0
ARC
  5
2832A
  8
0
 10
3158.2705510883970419
 20
151.0587843106233947
 30
0.0
 40
0.0869877858438523
 50
79.6217305443158381
 51
123.1389967347685968
  0
ARC
  5
2832B
  8
0
 10
3158.2702706846389447
 20
151.0572532404266042
 30
0.0
 40
0.0885443211680643
 50
45.3137536921034823
 51
79.6217305443158381
  0
ARC
  5
2832C
  8
0
 10
3158.2957929090539437
 20
151.0830565279491964
 30
0.0
 40
0.0522511594695935
 50
7.1835713859401631
 51
45.3137536921034823
  0
ARC
  5
2832D
  8
0
 10
3158.2888095925791276
 20
151.0821763641515929
 30
0.0
 40
0.059289724472353
 50
320.5669248704683127
 51
7.1835713859401631
  0
LINE
  5
2832E
  8
0
 10
3158.20726403071194
 20
151.0480943353838938
 30
0.0
 11
3158.1973478134668767
 21
151.1001535843959971
 31
0.0
  0
ARC
  5
2832F
  8
0
 10
3158.2923760152211798
 20
151.125421237951798
 30
0.0
 40
0.1063819563673368
 50
202.323443154514905
 51
213.5796342964862902
  0
LINE
  5
28330
  8
0
 10
3158.3351805375918957
 20
151.0483501580310985
 30
0.0
 11
3158.3449235570537894
 21
151.1008431266405125
 31
0.0
  0
ARC
  5
28331
  8
0
 10
3158.2846464617350648
 20
151.1087421220344993
 30
0.0
 40
0.0679849417791287
 50
322.7300972605555103
 51
338.8767615658400132
  0
ARC
  5
28332
  8
0
 10
3157.8024605476812212
 20
151.1659180547823951
 30
0.0
 40
0.0255798350541456
 50
88.0567815038938306
 51
160.7387491416643002
  0
ARC
  5
28333
  8
0
 10
3157.8023251958461515
 20
151.1619287374722091
 30
0.0
 40
0.0295714478510929
 50
34.7480882462538574
 51
88.0567815038938306
  0
ARC
  5
28334
  8
0
 10
3157.8100557715588366
 20
151.1697929854983045
 30
0.0
 40
0.0188495359605226
 50
320.5747321033550747
 51
28.4873747456331294
  0
ARC
  5
28335
  8
0
 10
3157.8060509020579048
 20
151.172582297498991
 30
0.0
 40
0.0237177099216007
 50
298.2420902445472279
 51
321.5139246967158897
  0
ARC
  5
28336
  8
0
 10
3157.8033569081080714
 20
151.1775977245611102
 30
0.0
 40
0.0294108735427872
 50
263.7367437130546932
 51
298.2420902445472279
  0
ARC
  5
28337
  8
0
 10
3157.803292856382086
 20
151.1770141201579065
 30
0.0
 40
0.0288237647598669
 50
230.0880692151079074
 51
263.7367437130546932
  0
ARC
  5
28338
  8
0
 10
3157.7973366046799129
 20
151.1698935366526939
 30
0.0
 40
0.0195404655730405
 50
166.7981625167311108
 51
230.0880692151079074
  0
ARC
  5
28339
  8
0
 10
3157.7876916068958053
 20
151.1747780573118121
 30
0.0
 40
0.0484572422601305
 50
141.3345973750122937
 51
189.4705109999198953
  0
ARC
  5
2833A
  8
0
 10
3157.8001591135448507
 20
151.1648020554158904
 30
0.0
 40
0.064424688388718
 50
97.5345971341259883
 51
141.3345973750134874
  0
ARC
  5
2833B
  8
0
 10
3157.8018038392169728
 20
151.1523671503956905
 30
0.0
 40
0.0769678931383846
 50
51.2444478857468582
 51
97.5345971341259883
  0
ARC
  5
2833C
  8
0
 10
3157.8204272588300228
 20
151.1755668445723018
 30
0.0
 40
0.0472179760291364
 50
339.5802726858224787
 51
51.2444478857478884
  0
ARC
  5
2833D
  8
0
 10
3157.8102697923391133
 20
151.1793483539904912
 30
0.0
 40
0.0580565155521089
 50
296.8319221186545178
 51
339.5802726858224787
  0
ARC
  5
2833E
  8
0
 10
3157.8036050170439921
 20
151.1925241208766124
 30
0.0
 40
0.0728220180079248
 50
233.0758354701096096
 51
296.8319221186545178
  0
ARC
  5
2833F
  8
0
 10
3157.7910937175911386
 20
151.1758752631533866
 30
0.0
 40
0.0519961428160376
 50
190.0462407751305136
 51
233.0758354701096096
  0
ARC
  5
28340
  8
0
 10
3157.7861050115971011
 20
151.2054129839629013
 30
0.0
 40
0.0602159939425495
 50
190.3529330467023044
 51
219.8783720275937981
  0
ARC
  5
28341
  8
0
 10
3157.7769059831712184
 20
151.203732456438587
 30
0.0
 40
0.0508647214760567
 50
158.0334457821539047
 51
190.3529330467023044
  0
ARC
  5
28342
  8
0
 10
3157.7917276539437808
 20
151.1977541746776126
 30
0.0
 40
0.0668466418018999
 50
123.1389967347685968
 51
158.0334457821539047
  0
ARC
  5
28343
  8
0
 10
3157.8027382535151446
 20
151.1808890514824952
 30
0.0
 40
0.0869877858438523
 50
79.6217305443158381
 51
123.1389967347685968
  0
ARC
  5
28344
  8
0
 10
3157.8024578497570474
 20
151.179357981285591
 30
0.0
 40
0.0885443211680643
 50
45.3137536921034823
 51
79.6217305443158381
  0
ARC
  5
28345
  8
0
 10
3157.8279800741720464
 20
151.2051612688082116
 30
0.0
 40
0.0522511594695935
 50
7.1835713859401631
 51
45.3137536921034823
  0
ARC
  5
28346
  8
0
 10
3157.8209967576981398
 20
151.2042811050106934
 30
0.0
 40
0.059289724472353
 50
320.5669248704683127
 51
7.1835713859401631
  0
LINE
  5
28347
  8
0
 10
3157.7394511958300427
 20
151.1701990762429091
 30
0.0
 11
3157.7295349785849794
 21
151.2222583252550123
 31
0.0
  0
ARC
  5
28348
  8
0
 10
3157.8245631803388278
 20
151.2475259788108986
 30
0.0
 40
0.1063819563673368
 50
202.323443154514905
 51
213.5796342964862902
  0
LINE
  5
28349
  8
0
 10
3157.8673677027099984
 20
151.170454898890199
 30
0.0
 11
3157.8771107221718921
 21
151.2229478674994994
 31
0.0
  0
ARC
  5
2834A
  8
0
 10
3157.8168336268531675
 20
151.2308468628934861
 30
0.0
 40
0.0679849417791287
 50
322.7300972605555103
 51
338.8767615658400132
  0
ARC
  5
2834B
  8
0
 10
3157.8352986219329068
 20
151.4684073600500938
 30
0.0
 40
0.0255798350541456
 50
88.0567815038938306
 51
160.7387491416643002
  0
ARC
  5
2834C
  8
0
 10
3157.8351632700978371
 20
151.4644180427399078
 30
0.0
 40
0.0295714478510929
 50
34.7480882462538574
 51
88.0567815038938306
  0
ARC
  5
2834D
  8
0
 10
3157.8428938458109769
 20
151.4722822907658895
 30
0.0
 40
0.0188495359605226
 50
320.5747321033550747
 51
28.4873747456331294
  0
ARC
  5
2834E
  8
0
 10
3157.8388889763100451
 20
151.4750716027666897
 30
0.0
 40
0.0237177099216007
 50
298.2420902445472279
 51
321.5139246967158897
  0
ARC
  5
2834F
  8
0
 10
3157.8361949823602117
 20
151.4800870298288089
 30
0.0
 40
0.0294108735427872
 50
263.7367437130546932
 51
298.2420902445472279
  0
ARC
  5
28350
  8
0
 10
3157.8361309306328621
 20
151.4795034254256905
 30
0.0
 40
0.0288237647598669
 50
230.0880692151079074
 51
263.7367437130546932
  0
ARC
  5
28351
  8
0
 10
3157.8301746789311437
 20
151.4723828419203926
 30
0.0
 40
0.0195404655730405
 50
166.7981625167311108
 51
230.0880692151079074
  0
ARC
  5
28352
  8
0
 10
3157.8205296811479457
 20
151.4772673625795107
 30
0.0
 40
0.0484572422601305
 50
141.3345973750122937
 51
189.4705109999198953
  0
ARC
  5
28353
  8
0
 10
3157.8329971877969911
 20
151.4672913606835891
 30
0.0
 40
0.064424688388718
 50
97.5345971341259883
 51
141.3345973750134874
  0
ARC
  5
28354
  8
0
 10
3157.8346419134682037
 20
151.4548564556635029
 30
0.0
 40
0.0769678931383846
 50
51.2444478857468582
 51
97.5345971341259883
  0
ARC
  5
28355
  8
0
 10
3157.8532653330821631
 20
151.4780561498400004
 30
0.0
 40
0.0472179760291364
 50
339.5802726858224787
 51
51.2444478857478884
  0
ARC
  5
28356
  8
0
 10
3157.8431078665907989
 20
151.4818376592581899
 30
0.0
 40
0.0580565155521089
 50
296.8319221186545178
 51
339.5802726858224787
  0
ARC
  5
28357
  8
0
 10
3157.8364430912961325
 20
151.4950134261443111
 30
0.0
 40
0.0728220180079248
 50
233.0758354701096096
 51
296.8319221186545178
  0
ARC
  5
28358
  8
0
 10
3157.8239317918419147
 20
151.4783645684211137
 30
0.0
 40
0.0519961428160376
 50
190.0462407751305136
 51
233.0758354701096096
  0
ARC
  5
28359
  8
0
 10
3157.8189430858478772
 20
151.5079022892306
 30
0.0
 40
0.0602159939425495
 50
190.3529330467023044
 51
219.8783720275937981
  0
ARC
  5
2835A
  8
0
 10
3157.809744057422904
 20
151.5062217617063993
 30
0.0
 40
0.0508647214760567
 50
158.0334457821539047
 51
190.3529330467023044
  0
ARC
  5
2835B
  8
0
 10
3157.8245657281950116
 20
151.5002434799453965
 30
0.0
 40
0.0668466418018999
 50
123.1389967347685968
 51
158.0334457821539047
  0
ARC
  5
2835C
  8
0
 10
3157.8355763277668302
 20
151.4833783567501939
 30
0.0
 40
0.0869877858438523
 50
79.6217305443158381
 51
123.1389967347685968
  0
ARC
  5
2835D
  8
0
 10
3157.8352959240078235
 20
151.4818472865532897
 30
0.0
 40
0.0885443211680643
 50
45.3137536921034823
 51
79.6217305443158381
  0
ARC
  5
2835E
  8
0
 10
3157.8608181484241868
 20
151.5076505740759956
 30
0.0
 40
0.0522511594695935
 50
7.1835713859401631
 51
45.3137536921034823
  0
ARC
  5
2835F
  8
0
 10
3157.853834831948916
 20
151.5067704102783921
 30
0.0
 40
0.059289724472353
 50
320.5669248704683127
 51
7.1835713859401631
  0
LINE
  5
28360
  8
0
 10
3157.7722892700821831
 20
151.472688381510693
 30
0.0
 11
3157.7623730528371198
 21
151.524747630522711
 31
0.0
  0
ARC
  5
28361
  8
0
 10
3157.8574012545909682
 20
151.5500152840785972
 30
0.0
 40
0.1063819563673368
 50
202.323443154514905
 51
213.5796342964862902
  0
LINE
  5
28362
  8
0
 10
3157.9002057769607745
 20
151.4729442041578977
 30
0.0
 11
3157.9099487964240325
 21
151.525437172767198
 31
0.0
  0
ARC
  5
28363
  8
0
 10
3157.8496717011048531
 20
151.5333361681612132
 30
0.0
 40
0.0679849417791287
 50
322.7300972605555103
 51
338.8767615658400132
  0
ARC
  5
28364
  8
0
 10
3158.1079772497741942
 20
151.3119376244227965
 30
0.0
 40
0.0255798350541456
 50
88.0567815038938306
 51
160.7387491416643002
  0
ARC
  5
28365
  8
0
 10
3158.1078418979391245
 20
151.3079483071126106
 30
0.0
 40
0.0295714478510929
 50
34.7480882462538574
 51
88.0567815038938306
  0
ARC
  5
28366
  8
0
 10
3158.1155724736518096
 20
151.3158125551385922
 30
0.0
 40
0.0188495359605226
 50
320.5747321033550747
 51
28.4873747456331294
  0
ARC
  5
28367
  8
0
 10
3158.1115676041508777
 20
151.3186018671393924
 30
0.0
 40
0.0237177099216007
 50
298.2420902445472279
 51
321.5139246967158897
  0
ARC
  5
28368
  8
0
 10
3158.1088736102010444
 20
151.3236172942015116
 30
0.0
 40
0.0294108735427872
 50
263.7367437130546932
 51
298.2420902445472279
  0
ARC
  5
28369
  8
0
 10
3158.1088095584741495
 20
151.3230336897983079
 30
0.0
 40
0.0288237647598669
 50
230.0880692151079074
 51
263.7367437130546932
  0
ARC
  5
2836A
  8
0
 10
3158.1028533067728858
 20
151.3159131062930101
 30
0.0
 40
0.0195404655730405
 50
166.7981625167311108
 51
230.0880692151079074
  0
ARC
  5
2836B
  8
0
 10
3158.0932083089901425
 20
151.3207976269522135
 30
0.0
 40
0.0484572422601305
 50
141.3345973750122937
 51
189.4705109999198953
  0
ARC
  5
2836C
  8
0
 10
3158.1056758156378237
 20
151.3108216250562919
 30
0.0
 40
0.064424688388718
 50
97.5345971341259883
 51
141.3345973750134874
  0
ARC
  5
2836D
  8
0
 10
3158.1073205413090363
 20
151.2983867200360919
 30
0.0
 40
0.0769678931383846
 50
51.2444478857468582
 51
97.5345971341259883
  0
ARC
  5
2836E
  8
0
 10
3158.1259439609229958
 20
151.3215864142127032
 30
0.0
 40
0.0472179760291364
 50
339.5802726858224787
 51
51.2444478857478884
  0
ARC
  5
2836F
  8
0
 10
3158.1157864944320863
 20
151.3253679236308926
 30
0.0
 40
0.0580565155521089
 50
296.8319221186545178
 51
339.5802726858224787
  0
ARC
  5
28370
  8
0
 10
3158.1091217191369651
 20
151.3385436905170138
 30
0.0
 40
0.0728220180079248
 50
233.0758354701096096
 51
296.8319221186545178
  0
ARC
  5
28371
  8
0
 10
3158.0966104196832021
 20
151.3218948327937881
 30
0.0
 40
0.0519961428160376
 50
190.0462407751305136
 51
233.0758354701096096
  0
ARC
  5
28372
  8
0
 10
3158.0916217136900741
 20
151.3514325536033027
 30
0.0
 40
0.0602159939425495
 50
190.3529330467023044
 51
219.8783720275937981
  0
ARC
  5
28373
  8
0
 10
3158.0824226852628271
 20
151.3497520260789884
 30
0.0
 40
0.0508647214760567
 50
158.0334457821539047
 51
190.3529330467023044
  0
ARC
  5
28374
  8
0
 10
3158.0972443560358442
 20
151.343773744318014
 30
0.0
 40
0.0668466418018999
 50
123.1389967347685968
 51
158.0334457821539047
  0
ARC
  5
28375
  8
0
 10
3158.1082549556081176
 20
151.3269086211228966
 30
0.0
 40
0.0869877858438523
 50
79.6217305443158381
 51
123.1389967347685968
  0
ARC
  5
28376
  8
0
 10
3158.1079745518500204
 20
151.3253775509259924
 30
0.0
 40
0.0885443211680643
 50
45.3137536921034823
 51
79.6217305443158381
  0
ARC
  5
28377
  8
0
 10
3158.1334967762650194
 20
151.351180838448613
 30
0.0
 40
0.0522511594695935
 50
7.1835713859401631
 51
45.3137536921034823
  0
ARC
  5
28378
  8
0
 10
3158.1265134597902033
 20
151.3503006746510948
 30
0.0
 40
0.059289724472353
 50
320.5669248704683127
 51
7.1835713859401631
  0
LINE
  5
28379
  8
0
 10
3158.0449678979230157
 20
151.3162186458833105
 30
0.0
 11
3158.0350516806779524
 21
151.3682778948954137
 31
0.0
  0
ARC
  5
2837A
  8
0
 10
3158.1300798824318008
 20
151.3935455484513
 30
0.0
 40
0.1063819563673368
 50
202.323443154514905
 51
213.5796342964862902
  0
LINE
  5
2837B
  8
0
 10
3158.1728844048029714
 20
151.3164744685306005
 30
0.0
 11
3158.1826274242648651
 21
151.3689674371399008
 31
0.0
  0
ARC
  5
2837C
  8
0
 10
3158.1223503289461405
 20
151.3768664325338875
 30
0.0
 40
0.0679849417791287
 50
322.7300972605555103
 51
338.8767615658400132
  0
ARC
  5
2837D
  8
0
 10
3157.6968547100068463
 20
151.7309989024062133
 30
0.0
 40
0.0255798350541456
 50
88.0567815038938306
 51
160.7387491416643002
  0
ARC
  5
2837E
  8
0
 10
3157.6967193581731408
 20
151.727009585095999
 30
0.0
 40
0.0295714478510929
 50
34.7480882462538574
 51
88.0567815038938306
  0
ARC
  5
2837F
  8
0
 10
3157.7044499338849164
 20
151.7348738331220943
 30
0.0
 40
0.0188495359605226
 50
320.5747321033550747
 51
28.4873747456331294
  0
ARC
  5
28380
  8
0
 10
3157.7004450643839846
 20
151.7376631451228093
 30
0.0
 40
0.0237177099216007
 50
298.2420902445472279
 51
321.5139246967158897
  0
ARC
  5
28381
  8
0
 10
3157.6977510704341512
 20
151.7426785721849001
 30
0.0
 40
0.0294108735427872
 50
263.7367437130546932
 51
298.2420902445472279
  0
ARC
  5
28382
  8
0
 10
3157.6976870187068016
 20
151.7420949677818101
 30
0.0
 40
0.0288237647598669
 50
230.0880692151079074
 51
263.7367437130546932
  0
ARC
  5
28383
  8
0
 10
3157.6917307670059927
 20
151.7349743842763985
 30
0.0
 40
0.0195404655730405
 50
166.7981625167311108
 51
230.0880692151079074
  0
ARC
  5
28384
  8
0
 10
3157.6820857692218851
 20
151.7398589049356019
 30
0.0
 40
0.0484572422601305
 50
141.3345973750122937
 51
189.4705109999198953
  0
ARC
  5
28385
  8
0
 10
3157.6945532758709305
 20
151.7298829030397087
 30
0.0
 40
0.064424688388718
 50
97.5345971341259883
 51
141.3345973750134874
  0
ARC
  5
28386
  8
0
 10
3157.6961980015421432
 20
151.717447998019594
 30
0.0
 40
0.0769678931383846
 50
51.2444478857468582
 51
97.5345971341259883
  0
ARC
  5
28387
  8
0
 10
3157.7148214211561026
 20
151.7406476921960916
 30
0.0
 40
0.0472179760291364
 50
339.5802726858224787
 51
51.2444478857478884
  0
ARC
  5
28388
  8
0
 10
3157.7046639546651932
 20
151.7444292016143095
 30
0.0
 40
0.0580565155521089
 50
296.8319221186545178
 51
339.5802726858224787
  0
ARC
  5
28389
  8
0
 10
3157.6979991793700719
 20
151.7576049685004023
 30
0.0
 40
0.0728220180079248
 50
233.0758354701096096
 51
296.8319221186545178
  0
ARC
  5
2838A
  8
0
 10
3157.6854878799172184
 20
151.7409561107772049
 30
0.0
 40
0.0519961428160376
 50
190.0462407751305136
 51
233.0758354701096096
  0
ARC
  5
2838B
  8
0
 10
3157.6804991739231809
 20
151.7704938315866912
 30
0.0
 40
0.0602159939425495
 50
190.3529330467023044
 51
219.8783720275937981
  0
ARC
  5
2838C
  8
0
 10
3157.6713001454968435
 20
151.7688133040624052
 30
0.0
 40
0.0508647214760567
 50
158.0334457821539047
 51
190.3529330467023044
  0
ARC
  5
2838D
  8
0
 10
3157.6861218162689511
 20
151.7628350223014024
 30
0.0
 40
0.0668466418018999
 50
123.1389967347685968
 51
158.0334457821539047
  0
ARC
  5
2838E
  8
0
 10
3157.6971324158412244
 20
151.7459698991063135
 30
0.0
 40
0.0869877858438523
 50
79.6217305443158381
 51
123.1389967347685968
  0
ARC
  5
2838F
  8
0
 10
3157.6968520120831272
 20
151.7444388289094093
 30
0.0
 40
0.0885443211680643
 50
45.3137536921034823
 51
79.6217305443158381
  0
ARC
  5
28390
  8
0
 10
3157.7223742364981263
 20
151.7702421164320015
 30
0.0
 40
0.0522511594695935
 50
7.1835713859401631
 51
45.3137536921034823
  0
ARC
  5
28391
  8
0
 10
3157.7153909200228554
 20
151.7693619526345117
 30
0.0
 40
0.059289724472353
 50
320.5669248704683127
 51
7.1835713859401631
  0
LINE
  5
28392
  8
0
 10
3157.6338453581561225
 20
151.7352799238668126
 30
0.0
 11
3157.6239291409110592
 21
151.7873391728788022
 31
0.0
  0
ARC
  5
28393
  8
0
 10
3157.7189573426658171
 20
151.8126068264346884
 30
0.0
 40
0.1063819563673368
 50
202.323443154514905
 51
213.5796342964862902
  0
LINE
  5
28394
  8
0
 10
3157.7617618650360782
 20
151.7355357465139889
 30
0.0
 11
3157.7715048844979719
 21
151.7880287151232892
 31
0.0
  0
ARC
  5
28395
  8
0
 10
3157.7112277891787926
 20
151.7959277105173044
 30
0.0
 40
0.0679849417791287
 50
322.7300972605555103
 51
338.8767615658400132
  0
ARC
  5
28396
  8
0
 10
3157.4793817666050018
 20
151.4933873273326981
 30
0.0
 40
0.0255798350541456
 50
88.0567815038938306
 51
160.7387491416643002
  0
ARC
  5
28397
  8
0
 10
3157.479246414769932
 20
151.4893980100223985
 30
0.0
 40
0.0295714478510929
 50
34.7480882462538574
 51
88.0567815038938306
  0
ARC
  5
28398
  8
0
 10
3157.4869769904839814
 20
151.4972622580484938
 30
0.0
 40
0.0188495359605226
 50
320.5747321033550747
 51
28.4873747456331294
  0
ARC
  5
28399
  8
0
 10
3157.48297212098214
 20
151.5000515700492087
 30
0.0
 40
0.0237177099216007
 50
298.2420902445472279
 51
321.5139246967158897
  0
ARC
  5
2839A
  8
0
 10
3157.4802781270318519
 20
151.5050669971112995
 30
0.0
 40
0.0294108735427872
 50
263.7367437130546932
 51
298.2420902445472279
  0
ARC
  5
2839B
  8
0
 10
3157.4802140753049571
 20
151.5044833927082095
 30
0.0
 40
0.0288237647598669
 50
230.0880692151079074
 51
263.7367437130546932
  0
ARC
  5
2839C
  8
0
 10
3157.4742578236041481
 20
151.4973628092029116
 30
0.0
 40
0.0195404655730405
 50
166.7981625167311108
 51
230.0880692151079074
  0
ARC
  5
2839D
  8
0
 10
3157.4646128258200406
 20
151.5022473298620866
 30
0.0
 40
0.0484572422601305
 50
141.3345973750122937
 51
189.4705109999198953
  0
ARC
  5
2839E
  8
0
 10
3157.4770803324699955
 20
151.4922713279661082
 30
0.0
 40
0.064424688388718
 50
97.5345971341259883
 51
141.3345973750134874
  0
ARC
  5
2839F
  8
0
 10
3157.4787250581398439
 20
151.4798364229459935
 30
0.0
 40
0.0769678931383846
 50
51.2444478857468582
 51
97.5345971341259883
  0
ARC
  5
283A0
  8
0
 10
3157.4973484777538033
 20
151.5030361171226048
 30
0.0
 40
0.0472179760291364
 50
339.5802726858224787
 51
51.2444478857478884
  0
ARC
  5
283A1
  8
0
 10
3157.4871910112628939
 20
151.5068176265407089
 30
0.0
 40
0.0580565155521089
 50
296.8319221186545178
 51
339.5802726858224787
  0
ARC
  5
283A2
  8
0
 10
3157.4805262359677727
 20
151.519993393426887
 30
0.0
 40
0.0728220180079248
 50
233.0758354701096096
 51
296.8319221186545178
  0
ARC
  5
283A3
  8
0
 10
3157.4680149365149191
 20
151.5033445357036896
 30
0.0
 40
0.0519961428160376
 50
190.0462407751305136
 51
233.0758354701096096
  0
ARC
  5
283A4
  8
0
 10
3157.4630262305208817
 20
151.5328822565130906
 30
0.0
 40
0.0602159939425495
 50
190.3529330467023044
 51
219.8783720275937981
  0
ARC
  5
283A5
  8
0
 10
3157.4538272020949989
 20
151.53120172898889
 30
0.0
 40
0.0508647214760567
 50
158.0334457821539047
 51
190.3529330467023044
  0
ARC
  5
283A6
  8
0
 10
3157.468648872868016
 20
151.5252234472278872
 30
0.0
 40
0.0668466418018999
 50
123.1389967347685968
 51
158.0334457821539047
  0
ARC
  5
283A7
  8
0
 10
3157.4796594724389251
 20
151.5083583240327982
 30
0.0
 40
0.0869877858438523
 50
79.6217305443158381
 51
123.1389967347685968
  0
ARC
  5
283A8
  8
0
 10
3157.4793790686808279
 20
151.5068272538358087
 30
0.0
 40
0.0885443211680643
 50
45.3137536921034823
 51
79.6217305443158381
  0
ARC
  5
283A9
  8
0
 10
3157.504901293095827
 20
151.5326305413584862
 30
0.0
 40
0.0522511594695935
 50
7.1835713859401631
 51
45.3137536921034823
  0
ARC
  5
283AA
  8
0
 10
3157.4979179766210109
 20
151.5317503775609111
 30
0.0
 40
0.059289724472353
 50
320.5669248704683127
 51
7.1835713859401631
  0
LINE
  5
283AB
  8
0
 10
3157.4163724147538233
 20
151.4976683487932121
 30
0.0
 11
3157.4064561975092147
 21
151.5497275978052869
 31
0.0
  0
ARC
  5
283AC
  8
0
 10
3157.5014843992639726
 20
151.5749952513610879
 30
0.0
 40
0.1063819563673368
 50
202.323443154514905
 51
213.5796342964862902
  0
LINE
  5
283AD
  8
0
 10
3157.544288921633779
 20
151.4979241714403884
 30
0.0
 11
3157.5540319410961274
 21
151.5504171400498024
 31
0.0
  0
ARC
  5
283AE
  8
0
 10
3157.4937548457769481
 20
151.5583161354437891
 30
0.0
 40
0.0679849417791287
 50
322.7300972605555103
 51
338.8767615658400132
  0
ARC
  5
283AF
  8
0
 10
3157.7453693200559428
 20
152.0176314846918899
 30
0.0
 40
0.0255798350541456
 50
88.0567815038938306
 51
160.7387491416643002
  0
ARC
  5
283B0
  8
0
 10
3157.7452339682208731
 20
152.0136421673815903
 30
0.0
 40
0.0295714478510929
 50
34.7480882462538574
 51
88.0567815038938306
  0
ARC
  5
283B1
  8
0
 10
3157.7529645439340129
 20
152.021506415407714
 30
0.0
 40
0.0188495359605226
 50
320.5747321033550747
 51
28.4873747456331294
  0
ARC
  5
283B2
  8
0
 10
3157.7489596744330811
 20
152.0242957274084006
 30
0.0
 40
0.0237177099216007
 50
298.2420902445472279
 51
321.5139246967158897
  0
ARC
  5
283B3
  8
0
 10
3157.746265680482793
 20
152.0293111544704914
 30
0.0
 40
0.0294108735427872
 50
263.7367437130546932
 51
298.2420902445472279
  0
ARC
  5
283B4
  8
0
 10
3157.7462016287568076
 20
152.0287275500674014
 30
0.0
 40
0.0288237647598669
 50
230.0880692151079074
 51
263.7367437130546932
  0
ARC
  5
283B5
  8
0
 10
3157.7402453770550892
 20
152.0216069665621035
 30
0.0
 40
0.0195404655730405
 50
166.7981625167311108
 51
230.0880692151079074
  0
ARC
  5
283B6
  8
0
 10
3157.7306003792709816
 20
152.0264914872211932
 30
0.0
 40
0.0484572422601305
 50
141.3345973750122937
 51
189.4705109999198953
  0
ARC
  5
283B7
  8
0
 10
3157.743067885920027
 20
152.0165154853253
 30
0.0
 40
0.064424688388718
 50
97.5345971341259883
 51
141.3345973750134874
  0
ARC
  5
283B8
  8
0
 10
3157.7447126115907849
 20
152.0040805803052137
 30
0.0
 40
0.0769678931383846
 50
51.2444478857468582
 51
97.5345971341259883
  0
ARC
  5
283B9
  8
0
 10
3157.7633360312051991
 20
152.0272802744817966
 30
0.0
 40
0.0472179760291364
 50
339.5802726858224787
 51
51.2444478857478884
  0
ARC
  5
283BA
  8
0
 10
3157.7531785647151992
 20
152.0310617838999008
 30
0.0
 40
0.0580565155521089
 50
296.8319221186545178
 51
339.5802726858224787
  0
ARC
  5
283BB
  8
0
 10
3157.7465137894191685
 20
152.0442375507861072
 30
0.0
 40
0.0728220180079248
 50
233.0758354701096096
 51
296.8319221186545178
  0
ARC
  5
283BC
  8
0
 10
3157.7340024899658601
 20
152.0275886930629099
 30
0.0
 40
0.0519961428160376
 50
190.0462407751305136
 51
233.0758354701096096
  0
ARC
  5
283BD
  8
0
 10
3157.7290137839709132
 20
152.0571264138723109
 30
0.0
 40
0.0602159939425495
 50
190.3529330467023044
 51
219.8783720275937981
  0
ARC
  5
283BE
  8
0
 10
3157.71981475554594
 20
152.0554458863481102
 30
0.0
 40
0.0508647214760567
 50
158.0334457821539047
 51
190.3529330467023044
  0
ARC
  5
283BF
  8
0
 10
3157.7346364263180476
 20
152.0494676045871074
 30
0.0
 40
0.0668466418018999
 50
123.1389967347685968
 51
158.0334457821539047
  0
ARC
  5
283C0
  8
0
 10
3157.7456470258898662
 20
152.0326024813919901
 30
0.0
 40
0.0869877858438523
 50
79.6217305443158381
 51
123.1389967347685968
  0
ARC
  5
283C1
  8
0
 10
3157.7453666221322237
 20
152.0310714111950006
 30
0.0
 40
0.0885443211680643
 50
45.3137536921034823
 51
79.6217305443158381
  0
ARC
  5
283C2
  8
0
 10
3157.7708888465472228
 20
152.0568746987177065
 30
0.0
 40
0.0522511594695935
 50
7.1835713859401631
 51
45.3137536921034823
  0
ARC
  5
283C3
  8
0
 10
3157.7639055300719519
 20
152.055994534920103
 30
0.0
 40
0.059289724472353
 50
320.5669248704683127
 51
7.1835713859401631
  0
LINE
  5
283C4
  8
0
 10
3157.6823599682061285
 20
152.0219125061524039
 30
0.0
 11
3157.6724437509601557
 21
152.0739717551645072
 31
0.0
  0
ARC
  5
283C5
  8
0
 10
3157.7674719527149136
 20
152.0992394087203081
 30
0.0
 40
0.1063819563673368
 50
202.323443154514905
 51
213.5796342964862902
  0
LINE
  5
283C6
  8
0
 10
3157.8102764750851748
 20
152.0221683287996086
 30
0.0
 11
3157.8200194945470685
 21
152.0746612974089089
 31
0.0
  0
ARC
  5
283C7
  8
0
 10
3157.7597423992287986
 20
152.0825602928030094
 30
0.0
 40
0.0679849417791287
 50
322.7300972605555103
 51
338.8767615658400132
  0
ARC
  5
283C8
  8
0
 10
3157.9601076613362238
 20
152.236742078145312
 30
0.0
 40
0.0255798350541456
 50
88.0567815038938306
 51
160.7387491416643002
  0
ARC
  5
283C9
  8
0
 10
3157.9599723095011541
 20
152.2327527608350977
 30
0.0
 40
0.0295714478510929
 50
34.7480882462538574
 51
88.0567815038938306
  0
ARC
  5
283CA
  8
0
 10
3157.9677028852138392
 20
152.2406170088611077
 30
0.0
 40
0.0188495359605226
 50
320.5747321033550747
 51
28.4873747456331294
  0
ARC
  5
283CB
  8
0
 10
3157.9636980157129074
 20
152.2434063208619079
 30
0.0
 40
0.0237177099216007
 50
298.2420902445472279
 51
321.5139246967158897
  0
ARC
  5
283CC
  8
0
 10
3157.961004021763074
 20
152.2484217479239135
 30
0.0
 40
0.0294108735427872
 50
263.7367437130546932
 51
298.2420902445472279
  0
ARC
  5
283CD
  8
0
 10
3157.9609399700370886
 20
152.247838143520795
 30
0.0
 40
0.0288237647598669
 50
230.0880692151079074
 51
263.7367437130546932
  0
ARC
  5
283CE
  8
0
 10
3157.9549837183349155
 20
152.2407175600154972
 30
0.0
 40
0.0195404655730405
 50
166.7981625167311108
 51
230.0880692151079074
  0
ARC
  5
283CF
  8
0
 10
3157.9453387205508079
 20
152.2456020806747006
 30
0.0
 40
0.0484572422601305
 50
141.3345973750122937
 51
189.4705109999198953
  0
ARC
  5
283D0
  8
0
 10
3157.9578062271998533
 20
152.2356260787788074
 30
0.0
 40
0.064424688388718
 50
97.5345971341259883
 51
141.3345973750134874
  0
ARC
  5
283D1
  8
0
 10
3157.959450952871066
 20
152.2231911737586074
 30
0.0
 40
0.0769678931383846
 50
51.2444478857468582
 51
97.5345971341259883
  0
ARC
  5
283D2
  8
0
 10
3157.9780743724850254
 20
152.2463908679351903
 30
0.0
 40
0.0472179760291364
 50
339.5802726858224787
 51
51.2444478857478884
  0
ARC
  5
283D3
  8
0
 10
3157.967916905994116
 20
152.2501723773534081
 30
0.0
 40
0.0580565155521089
 50
296.8319221186545178
 51
339.5802726858224787
  0
ARC
  5
283D4
  8
0
 10
3157.9612521306989947
 20
152.2633481442395009
 30
0.0
 40
0.0728220180079248
 50
233.0758354701096096
 51
296.8319221186545178
  0
ARC
  5
283D5
  8
0
 10
3157.9487408312447769
 20
152.2466992865163036
 30
0.0
 40
0.0519961428160376
 50
190.0462407751305136
 51
233.0758354701096096
  0
ARC
  5
283D6
  8
0
 10
3157.9437521252511942
 20
152.2762370073257898
 30
0.0
 40
0.0602159939425495
 50
190.3529330467023044
 51
219.8783720275937981
  0
ARC
  5
283D7
  8
0
 10
3157.934553096826221
 20
152.2745564798015039
 30
0.0
 40
0.0508647214760567
 50
158.0334457821539047
 51
190.3529330467023044
  0
ARC
  5
283D8
  8
0
 10
3157.9493747675978739
 20
152.2685781980405011
 30
0.0
 40
0.0668466418018999
 50
123.1389967347685968
 51
158.0334457821539047
  0
ARC
  5
283D9
  8
0
 10
3157.9603853671701472
 20
152.2517130748454122
 30
0.0
 40
0.0869877858438523
 50
79.6217305443158381
 51
123.1389967347685968
  0
ARC
  5
283DA
  8
0
 10
3157.96010496341205
 20
152.2501820046485079
 30
0.0
 40
0.0885443211680643
 50
45.3137536921034823
 51
79.6217305443158381
  0
ARC
  5
283DB
  8
0
 10
3157.9856271878270491
 20
152.2759852921711001
 30
0.0
 40
0.0522511594695935
 50
7.1835713859401631
 51
45.3137536921034823
  0
ARC
  5
283DC
  8
0
 10
3157.9786438713517782
 20
152.2751051283736103
 30
0.0
 40
0.059289724472353
 50
320.5669248704683127
 51
7.1835713859401631
  0
LINE
  5
283DD
  8
0
 10
3157.8970983094850453
 20
152.2410230996057976
 30
0.0
 11
3157.887182092239982
 21
152.2930823486179008
 31
0.0
  0
ARC
  5
283DE
  8
0
 10
3157.9822102939938304
 20
152.3183500021737871
 30
0.0
 40
0.1063819563673368
 50
202.323443154514905
 51
213.5796342964862902
  0
LINE
  5
283DF
  8
0
 10
3158.025014816365001
 20
152.2412789222530876
 30
0.0
 11
3158.0347578358268947
 21
152.2937718908623879
 31
0.0
  0
ARC
  5
283E0
  8
0
 10
3157.9744807405081701
 20
152.301670886256403
 30
0.0
 40
0.0679849417791287
 50
322.7300972605555103
 51
338.8767615658400132
  0
ARC
  5
283E1
  8
0
 10
3158.2813254782467993
 20
152.3229974886968137
 30
0.0
 40
0.0255798350541456
 50
88.0567815038938306
 51
160.7387491416643002
  0
ARC
  5
283E2
  8
0
 10
3158.2811901264121843
 20
152.3190081713865993
 30
0.0
 40
0.0295714478510929
 50
34.7480882462538574
 51
88.0567815038938306
  0
ARC
  5
283E3
  8
0
 10
3158.2889207021248694
 20
152.3268724194126094
 30
0.0
 40
0.0188495359605226
 50
320.5747321033550747
 51
28.4873747456331294
  0
ARC
  5
283E4
  8
0
 10
3158.2849158326239376
 20
152.3296617314134096
 30
0.0
 40
0.0237177099216007
 50
298.2420902445472279
 51
321.5139246967158897
  0
ARC
  5
283E5
  8
0
 10
3158.2822218386741042
 20
152.3346771584755004
 30
0.0
 40
0.0294108735427872
 50
263.7367437130546932
 51
298.2420902445472279
  0
ARC
  5
283E6
  8
0
 10
3158.2821577869481189
 20
152.3340935540724104
 30
0.0
 40
0.0288237647598669
 50
230.0880692151079074
 51
263.7367437130546932
  0
ARC
  5
283E7
  8
0
 10
3158.2762015352459457
 20
152.3269729705671125
 30
0.0
 40
0.0195404655730405
 50
166.7981625167311108
 51
230.0880692151079074
  0
ARC
  5
283E8
  8
0
 10
3158.2665565374618382
 20
152.3318574912262022
 30
0.0
 40
0.0484572422601305
 50
141.3345973750122937
 51
189.4705109999198953
  0
ARC
  5
283E9
  8
0
 10
3158.2790240441108836
 20
152.321881489330309
 30
0.0
 40
0.064424688388718
 50
97.5345971341259883
 51
141.3345973750134874
  0
ARC
  5
283EA
  8
0
 10
3158.2806687697820962
 20
152.3094465843101943
 30
0.0
 40
0.0769678931383846
 50
51.2444478857468582
 51
97.5345971341259883
  0
ARC
  5
283EB
  8
0
 10
3158.2992921893960556
 20
152.3326462784866919
 30
0.0
 40
0.0472179760291364
 50
339.5802726858224787
 51
51.2444478857478884
  0
ARC
  5
283EC
  8
0
 10
3158.2891347229051462
 20
152.3364277879049098
 30
0.0
 40
0.0580565155521089
 50
296.8319221186545178
 51
339.5802726858224787
  0
ARC
  5
283ED
  8
0
 10
3158.282469947610025
 20
152.3496035547910026
 30
0.0
 40
0.0728220180079248
 50
233.0758354701096096
 51
296.8319221186545178
  0
ARC
  5
283EE
  8
0
 10
3158.2699586481571714
 20
152.3329546970678052
 30
0.0
 40
0.0519961428160376
 50
190.0462407751305136
 51
233.0758354701096096
  0
ARC
  5
283EF
  8
0
 10
3158.2649699421622245
 20
152.3624924178772915
 30
0.0
 40
0.0602159939425495
 50
190.3529330467023044
 51
219.8783720275937981
  0
ARC
  5
283F0
  8
0
 10
3158.2557709137367965
 20
152.3608118903530055
 30
0.0
 40
0.0508647214760567
 50
158.0334457821539047
 51
190.3529330467023044
  0
ARC
  5
283F1
  8
0
 10
3158.2705925845089041
 20
152.3548336085920027
 30
0.0
 40
0.0668466418018999
 50
123.1389967347685968
 51
158.0334457821539047
  0
ARC
  5
283F2
  8
0
 10
3158.2816031840811775
 20
152.3379684853969991
 30
0.0
 40
0.0869877858438523
 50
79.6217305443158381
 51
123.1389967347685968
  0
ARC
  5
283F3
  8
0
 10
3158.2813227803230802
 20
152.3364374152000096
 30
0.0
 40
0.0885443211680643
 50
45.3137536921034823
 51
79.6217305443158381
  0
ARC
  5
283F4
  8
0
 10
3158.3068450047380793
 20
152.3622407027226018
 30
0.0
 40
0.0522511594695935
 50
7.1835713859401631
 51
45.3137536921034823
  0
ARC
  5
283F5
  8
0
 10
3158.2998616882628085
 20
152.361360538925112
 30
0.0
 40
0.059289724472353
 50
320.5669248704683127
 51
7.1835713859401631
  0
LINE
  5
283F6
  8
0
 10
3158.2183161263960756
 20
152.3272785101574129
 30
0.0
 11
3158.2083999091510123
 21
152.3793377591694025
 31
0.0
  0
ARC
  5
283F7
  8
0
 10
3158.3034281109048607
 20
152.4046054127252887
 30
0.0
 40
0.1063819563673368
 50
202.323443154514905
 51
213.5796342964862902
  0
LINE
  5
283F8
  8
0
 10
3158.3462326332760313
 20
152.3275343328045892
 30
0.0
 11
3158.355975652737925
 21
152.3800273014138895
 31
0.0
  0
ARC
  5
283F9
  8
0
 10
3158.2956985574192004
 20
152.38792629680799
 30
0.0
 40
0.0679849417791287
 50
322.7300972605555103
 51
338.8767615658400132
  0
ARC
  5
283FA
  8
0
 10
3157.6234581955050089
 20
152.3204253482143997
 30
0.0
 40
0.0255798350541456
 50
88.0567815038938306
 51
160.7387491416643002
  0
ARC
  5
283FB
  8
0
 10
3157.6233228436699392
 20
152.3164360309042138
 30
0.0
 40
0.0295714478510929
 50
34.7480882462538574
 51
88.0567815038938306
  0
ARC
  5
283FC
  8
0
 10
3157.631053419383079
 20
152.3243002789301954
 30
0.0
 40
0.0188495359605226
 50
320.5747321033550747
 51
28.4873747456331294
  0
ARC
  5
283FD
  8
0
 10
3157.6270485498821472
 20
152.3270895909309957
 30
0.0
 40
0.0237177099216007
 50
298.2420902445472279
 51
321.5139246967158897
  0
ARC
  5
283FE
  8
0
 10
3157.6243545559309496
 20
152.3321050179930864
 30
0.0
 40
0.0294108735427872
 50
263.7367437130546932
 51
298.2420902445472279
  0
ARC
  5
283FF
  8
0
 10
3157.6242905042049642
 20
152.3315214135899112
 30
0.0
 40
0.0288237647598669
 50
230.0880692151079074
 51
263.7367437130546932
  0
ARC
  5
28400
  8
0
 10
3157.6183342525041553
 20
152.3244008300846133
 30
0.0
 40
0.0195404655730405
 50
166.7981625167311108
 51
230.0880692151079074
  0
ARC
  5
28401
  8
0
 10
3157.6086892547200478
 20
152.3292853507437883
 30
0.0
 40
0.0484572422601305
 50
141.3345973750122937
 51
189.4705109999198953
  0
ARC
  5
28402
  8
0
 10
3157.6211567613690931
 20
152.3193093488478951
 30
0.0
 40
0.064424688388718
 50
97.5345971341259883
 51
141.3345973750134874
  0
ARC
  5
28403
  8
0
 10
3157.6228014870398511
 20
152.3068744438276951
 30
0.0
 40
0.0769678931383846
 50
51.2444478857468582
 51
97.5345971341259883
  0
ARC
  5
28404
  8
0
 10
3157.6414249066538105
 20
152.3300741380043064
 30
0.0
 40
0.0472179760291364
 50
339.5802726858224787
 51
51.2444478857478884
  0
ARC
  5
28405
  8
0
 10
3157.631267440162901
 20
152.3338556474224958
 30
0.0
 40
0.0580565155521089
 50
296.8319221186545178
 51
339.5802726858224787
  0
ARC
  5
28406
  8
0
 10
3157.6246026648668703
 20
152.3470314143085886
 30
0.0
 40
0.0728220180079248
 50
233.0758354701096096
 51
296.8319221186545178
  0
ARC
  5
28407
  8
0
 10
3157.6120913654140168
 20
152.3303825565853913
 30
0.0
 40
0.0519961428160376
 50
190.0462407751305136
 51
233.0758354701096096
  0
ARC
  5
28408
  8
0
 10
3157.6071026594199793
 20
152.359920277394906
 30
0.0
 40
0.0602159939425495
 50
190.3529330467023044
 51
219.8783720275937981
  0
ARC
  5
28409
  8
0
 10
3157.5979036309940966
 20
152.3582397498705916
 30
0.0
 40
0.0508647214760567
 50
158.0334457821539047
 51
190.3529330467023044
  0
ARC
  5
2840A
  8
0
 10
3157.6127253017671137
 20
152.3522614681095888
 30
0.0
 40
0.0668466418018999
 50
123.1389967347685968
 51
158.0334457821539047
  0
ARC
  5
2840B
  8
0
 10
3157.6237359013389323
 20
152.3353963449144999
 30
0.0
 40
0.0869877858438523
 50
79.6217305443158381
 51
123.1389967347685968
  0
ARC
  5
2840C
  8
0
 10
3157.6234554975808351
 20
152.3338652747175956
 30
0.0
 40
0.0885443211680643
 50
45.3137536921034823
 51
79.6217305443158381
  0
ARC
  5
2840D
  8
0
 10
3157.6489777219958341
 20
152.3596685622401878
 30
0.0
 40
0.0522511594695935
 50
7.1835713859401631
 51
45.3137536921034823
  0
ARC
  5
2840E
  8
0
 10
3157.6419944055210181
 20
152.3587883984426981
 30
0.0
 40
0.059289724472353
 50
320.5669248704683127
 51
7.1835713859401631
  0
LINE
  5
2840F
  8
0
 10
3157.5604488436538304
 20
152.3247063696749137
 30
0.0
 11
3157.5505326264092218
 21
152.3767656186869885
 31
0.0
  0
ARC
  5
28410
  8
0
 10
3157.6455608281630703
 20
152.4020332722429032
 30
0.0
 40
0.1063819563673368
 50
202.323443154514905
 51
213.5796342964862902
  0
LINE
  5
28411
  8
0
 10
3157.6883653505337861
 20
152.3249621923222037
 30
0.0
 11
3157.6981083699961346
 21
152.377455160931504
 31
0.0
  0
ARC
  5
28412
  8
0
 10
3157.6378312746769552
 20
152.3853541563254907
 30
0.0
 40
0.0679849417791287
 50
322.7300972605555103
 51
338.8767615658400132
  0
ARC
  5
28413
  8
0
 10
3158.0255413876698185
 20
152.5525641706636861
 30
0.0
 40
0.0255798350541456
 50
88.0567815038938306
 51
160.7387491416643002
  0
ARC
  5
28414
  8
0
 10
3158.0254060358352035
 20
152.5485748533533865
 30
0.0
 40
0.0295714478510929
 50
34.7480882462538574
 51
88.0567815038938306
  0
ARC
  5
28415
  8
0
 10
3158.0331366115478886
 20
152.5564391013795102
 30
0.0
 40
0.0188495359605226
 50
320.5747321033550747
 51
28.4873747456331294
  0
ARC
  5
28416
  8
0
 10
3158.0291317420469568
 20
152.5592284133801968
 30
0.0
 40
0.0237177099216007
 50
298.2420902445472279
 51
321.5139246967158897
  0
ARC
  5
28417
  8
0
 10
3158.0264377480971234
 20
152.5642438404422876
 30
0.0
 40
0.0294108735427872
 50
263.7367437130546932
 51
298.2420902445472279
  0
ARC
  5
28418
  8
0
 10
3158.0263736963711381
 20
152.5636602360391976
 30
0.0
 40
0.0288237647598669
 50
230.0880692151079074
 51
263.7367437130546932
  0
ARC
  5
28419
  8
0
 10
3158.0204174446689649
 20
152.5565396525338997
 30
0.0
 40
0.0195404655730405
 50
166.7981625167311108
 51
230.0880692151079074
  0
ARC
  5
2841A
  8
0
 10
3158.0107724468848573
 20
152.5614241731929894
 30
0.0
 40
0.0484572422601305
 50
141.3345973750122937
 51
189.4705109999198953
  0
ARC
  5
2841B
  8
0
 10
3158.0232399535339027
 20
152.5514481712970962
 30
0.0
 40
0.064424688388718
 50
97.5345971341259883
 51
141.3345973750134874
  0
ARC
  5
2841C
  8
0
 10
3158.0248846792060249
 20
152.53901326627701
 30
0.0
 40
0.0769678931383846
 50
51.2444478857468582
 51
97.5345971341259883
  0
ARC
  5
2841D
  8
0
 10
3158.0435080988190748
 20
152.5622129604535928
 30
0.0
 40
0.0472179760291364
 50
339.5802726858224787
 51
51.2444478857478884
  0
ARC
  5
2841E
  8
0
 10
3158.0333506323281654
 20
152.5659944698718107
 30
0.0
 40
0.0580565155521089
 50
296.8319221186545178
 51
339.5802726858224787
  0
ARC
  5
2841F
  8
0
 10
3158.0266858570330442
 20
152.5791702367579035
 30
0.0
 40
0.0728220180079248
 50
233.0758354701096096
 51
296.8319221186545178
  0
ARC
  5
28420
  8
0
 10
3158.0141745575801906
 20
152.5625213790347061
 30
0.0
 40
0.0519961428160376
 50
190.0462407751305136
 51
233.0758354701096096
  0
ARC
  5
28421
  8
0
 10
3158.0091858515861531
 20
152.5920590998441071
 30
0.0
 40
0.0602159939425495
 50
190.3529330467023044
 51
219.8783720275937981
  0
ARC
  5
28422
  8
0
 10
3157.9999868231598157
 20
152.5903785723199064
 30
0.0
 40
0.0508647214760567
 50
158.0334457821539047
 51
190.3529330467023044
  0
ARC
  5
28423
  8
0
 10
3158.0148084939319233
 20
152.5844002905589036
 30
0.0
 40
0.0668466418018999
 50
123.1389967347685968
 51
158.0334457821539047
  0
ARC
  5
28424
  8
0
 10
3158.0258190935041966
 20
152.5675351673637863
 30
0.0
 40
0.0869877858438523
 50
79.6217305443158381
 51
123.1389967347685968
  0
ARC
  5
28425
  8
0
 10
3158.0255386897460994
 20
152.5660040971669105
 30
0.0
 40
0.0885443211680643
 50
45.3137536921034823
 51
79.6217305443158381
  0
ARC
  5
28426
  8
0
 10
3158.0510609141610985
 20
152.5918073846895027
 30
0.0
 40
0.0522511594695935
 50
7.1835713859401631
 51
45.3137536921034823
  0
ARC
  5
28427
  8
0
 10
3158.0440775976871919
 20
152.5909272208918992
 30
0.0
 40
0.059289724472353
 50
320.5669248704683127
 51
7.1835713859401631
  0
LINE
  5
28428
  8
0
 10
3157.9625320358190947
 20
152.5568451921242001
 30
0.0
 11
3157.9526158185740314
 21
152.6089044411363034
 31
0.0
  0
ARC
  5
28429
  8
0
 10
3158.0476440203278798
 20
152.6341720946921043
 30
0.0
 40
0.1063819563673368
 50
202.323443154514905
 51
213.5796342964862902
  0
LINE
  5
2842A
  8
0
 10
3158.0904485426990504
 20
152.5571010147714048
 30
0.0
 11
3158.1001915621609442
 21
152.6095939833807904
 31
0.0
  0
ARC
  5
2842B
  8
0
 10
3158.0399144668422196
 20
152.6174929787748056
 30
0.0
 40
0.0679849417791287
 50
322.7300972605555103
 51
338.8767615658400132
  0
ARC
  5
2842C
  8
0
 10
3157.4109415674538468
 20
151.9229015706893904
 30
0.0
 40
0.0255798350541456
 50
88.0567815038938306
 51
160.7387491416643002
  0
ARC
  5
2842D
  8
0
 10
3157.4108062156187771
 20
151.9189122533792045
 30
0.0
 40
0.0295714478510929
 50
34.7480882462538574
 51
88.0567815038938306
  0
ARC
  5
2842E
  8
0
 10
3157.4185367913319169
 20
151.9267765014051861
 30
0.0
 40
0.0188495359605226
 50
320.5747321033550747
 51
28.4873747456331294
  0
ARC
  5
2842F
  8
0
 10
3157.4145319218300756
 20
151.9295658134059011
 30
0.0
 40
0.0237177099216007
 50
298.2420902445472279
 51
321.5139246967158897
  0
ARC
  5
28430
  8
0
 10
3157.4118379278811517
 20
151.9345812404679918
 30
0.0
 40
0.0294108735427872
 50
263.7367437130546932
 51
298.2420902445472279
  0
ARC
  5
28431
  8
0
 10
3157.4117738761538021
 20
151.9339976360649018
 30
0.0
 40
0.0288237647598669
 50
230.0880692151079074
 51
263.7367437130546932
  0
ARC
  5
28432
  8
0
 10
3157.4058176244520837
 20
151.926877052559604
 30
0.0
 40
0.0195404655730405
 50
166.7981625167311108
 51
230.0880692151079074
  0
ARC
  5
28433
  8
0
 10
3157.3961726266688856
 20
151.9317615732188074
 30
0.0
 40
0.0484572422601305
 50
141.3345973750122937
 51
189.4705109999198953
  0
ARC
  5
28434
  8
0
 10
3157.408640133317931
 20
151.9217855713228005
 30
0.0
 40
0.064424688388718
 50
97.5345971341259883
 51
141.3345973750134874
  0
ARC
  5
28435
  8
0
 10
3157.4102848589891437
 20
151.9093506663026858
 30
0.0
 40
0.0769678931383846
 50
51.2444478857468582
 51
97.5345971341259883
  0
ARC
  5
28436
  8
0
 10
3157.4289082786031031
 20
151.9325503604792971
 30
0.0
 40
0.0472179760291364
 50
339.5802726858224787
 51
51.2444478857478884
  0
ARC
  5
28437
  8
0
 10
3157.4187508121121937
 20
151.9363318698974012
 30
0.0
 40
0.0580565155521089
 50
296.8319221186545178
 51
339.5802726858224787
  0
ARC
  5
28438
  8
0
 10
3157.4120860368170725
 20
151.9495076367836077
 30
0.0
 40
0.0728220180079248
 50
233.0758354701096096
 51
296.8319221186545178
  0
ARC
  5
28439
  8
0
 10
3157.3995747373628546
 20
151.9328587790602967
 30
0.0
 40
0.0519961428160376
 50
190.0462407751305136
 51
233.0758354701096096
  0
ARC
  5
2843A
  8
0
 10
3157.3945860313688172
 20
151.9623964998698114
 30
0.0
 40
0.0602159939425495
 50
190.3529330467023044
 51
219.8783720275937981
  0
ARC
  5
2843B
  8
0
 10
3157.3853870029429345
 20
151.9607159723456107
 30
0.0
 40
0.0508647214760567
 50
158.0334457821539047
 51
190.3529330467023044
  0
ARC
  5
2843C
  8
0
 10
3157.4002086737159516
 20
151.9547376905846079
 30
0.0
 40
0.0668466418018999
 50
123.1389967347685968
 51
158.0334457821539047
  0
ARC
  5
2843D
  8
0
 10
3157.4112192732868607
 20
151.9378725673894905
 30
0.0
 40
0.0869877858438523
 50
79.6217305443158381
 51
123.1389967347685968
  0
ARC
  5
2843E
  8
0
 10
3157.4109388695301277
 20
151.936341497192501
 30
0.0
 40
0.0885443211680643
 50
45.3137536921034823
 51
79.6217305443158381
  0
ARC
  5
2843F
  8
0
 10
3157.4364610939451268
 20
151.9621447847152069
 30
0.0
 40
0.0522511594695935
 50
7.1835713859401631
 51
45.3137536921034823
  0
ARC
  5
28440
  8
0
 10
3157.4294777774698559
 20
151.9612646209176035
 30
0.0
 40
0.059289724472353
 50
320.5669248704683127
 51
7.1835713859401631
  0
LINE
  5
28441
  8
0
 10
3157.347932215603123
 20
151.9271825921499044
 30
0.0
 11
3157.3380159983571502
 21
151.9792418411620076
 31
0.0
  0
ARC
  5
28442
  8
0
 10
3157.4330442001119081
 20
152.0045094947178086
 30
0.0
 40
0.1063819563673368
 50
202.323443154514905
 51
213.5796342964862902
  0
LINE
  5
28443
  8
0
 10
3157.4758487224821693
 20
151.9274384147971091
 30
0.0
 11
3157.4855917419449725
 21
151.9799313834064094
 31
0.0
  0
ARC
  5
28444
  8
0
 10
3157.4253146466257931
 20
151.9878303788005098
 30
0.0
 40
0.0679849417791287
 50
322.7300972605555103
 51
338.8767615658400132
  0
ARC
  5
28445
  8
0
 10
3158.2696551102858393
 20
150.5737645585053883
 30
0.0
 40
0.0255798350541456
 50
88.0567815038938306
 51
160.7387491416643002
  0
ARC
  5
28446
  8
0
 10
3158.2695197584521338
 20
150.5697752411952024
 30
0.0
 40
0.0295714478510929
 50
34.7480882462538574
 51
88.0567815038938306
  0
ARC
  5
28447
  8
0
 10
3158.2772503341639094
 20
150.5776394892212124
 30
0.0
 40
0.0188495359605226
 50
320.5747321033550747
 51
28.4873747456331294
  0
ARC
  5
28448
  8
0
 10
3158.2732454646629776
 20
150.580428801221899
 30
0.0
 40
0.0237177099216007
 50
298.2420902445472279
 51
321.5139246967158897
  0
ARC
  5
28449
  8
0
 10
3158.2705514707131442
 20
150.5854442282839898
 30
0.0
 40
0.0294108735427872
 50
263.7367437130546932
 51
298.2420902445472279
  0
ARC
  5
2844A
  8
0
 10
3158.2704874189857946
 20
150.5848606238808998
 30
0.0
 40
0.0288237647598669
 50
230.0880692151079074
 51
263.7367437130546932
  0
ARC
  5
2844B
  8
0
 10
3158.2645311672849857
 20
150.5777400403756019
 30
0.0
 40
0.0195404655730405
 50
166.7981625167311108
 51
230.0880692151079074
  0
ARC
  5
2844C
  8
0
 10
3158.2548861695008782
 20
150.5826245610348053
 30
0.0
 40
0.0484572422601305
 50
141.3345973750122937
 51
189.4705109999214869
  0
ARC
  5
2844D
  8
0
 10
3158.2673536761499236
 20
150.5726485591387984
 30
0.0
 40
0.064424688388718
 50
97.5345971341259883
 51
141.3345973750134874
  0
ARC
  5
2844E
  8
0
 10
3158.2689984018211362
 20
150.5602136541187122
 30
0.0
 40
0.0769678931383846
 50
51.2444478857468582
 51
97.5345971341259883
  0
ARC
  5
2844F
  8
0
 10
3158.2876218214350956
 20
150.583413348295295
 30
0.0
 40
0.0472179760291364
 50
339.5802726858224787
 51
51.2444478857478884
  0
ARC
  5
28450
  8
0
 10
3158.2774643549441862
 20
150.5871948577135129
 30
0.0
 40
0.0580565155521089
 50
296.8319221186545178
 51
339.5802726858224787
  0
ARC
  5
28451
  8
0
 10
3158.270799579649065
 20
150.6003706245996057
 30
0.0
 40
0.0728220180079248
 50
233.0758354701096096
 51
296.8319221186545178
  0
ARC
  5
28452
  8
0
 10
3158.2582882801962114
 20
150.5837217668764083
 30
0.0
 40
0.0519961428160376
 50
190.0462407751305136
 51
233.0758354701096096
  0
ARC
  5
28453
  8
0
 10
3158.253299574202174
 20
150.6132594876858946
 30
0.0
 40
0.0602159939425495
 50
190.3529330467023044
 51
219.8783720275937981
  0
ARC
  5
28454
  8
0
 10
3158.2441005457758365
 20
150.6115789601616086
 30
0.0
 40
0.0508647214760567
 50
158.0334457821539047
 51
190.3529330467023044
  0
ARC
  5
28455
  8
0
 10
3158.2589222165479441
 20
150.6056006784006058
 30
0.0
 40
0.0668466418018999
 50
123.1389967347685968
 51
158.0334457821539047
  0
ARC
  5
28456
  8
0
 10
3158.2699328161202175
 20
150.5887355552054885
 30
0.0
 40
0.0869877858438523
 50
79.6217305443158381
 51
123.1389967347685968
  0
ARC
  5
28457
  8
0
 10
3158.2696524123621202
 20
150.5872044850086127
 30
0.0
 40
0.0885443211680643
 50
45.3137536921034823
 51
79.6217305443158381
  0
ARC
  5
28458
  8
0
 10
3158.2951746367771193
 20
150.6130077725312049
 30
0.0
 40
0.0522511594695935
 50
7.1835713859401631
 51
45.3137536921034823
  0
ARC
  5
28459
  8
0
 10
3158.2881913203018485
 20
150.6121276087336867
 30
0.0
 40
0.059289724472353
 50
320.5669248704683127
 51
7.1835713859401631
  0
LINE
  5
2845A
  8
0
 10
3158.2066457584351156
 20
150.5780455799659023
 30
0.0
 11
3158.1967295411900523
 21
150.6301048289780056
 31
0.0
  0
ARC
  5
2845B
  8
0
 10
3158.2917577429448102
 20
150.6553724825338918
 30
0.0
 40
0.1063819563673368
 50
202.323443154514905
 51
213.5796342964862902
  0
LINE
  5
2845C
  8
0
 10
3158.3345622653150713
 20
150.578301402613107
 30
0.0
 11
3158.344305284776965
 21
150.6307943712224926
 31
0.0
  0
ARC
  5
2845D
  8
0
 10
3158.2840281894577856
 20
150.6386933666165078
 30
0.0
 40
0.0679849417791287
 50
322.7300972605555103
 51
338.8767615658400132
  0
ARC
  5
2845E
  8
0
 10
3157.9448566330520407
 20
150.8525850772261947
 30
0.0
 40
0.0420590590897079
 50
72.9319516266121752
 51
141.5812254387950873
  0
ARC
  5
2845F
  8
0
 10
3157.9441982456869482
 20
150.850440701370502
 30
0.0
 40
0.0443022313373366
 50
25.7194097690807411
 51
72.9319516266121752
  0
ARC
  5
28460
  8
0
 10
3157.9573540275800951
 20
150.8612524612015875
 30
0.0
 40
0.0280491097828503
 50
305.0368248584052253
 51
17.4556643734776991
  0
ARC
  5
28461
  8
0
 10
3157.9469852149782128
 20
150.8754679360602893
 30
0.0
 40
0.0456424498849537
 50
226.5128379790481006
 51
305.4494086443680203
  0
ARC
  5
28462
  8
0
 10
3157.9345656292907734
 20
150.8626389571977882
 30
0.0
 40
0.0277881948752947
 50
144.6388630483035911
 51
226.8880266333574127
  0
ARC
  5
28463
  8
0
 10
3157.9178858585969465
 20
150.8705992257756066
 30
0.0
 40
0.0866312339315576
 50
168.1317840137947996
 51
220.4888310506360938
  0
ARC
  5
28464
  8
0
 10
3157.9214864106129426
 20
150.8649686501400993
 30
0.0
 40
0.0914372975453921
 50
123.6400579906514992
 51
165.1416608147289935
  0
ARC
  5
28465
  8
0
 10
3157.943927792429804
 20
150.8293186922520874
 30
0.0
 40
0.1335532945893323
 50
58.7623699990446724
 51
123.1827603240419933
  0
ARC
  5
28466
  8
0
 10
3157.9703068690041619
 20
150.8652033389780911
 30
0.0
 40
0.089278394353289
 50
329.713206178233122
 51
61.2951955315020314
  0
ARC
  5
28467
  8
0
 10
3157.9215699809160469
 20
150.869227751415707
 30
0.0
 40
0.0886092418281308
 50
218.2670653219686017
 51
237.3017967854349024
  0
ARC
  5
28468
  8
0
 10
3157.9498109658070462
 20
150.913220640854405
 30
0.0
 40
0.1408866513737705
 50
237.3017967854349024
 51
283.2565643154222244
  0
ARC
  5
28469
  8
0
 10
3157.9566566382650308
 20
150.8841630318489138
 30
0.0
 40
0.111033546467795
 50
283.2565643154222244
 51
324.8113556111154026
  0
ARC
  5
2846A
  8
0
 10
3157.9208491910358134
 20
150.8913386628769047
 30
0.0
 40
0.1015335136477515
 50
200.3400832451557108
 51
221.5023126784923875
  0
ARC
  5
2846B
  8
0
 10
3157.9016391166428548
 20
150.8842173586292859
 30
0.0
 40
0.0810459580978998
 50
156.7355567498850917
 51
200.3400832451557108
  0
ARC
  5
2846C
  8
0
 10
3157.9189125195430279
 20
150.8767909604511885
 30
0.0
 40
0.0998481345056472
 50
120.2259367327206974
 51
156.7355567498836137
  0
ARC
  5
2846D
  8
0
 10
3157.9429903937420931
 20
150.8354640735228998
 30
0.0
 40
0.1476775774160275
 50
86.2288736475637307
 51
120.2259367327206974
  0
ARC
  5
2846E
  8
0
 10
3157.9428927734002173
 20
150.8339830426710932
 30
0.0
 40
0.1491618220438097
 50
57.2579613125537534
 51
86.2288736475637307
  0
ARC
  5
2846F
  8
0
 10
3157.9653067567819562
 20
150.8688401270806878
 30
0.0
 40
0.1077202609654002
 50
35.7784801463069329
 51
57.2579613125537534
  0
ARC
  5
28470
  8
0
 10
3157.9773843535581364
 20
150.8775438706234127
 30
0.0
 40
0.0928332365645158
 50
350.0596684887684091
 51
35.7784801463069329
  0
ARC
  5
28471
  8
0
 10
3157.9923701063221415
 20
150.8749175666926874
 30
0.0
 40
0.0776190899158105
 50
315.1512833024855809
 51
350.0596684887684091
  0
ARC
  5
28472
  8
0
 10
3157.3977012074988124
 20
151.1663101356377013
 30
0.0
 40
0.0420590590897079
 50
72.9319516266121752
 51
141.5812254387950873
  0
ARC
  5
28473
  8
0
 10
3157.3970428201341747
 20
151.1641657597820085
 30
0.0
 40
0.0443022313373366
 50
25.7194097690807411
 51
72.9319516266121752
  0
ARC
  5
28474
  8
0
 10
3157.4101986020259574
 20
151.1749775196132077
 30
0.0
 40
0.0280491097828503
 50
305.0368248584052253
 51
17.4556643734776991
  0
ARC
  5
28475
  8
0
 10
3157.3998297894249845
 20
151.1891929944719095
 30
0.0
 40
0.0456424498849537
 50
226.5128379790481006
 51
305.4494086443680203
  0
ARC
  5
28476
  8
0
 10
3157.3874102037379998
 20
151.1763640156094084
 30
0.0
 40
0.0277881948752947
 50
144.6388630483035911
 51
226.8880266333574127
  0
ARC
  5
28477
  8
0
 10
3157.3707304330428087
 20
151.1843242841871131
 30
0.0
 40
0.0866312339315576
 50
168.1317840137947996
 51
220.4888310506360938
  0
ARC
  5
28478
  8
0
 10
3157.3743309850588048
 20
151.1786937085516058
 30
0.0
 40
0.0914372975453921
 50
123.6400579906514992
 51
165.1416608147289935
  0
ARC
  5
28479
  8
0
 10
3157.3967723668761209
 20
151.143043750663594
 30
0.0
 40
0.1335532945893323
 50
58.7623699990446724
 51
123.1827603240419933
  0
ARC
  5
2847A
  8
0
 10
3157.4231514434509336
 20
151.1789283973895976
 30
0.0
 40
0.089278394353289
 50
329.713206178233122
 51
61.2951955315020314
  0
ARC
  5
2847B
  8
0
 10
3157.3744145553609997
 20
151.1829528098272988
 30
0.0
 40
0.0886092418281308
 50
218.2670653219672943
 51
237.3017967854349024
  0
ARC
  5
2847C
  8
0
 10
3157.4026555402529084
 20
151.2269456992659968
 30
0.0
 40
0.1408866513737705
 50
237.3017967854349024
 51
283.2565643154222244
  0
ARC
  5
2847D
  8
0
 10
3157.4095012127118025
 20
151.1978880902603919
 30
0.0
 40
0.111033546467795
 50
283.2565643154222244
 51
324.8113556111154026
  0
ARC
  5
2847E
  8
0
 10
3157.3736937654830399
 20
151.2050637212884965
 30
0.0
 40
0.1015335136477515
 50
200.3400832451557108
 51
221.5023126784923875
  0
ARC
  5
2847F
  8
0
 10
3157.3544836910891718
 20
151.1979424170407924
 30
0.0
 40
0.0810459580978998
 50
156.7355567498850917
 51
200.3400832451557108
  0
ARC
  5
28480
  8
0
 10
3157.3717570939897996
 20
151.1905160188626951
 30
0.0
 40
0.0998481345056472
 50
120.2259367327206974
 51
156.7355567498836137
  0
ARC
  5
28481
  8
0
 10
3157.3958349681879554
 20
151.1491891319344063
 30
0.0
 40
0.1476775774160275
 50
86.2288736475637307
 51
120.2259367327206974
  0
ARC
  5
28482
  8
0
 10
3157.3957373478460795
 20
151.1477081010827135
 30
0.0
 40
0.1491618220438097
 50
57.2579613125537534
 51
86.2288736475637307
  0
ARC
  5
28483
  8
0
 10
3157.4181513312291827
 20
151.182565185492308
 30
0.0
 40
0.1077202609654002
 50
35.7784801463069329
 51
57.2579613125537534
  0
ARC
  5
28484
  8
0
 10
3157.4302289280039986
 20
151.1912689290348908
 30
0.0
 40
0.0928332365645158
 50
350.0596684887684091
 51
35.7784801463069329
  0
ARC
  5
28485
  8
0
 10
3157.4452146807680037
 20
151.1886426251041939
 30
0.0
 40
0.0776190899158105
 50
315.1512833024855809
 51
350.0596684887684091
  0
ARC
  5
28486
  8
0
 10
3157.1286476086961557
 20
151.6926617645935949
 30
0.0
 40
0.0420590590897079
 50
72.9319516266121752
 51
141.5812254387950873
  0
ARC
  5
28487
  8
0
 10
3157.1279892213310632
 20
151.6905173887379021
 30
0.0
 40
0.0443022313373366
 50
25.7194097690807411
 51
72.9319516266121752
  0
ARC
  5
28488
  8
0
 10
3157.1411450032228458
 20
151.7013291485691013
 30
0.0
 40
0.0280491097828503
 50
305.0368248584052253
 51
17.4556643734776991
  0
ARC
  5
28489
  8
0
 10
3157.1307761906209635
 20
151.7155446234278031
 30
0.0
 40
0.0456424498849537
 50
226.5128379790481006
 51
305.4494086443680203
  0
ARC
  5
2848A
  8
0
 10
3157.1183566049348883
 20
151.702715644565302
 30
0.0
 40
0.0277881948752947
 50
144.6388630483035911
 51
226.8880266333574127
  0
ARC
  5
2848B
  8
0
 10
3157.1016768342410614
 20
151.7106759131430067
 30
0.0
 40
0.0866312339315576
 50
168.1317840137947996
 51
220.4888310506360938
  0
ARC
  5
2848C
  8
0
 10
3157.105277386256148
 20
151.7050453375074994
 30
0.0
 40
0.0914372975453921
 50
123.6400579906514992
 51
165.1416608147289935
  0
ARC
  5
2848D
  8
0
 10
3157.1277187680730094
 20
151.6693953796194876
 30
0.0
 40
0.1335532945893323
 50
58.7623699990446724
 51
123.1827603240419933
  0
ARC
  5
2848E
  8
0
 10
3157.1540978446478221
 20
151.7052800263454913
 30
0.0
 40
0.089278394353289
 50
329.713206178233122
 51
61.2951955315020314
  0
ARC
  5
2848F
  8
0
 10
3157.1053609565587976
 20
151.7093044387831071
 30
0.0
 40
0.0886092418281308
 50
218.2670653219672943
 51
237.3017967854349024
  0
ARC
  5
28490
  8
0
 10
3157.1336019414497969
 20
151.7532973282218052
 30
0.0
 40
0.1408866513737705
 50
237.3017967854349024
 51
283.2565643154222244
  0
ARC
  5
28491
  8
0
 10
3157.1404476139091457
 20
151.7242397192163139
 30
0.0
 40
0.111033546467795
 50
283.2565643154222244
 51
324.8113556111154026
  0
ARC
  5
28492
  8
0
 10
3157.1046401666799284
 20
151.7314153502443048
 30
0.0
 40
0.1015335136477515
 50
200.3400832451557108
 51
221.5023126784923875
  0
ARC
  5
28493
  8
0
 10
3157.0854300922860602
 20
151.724294045996686
 30
0.0
 40
0.0810459580978998
 50
156.7355567498850917
 51
200.3400832451557108
  0
ARC
  5
28494
  8
0
 10
3157.1027034951871428
 20
151.7168676478185887
 30
0.0
 40
0.0998481345056472
 50
120.2259367327206974
 51
156.7355567498836137
  0
ARC
  5
28495
  8
0
 10
3157.1267813693848439
 20
151.6755407608902999
 30
0.0
 40
0.1476775774160275
 50
86.2288736475637307
 51
120.2259367327206974
  0
ARC
  5
28496
  8
0
 10
3157.126683749042968
 20
151.6740597300384934
 30
0.0
 40
0.1491618220438097
 50
57.2579613125537534
 51
86.2288736475637307
  0
ARC
  5
28497
  8
0
 10
3157.1490977324260712
 20
151.708916814448088
 30
0.0
 40
0.1077202609654002
 50
35.7784801463069329
 51
57.2579613125537534
  0
ARC
  5
28498
  8
0
 10
3157.1611753291999776
 20
151.7176205579908128
 30
0.0
 40
0.0928332365645158
 50
350.0596684887684091
 51
35.7784801463069329
  0
ARC
  5
28499
  8
0
 10
3157.1761610819648922
 20
151.7149942540600875
 30
0.0
 40
0.0776190899158105
 50
315.1512833024855809
 51
350.0596684887684091
  0
ARC
  5
2849A
  8
0
 10
3157.224421158352925
 20
152.2658049728514129
 30
0.0
 40
0.0420590590897079
 50
72.9319516266121752
 51
141.5812254387950873
  0
ARC
  5
2849B
  8
0
 10
3157.2237627709878325
 20
152.2636605969958055
 30
0.0
 40
0.0443022313373366
 50
25.7194097690807411
 51
72.9319516266121752
  0
ARC
  5
2849C
  8
0
 10
3157.2369185528800699
 20
152.274472356826891
 30
0.0
 40
0.0280491097828503
 50
305.0368248584052253
 51
17.4556643734776991
  0
ARC
  5
2849D
  8
0
 10
3157.2265497402781875
 20
152.2886878316857064
 30
0.0
 40
0.0456424498849537
 50
226.5128379790481006
 51
305.4494086443680203
  0
ARC
  5
2849E
  8
0
 10
3157.2141301545912029
 20
152.2758588528230916
 30
0.0
 40
0.0277881948752947
 50
144.6388630483035911
 51
226.8880266333574127
  0
ARC
  5
2849F
  8
0
 10
3157.1974503838969213
 20
152.28381912140091
 30
0.0
 40
0.0866312339315576
 50
168.1317840137947996
 51
220.4888310506360938
  0
ARC
  5
284A0
  8
0
 10
3157.2010509359129173
 20
152.2781885457654028
 30
0.0
 40
0.0914372975453921
 50
123.6400579906514992
 51
165.1416608147289935
  0
ARC
  5
284A1
  8
0
 10
3157.2234923177297787
 20
152.2425385878773909
 30
0.0
 40
0.1335532945893323
 50
58.7623699990446724
 51
123.1827603240419933
  0
ARC
  5
284A2
  8
0
 10
3157.2498713943041366
 20
152.2784232346033946
 30
0.0
 40
0.089278394353289
 50
329.713206178233122
 51
61.2951955315020314
  0
ARC
  5
284A3
  8
0
 10
3157.2011345062160217
 20
152.2824476470410104
 30
0.0
 40
0.0886092418281308
 50
218.2670653219672943
 51
237.3017967854349024
  0
ARC
  5
284A4
  8
0
 10
3157.2293754911079304
 20
152.3264405364797085
 30
0.0
 40
0.1408866513737705
 50
237.3017967854349024
 51
283.2565643154222244
  0
ARC
  5
284A5
  8
0
 10
3157.236221163565915
 20
152.2973829274741888
 30
0.0
 40
0.111033546467795
 50
283.2565643154222244
 51
324.8113556111154026
  0
ARC
  5
284A6
  8
0
 10
3157.2004137163371524
 20
152.3045585585022081
 30
0.0
 40
0.1015335136477515
 50
200.3400832451557108
 51
221.5023126784923875
  0
ARC
  5
284A7
  8
0
 10
3157.1812036419419201
 20
152.2974372542545893
 30
0.0
 40
0.0810459580978998
 50
156.7355567498850917
 51
200.3400832451557108
  0
ARC
  5
284A8
  8
0
 10
3157.1984770448430027
 20
152.2900108560764068
 30
0.0
 40
0.0998481345056472
 50
120.2259367327206974
 51
156.7355567498836137
  0
ARC
  5
284A9
  8
0
 10
3157.2225549190420679
 20
152.2486839691482032
 30
0.0
 40
0.1476775774160275
 50
86.2288736475637307
 51
120.2259367327206974
  0
ARC
  5
284AA
  8
0
 10
3157.2224572987011015
 20
152.2472029382963967
 30
0.0
 40
0.1491618220438097
 50
57.2579613125537534
 51
86.2288736475637307
  0
ARC
  5
284AB
  8
0
 10
3157.2448712820828405
 20
152.2820600227059913
 30
0.0
 40
0.1077202609654002
 50
35.7784801463069329
 51
57.2579613125537534
  0
ARC
  5
284AC
  8
0
 10
3157.2569488788581111
 20
152.2907637662486877
 30
0.0
 40
0.0928332365645158
 50
350.0596684887684091
 51
35.7784801463069329
  0
ARC
  5
284AD
  8
0
 10
3157.2719346316221163
 20
152.2881374623179909
 30
0.0
 40
0.0776190899158105
 50
315.1512833024855809
 51
350.0596684887684091
  0
ARC
  5
284AE
  8
0
 10
3157.6490259553920623
 20
152.7069937986063906
 30
0.0
 40
0.0420590590897079
 50
72.9319516266121752
 51
141.5812254387950873
  0
ARC
  5
284AF
  8
0
 10
3157.6483675680269698
 20
152.7048494227506978
 30
0.0
 40
0.0443022313373366
 50
25.7194097690807411
 51
72.9319516266121752
  0
ARC
  5
284B0
  8
0
 10
3157.6615233499192072
 20
152.7156611825818118
 30
0.0
 40
0.0280491097828503
 50
305.0368248584052253
 51
17.4556643734776991
  0
ARC
  5
284B1
  8
0
 10
3157.6511545373177796
 20
152.7298766574405988
 30
0.0
 40
0.0456424498849537
 50
226.5128379790481006
 51
305.4494086443680203
  0
ARC
  5
284B2
  8
0
 10
3157.638734951630795
 20
152.7170476785780977
 30
0.0
 40
0.0277881948752947
 50
144.6388630483035911
 51
226.8880266333574127
  0
ARC
  5
284B3
  8
0
 10
3157.6220551809369681
 20
152.7250079471558024
 30
0.0
 40
0.0866312339315576
 50
168.1317840137947996
 51
220.4888310506360938
  0
ARC
  5
284B4
  8
0
 10
3157.6256557329529642
 20
152.7193773715202951
 30
0.0
 40
0.0914372975453921
 50
123.6400579906514992
 51
165.1416608147289935
  0
ARC
  5
284B5
  8
0
 10
3157.6480971147698256
 20
152.6837274136323117
 30
0.0
 40
0.1335532945893323
 50
58.7623699990446724
 51
123.1827603240419933
  0
ARC
  5
284B6
  8
0
 10
3157.6744761913441835
 20
152.719612060358287
 30
0.0
 40
0.089278394353289
 50
329.713206178233122
 51
61.2951955315020314
  0
ARC
  5
284B7
  8
0
 10
3157.625739303255159
 20
152.7236364727959881
 30
0.0
 40
0.0886092418281308
 50
218.2670653219672943
 51
237.3017967854349024
  0
ARC
  5
284B8
  8
0
 10
3157.6539802881470678
 20
152.7676293622346861
 30
0.0
 40
0.1408866513737705
 50
237.3017967854349024
 51
283.2565643154222244
  0
ARC
  5
284B9
  8
0
 10
3157.6608259606050524
 20
152.7385717532291096
 30
0.0
 40
0.111033546467795
 50
283.2565643154222244
 51
324.8113556111154026
  0
ARC
  5
284BA
  8
0
 10
3157.625018513375835
 20
152.7457473842572142
 30
0.0
 40
0.1015335136477515
 50
200.3400832451557108
 51
221.5023126784923875
  0
ARC
  5
284BB
  8
0
 10
3157.6058084389819669
 20
152.7386260800095101
 30
0.0
 40
0.0810459580978998
 50
156.7355567498850917
 51
200.3400832451557108
  0
ARC
  5
284BC
  8
0
 10
3157.6230818418830495
 20
152.7311996818314128
 30
0.0
 40
0.0998481345056472
 50
120.2259367327206974
 51
156.7355567498836137
  0
ARC
  5
284BD
  8
0
 10
3157.6471597160821148
 20
152.6898727949030956
 30
0.0
 40
0.1476775774160275
 50
86.2288736475637307
 51
120.2259367327206974
  0
ARC
  5
284BE
  8
0
 10
3157.6470620957388746
 20
152.6883917640514028
 30
0.0
 40
0.1491618220438097
 50
57.2579613125537534
 51
86.2288736475637307
  0
ARC
  5
284BF
  8
0
 10
3157.6694760791219778
 20
152.7232488484609121
 30
0.0
 40
0.1077202609654002
 50
35.7784801463069329
 51
57.2579613125537534
  0
ARC
  5
284C0
  8
0
 10
3157.6815536758967937
 20
152.7319525920036085
 30
0.0
 40
0.0928332365645158
 50
350.0596684887684091
 51
35.7784801463069329
  0
ARC
  5
284C1
  8
0
 10
3157.6965394286607989
 20
152.7293262880729117
 30
0.0
 40
0.0776190899158105
 50
315.1512833024855809
 51
350.0596684887684091
  0
ARC
  5
284C2
  8
0
 10
3158.2781551800530906
 20
152.8738731570919072
 30
0.0
 40
0.0420590590897079
 50
72.9319516266121752
 51
141.5812254387950873
  0
ARC
  5
284C3
  8
0
 10
3158.2774967926889076
 20
152.871728781236186
 30
0.0
 40
0.0443022313373366
 50
25.7194097690807411
 51
72.9319516266121752
  0
ARC
  5
284C4
  8
0
 10
3158.2906525745797808
 20
152.8825405410674136
 30
0.0
 40
0.0280491097828503
 50
305.0368248584052253
 51
17.4556643734776991
  0
ARC
  5
284C5
  8
0
 10
3158.2802837619801721
 20
152.896756015926087
 30
0.0
 40
0.0456424498849537
 50
226.5128379790481006
 51
305.4494086443680203
  0
ARC
  5
284C6
  8
0
 10
3158.2678641762918232
 20
152.8839270370636996
 30
0.0
 40
0.0277881948752947
 50
144.6388630483035911
 51
226.8880266333574127
  0
ARC
  5
284C7
  8
0
 10
3158.2511844055979964
 20
152.8918873056414043
 30
0.0
 40
0.0866312339315576
 50
168.1317840137947996
 51
220.4888310506360938
  0
ARC
  5
284C8
  8
0
 10
3158.2547849576139924
 20
152.886256730005897
 30
0.0
 40
0.0914372975453921
 50
123.6400579906514992
 51
165.1416608147289935
  0
ARC
  5
284C9
  8
0
 10
3158.2772263394308538
 20
152.8506067721179136
 30
0.0
 40
0.1335532945893323
 50
58.7623699990446724
 51
123.1827603240419933
  0
ARC
  5
284CA
  8
0
 10
3158.3036054160052117
 20
152.8864914188438888
 30
0.0
 40
0.089278394353289
 50
329.713206178233122
 51
61.2951955315020314
  0
ARC
  5
284CB
  8
0
 10
3158.2548685279170968
 20
152.8905158312815047
 30
0.0
 40
0.0886092418281308
 50
218.2670653219672943
 51
237.3017967854349024
  0
ARC
  5
284CC
  8
0
 10
3158.283109512808096
 20
152.9345087207202027
 30
0.0
 40
0.1408866513737705
 50
237.3017967854349024
 51
283.2565643154222244
  0
ARC
  5
284CD
  8
0
 10
3158.2899551852660807
 20
152.9054511117147115
 30
0.0
 40
0.111033546467795
 50
283.2565643154222244
 51
324.8113556111154026
  0
ARC
  5
284CE
  8
0
 10
3158.2541477380377728
 20
152.9126267427427024
 30
0.0
 40
0.1015335136477515
 50
200.3400832451557108
 51
221.5023126784923875
  0
ARC
  5
284CF
  8
0
 10
3158.2349376636439047
 20
152.905505438495112
 30
0.0
 40
0.0810459580978998
 50
156.7355567498850917
 51
200.3400832451557108
  0
ARC
  5
284D0
  8
0
 10
3158.2522110665440778
 20
152.898079040316901
 30
0.0
 40
0.0998481345056472
 50
120.2259367327206974
 51
156.7355567498836137
  0
ARC
  5
284D1
  8
0
 10
3158.276288940743143
 20
152.8567521533886975
 30
0.0
 40
0.1476775774160275
 50
86.2288736475637307
 51
120.2259367327206974
  0
ARC
  5
284D2
  8
0
 10
3158.2761913204008124
 20
152.855271122536891
 30
0.0
 40
0.1491618220438097
 50
57.2579613125537534
 51
86.2288736475637307
  0
ARC
  5
284D3
  8
0
 10
3158.2986053037839156
 20
152.890128206946514
 30
0.0
 40
0.1077202609654002
 50
35.7784801463069329
 51
57.2579613125537534
  0
ARC
  5
284D4
  8
0
 10
3158.310682900557822
 20
152.8988319504892104
 30
0.0
 40
0.0928332365645158
 50
350.0596684887684091
 51
35.7784801463069329
  0
ARC
  5
284D5
  8
0
 10
3158.3256686533218272
 20
152.8962056465585135
 30
0.0
 40
0.0776190899158105
 50
315.1512833024855809
 51
350.0596684887684091
  0
LINE
  5
284D6
  8
0
 10
3158.3077474358051404
 20
150.0325420532496139
 30
0.0
 11
3158.2345341894051671
 21
150.0325420518495889
 31
0.0
  0
ARC
  5
284D7
  8
0
 10
3158.2345290679859318
 20
150.0353303214021139
 30
0.0
 40
0.0027882742559012
 50
194.5688989493343968
 51
270.1052392277176182
  0
ARC
  5
284D8
  8
0
 10
3157.7238809457790012
 20
149.9527724801436932
 30
0.0
 40
0.5145028458514375
 50
9.1545553785041758
 51
16.6339069240932709
  0
ARC
  5
284D9
  8
0
 10
3158.0833108121851183
 20
150.0599202256013882
 30
0.0
 40
0.1394424749952595
 50
16.7262691350426813
 51
55.9746465946219374
  0
ARC
  5
284DA
  8
0
 10
3158.0651272063300894
 20
149.9832012489756039
 30
0.0
 40
0.215013605397261
 50
63.4191612543324581
 51
85.6752382727975004
  0
ARC
  5
284DB
  8
0
 10
3158.2965296342608781
 20
152.6879547509118993
 30
0.0
 40
2.4996319103754341
 50
255.7177664331410085
 51
265.0614077538833158
  0
ARC
  5
284DC
  8
0
 10
3158.2393201723430138
 20
152.4599954131755055
 30
0.0
 40
2.2646049271454212
 50
234.7249961093233139
 51
255.6976275651595927
  0
ARC
  5
284DD
  8
0
 10
3158.933742286928009
 20
153.4453269024484996
 30
0.0
 40
3.4700497859140031
 50
228.1985095245161119
 51
234.7598590254015107
  0
ARC
  5
284DE
  8
0
 10
3158.2352461516661606
 20
150.8846591567235009
 30
0.0
 40
0.3384381781409146
 50
254.7349849447672057
 51
267.7573312409717232
  0
ARC
  5
284DF
  8
0
 10
3156.9458767858400279
 20
150.8135633697148137
 30
0.0
 40
1.227136384161418
 50
334.9779944940102041
 51
347.9873150950070908
  0
ARC
  5
284E0
  8
0
 10
3157.5966676529951656
 20
150.4652078847915107
 30
0.0
 40
0.4917448078458682
 50
330.5270365452104784
 51
339.6903016945539093
  0
ARC
  5
284E1
  8
0
 10
3157.9838883956931568
 20
150.2442893183907984
 30
0.0
 40
0.0459760275894991
 50
301.405795592906486
 51
332.7851064188785131
  0
LINE
  5
284E2
  8
0
 10
3158.2318304483051179
 20
150.034628947649594
 30
0.0
 11
3158.2325170569320107
 21
150.5384231084173052
 31
0.0
  0
LINE
  5
284E3
  8
0
 10
3158.3097474471769601
 20
150.5389417650252142
 30
0.0
 11
3158.3105284914049662
 21
150.0349812300495955
 31
0.0
  0
ARC
  5
284E4
  8
0
 10
3158.3076960786888776
 20
150.0354056233892948
 30
0.0
 40
0.0028640306385288
 50
271.0274693475029721
 51
351.4785045150384235
  0
ARC
  5
284E5
  8
0
 10
3158.6170686842151554
 20
149.9950588334336885
 30
0.0
 40
0.3091289173786321
 50
152.5679929338373881
 51
172.579822790227297
  0
ARC
  5
284E6
  8
0
 10
3158.443579456801217
 20
150.0745638466171101
 30
0.0
 40
0.1188885792718861
 50
96.6836848362234349
 51
148.0522709624420088
  0
ARC
  5
284E7
  8
0
 10
3158.6353232808151006
 20
149.0131232786119142
 30
0.0
 40
1.197302686604869
 50
94.0250872062433842
 51
99.8868768469898924
  0
ARC
  5
284E8
  8
0
 10
3158.2764680923100968
 20
152.5402501734172915
 30
0.0
 40
2.3489088227869628
 50
276.7187568246786782
 51
289.9031717356148192
  0
ARC
  5
284E9
  8
0
 10
3158.1627768911471321
 20
152.7499448396605999
 30
0.0
 40
2.5850263126207449
 50
290.6903383668753236
 51
312.3410107691213966
  0
ARC
  5
284EA
  8
0
 10
3158.308475187644035
 20
150.8751056473475103
 30
0.0
 40
0.3288445853268825
 50
271.7983422545545977
 51
285.4612536972146017
  0
ARC
  5
284EB
  8
0
 10
3160.9572292929688047
 20
151.2968498527523025
 30
0.0
 40
2.665489583838879
 50
196.0890129499154
 51
203.7516551293790883
  0
ARC
  5
284EC
  8
0
 10
3158.5506014273878463
 20
150.237825265565391
 30
0.0
 40
0.0361568244383352
 50
203.7516551293776104
 51
241.4270593076888076
  0
ARC
  5
284ED
  8
0
 10
3159.2074995718899117
 20
153.2034422632505937
 30
0.0
 40
0.0268421309250733
 50
8.5748766975210948
 51
87.9624084768666421
  0
ARC
  5
284EE
  8
0
 10
3159.2076003463389497
 20
153.2062747820579034
 30
0.0
 40
0.0240078200240748
 50
87.9624084768666421
 51
159.0127425916182062
  0
ARC
  5
284EF
  8
0
 10
3159.2153248619410988
 20
153.2033115892361934
 30
0.0
 40
0.0322811901337913
 50
159.0127425916166999
 51
222.5380856837923886
  0
ARC
  5
284F0
  8
0
 10
3159.2085025883848175
 20
153.1999439342106086
 30
0.0
 40
0.0250682844449278
 50
227.4146075399339963
 51
326.3073112485025717
  0
ARC
  5
284F1
  8
0
 10
3159.1955201433820548
 20
153.2046536666063901
 30
0.0
 40
0.0386224760254502
 50
331.1838331046523081
 51
4.1437240453501829
  0
ARC
  5
284F2
  8
0
 10
3159.2030689170042024
 20
153.2090712860197073
 30
0.0
 40
0.0700290240786877
 50
306.9206342830943868
 51
339.2307331259606258
  0
ARC
  5
284F3
  8
0
 10
3159.2087762741698498
 20
153.2012877941135116
 30
0.0
 40
0.0603780176036005
 50
253.0163103836347886
 51
307.0276339973963218
  0
ARC
  5
284F4
  8
0
 10
3159.2103988342241792
 20
153.2066003574082913
 30
0.0
 40
0.0659328380229237
 50
207.1860476919565883
 51
253.0163103836347886
  0
ARC
  5
284F5
  8
0
 10
3159.2134067293159205
 20
153.2081452796996928
 30
0.0
 40
0.0693142900439592
 50
167.3101682965946111
 51
207.1860476919580094
  0
ARC
  5
284F6
  8
0
 10
3159.2131790855391955
 20
153.2081965389905918
 30
0.0
 40
0.0690809465105997
 50
135.9952662569710071
 51
167.3101682965946111
  0
ARC
  5
284F7
  8
0
 10
3159.2084363076828595
 20
153.2127773436498899
 30
0.0
 40
0.0624871833127678
 50
52.2119783142154787
 51
135.9952662569710071
  0
ARC
  5
284F8
  8
0
 10
3159.2056152877321438
 20
153.2091389362551865
 30
0.0
 40
0.0670911122797793
 50
5.6648672815048764
 51
52.2119783142154787
  0
ARC
  5
284F9
  8
0
 10
3159.1999221027831481
 20
153.2085742063721057
 30
0.0
 40
0.0728122375803954
 50
340.4746445562308281
 51
5.6648672815048764
  0
ARC
  5
284FA
  8
0
 10
3159.2108271723709549
 20
153.2282302578630038
 30
0.0
 40
0.0725731623058452
 50
322.6869450526792207
 51
335.7282888460360937
  0
ARC
  5
284FB
  8
0
 10
3159.194165712647191
 20
153.2357432941929005
 30
0.0
 40
0.0908501958464673
 50
335.7282888460360937
 51
14.0956669250649398
  0
ARC
  5
284FC
  8
0
 10
3159.1977034786359582
 20
153.2366316351647981
 30
0.0
 40
0.087202602410119
 50
14.0956669250649398
 51
46.4605741738265081
  0
ARC
  5
284FD
  8
0
 10
3159.2076535006831364
 20
153.2471023314460865
 30
0.0
 40
0.0727582810569489
 50
46.4605741738265081
 51
87.6293625330813342
  0
ARC
  5
284FE
  8
0
 10
3159.2078025052401244
 20
153.2507015573997933
 30
0.0
 40
0.0691559720997063
 50
87.6293625330813342
 51
132.3712850875938898
  0
ARC
  5
284FF
  8
0
 10
3159.2243394203878779
 20
153.2325730868321045
 30
0.0
 40
0.093693922457152
 50
132.3712850875938898
 51
154.2792678450163066
  0
ARC
  5
28500
  8
0
 10
3159.2142088303980927
 20
153.2374531260676918
 30
0.0
 40
0.0824492065209747
 50
154.2792678450163066
 51
183.8695927054803008
  0
ARC
  5
28501
  8
0
 10
3159.2286522920921925
 20
153.2384300819036866
 30
0.0
 40
0.0969256711585577
 50
183.8695927054803008
 51
214.0703614620138922
  0
LINE
  5
28502
  8
0
 10
3159.2723172530118063
 20
153.2007919082006993
 30
0.0
 11
3159.2822804482498213
 21
153.2578691038947909
 31
0.0
  0
ARC
  5
28503
  8
0
 10
3159.1504814863760657
 20
153.2936810171565014
 30
0.0
 40
0.1442342873926253
 50
330.6372712038830741
 51
338.6841727014319758
  0
LINE
  5
28504
  8
0
 10
3159.1444762097789862
 20
153.2008614427539896
 30
0.0
 11
3159.1344230022518786
 21
153.2582399796762047
 31
0.0
  0
ARC
  5
28505
  8
0
 10
3159.2238328808830374
 20
153.2749168226914946
 30
0.0
 40
0.0976097502695255
 50
199.6240714546594006
 51
211.2309359758008043
  0
ARC
  5
28506
  8
0
 10
3158.6794026636312083
 20
153.0966756275479952
 30
0.0
 40
0.0268421309250733
 50
8.5748766975210948
 51
87.9624084768666421
  0
ARC
  5
28507
  8
0
 10
3158.6795034380797915
 20
153.0995081463553902
 30
0.0
 40
0.0240078200240748
 50
87.9624084768666421
 51
159.0127425916182062
  0
ARC
  5
28508
  8
0
 10
3158.6872279536819406
 20
153.0965449535337086
 30
0.0
 40
0.0322811901337913
 50
159.0127425916166999
 51
222.5380856837923886
  0
ARC
  5
28509
  8
0
 10
3158.680405680126114
 20
153.0931772985080102
 30
0.0
 40
0.0250682844449278
 50
227.4146075399339963
 51
326.3073112485025717
  0
ARC
  5
2850A
  8
0
 10
3158.6674232351228966
 20
153.0978870309039053
 30
0.0
 40
0.0386224760254502
 50
331.1838331046523081
 51
4.1437240453501829
  0
ARC
  5
2850B
  8
0
 10
3158.6749720087459536
 20
153.102304650317194
 30
0.0
 40
0.0700290240786877
 50
306.9206342830943868
 51
339.2307331259606258
  0
ARC
  5
2850C
  8
0
 10
3158.6806793659111463
 20
153.0945211584109984
 30
0.0
 40
0.0603780176036005
 50
253.0163103836347886
 51
307.0276339973963218
  0
ARC
  5
2850D
  8
0
 10
3158.6823019259659304
 20
153.0998337217058065
 30
0.0
 40
0.0659328380229237
 50
207.1860476919565883
 51
253.0163103836347886
  0
ARC
  5
2850E
  8
0
 10
3158.6853098210572171
 20
153.1013786439970943
 30
0.0
 40
0.0693142900439592
 50
167.3101682965946111
 51
207.1860476919580094
  0
ARC
  5
2850F
  8
0
 10
3158.6850821772791278
 20
153.101429903288107
 30
0.0
 40
0.0690809465105997
 50
135.9952662569710071
 51
167.3101682965946111
  0
ARC
  5
28510
  8
0
 10
3158.680339399424156
 20
153.1060107079474051
 30
0.0
 40
0.0624871833127678
 50
52.2119783142154787
 51
135.9952662569710071
  0
ARC
  5
28511
  8
0
 10
3158.6775183794729855
 20
153.1023723005525881
 30
0.0
 40
0.0670911122797793
 50
5.6648672815048764
 51
52.2119783142154787
  0
ARC
  5
28512
  8
0
 10
3158.6718251945248994
 20
153.1018075706695072
 30
0.0
 40
0.0728122375803954
 50
340.4746445562308281
 51
5.6648672815048764
  0
ARC
  5
28513
  8
0
 10
3158.6827302641117967
 20
153.1214636221604906
 30
0.0
 40
0.0725731623058452
 50
322.6869450526792207
 51
335.7282888460360937
  0
ARC
  5
28514
  8
0
 10
3158.6660688043880327
 20
153.128976658490302
 30
0.0
 40
0.0908501958464673
 50
335.7282888460360937
 51
14.0956669250649398
  0
ARC
  5
28515
  8
0
 10
3158.6696065703781642
 20
153.1298649994623133
 30
0.0
 40
0.087202602410119
 50
14.0956669250649398
 51
46.4605741738265081
  0
ARC
  5
28516
  8
0
 10
3158.6795565924248876
 20
153.140335695743488
 30
0.0
 40
0.0727582810569489
 50
46.4605741738265081
 51
87.6293625330813342
  0
ARC
  5
28517
  8
0
 10
3158.6797055969809662
 20
153.1439349216971948
 30
0.0
 40
0.0691559720997063
 50
87.6293625330813342
 51
132.3712850875938898
  0
ARC
  5
28518
  8
0
 10
3158.6962425121291744
 20
153.1258064511295061
 30
0.0
 40
0.093693922457152
 50
132.3712850875938898
 51
154.2792678450163066
  0
ARC
  5
28519
  8
0
 10
3158.6861119221389345
 20
153.130686490365207
 30
0.0
 40
0.0824492065209747
 50
154.2792678450163066
 51
183.8695927054803008
  0
ARC
  5
2851A
  8
0
 10
3158.7005553838330343
 20
153.1316634462010882
 30
0.0
 40
0.0969256711585577
 50
183.8695927054803008
 51
214.0703614620138922
  0
LINE
  5
2851B
  8
0
 10
3158.7442203447531028
 20
153.094025272498186
 30
0.0
 11
3158.7541835399911179
 21
153.1511024681923061
 31
0.0
  0
ARC
  5
2851C
  8
0
 10
3158.6223845781169075
 20
153.1869143814539029
 30
0.0
 40
0.1442342873926253
 50
330.6372712038830741
 51
338.6841727014319758
  0
LINE
  5
2851D
  8
0
 10
3158.616379301519828
 20
153.0940948070513912
 30
0.0
 11
3158.6063260939931752
 21
153.1514733439736062
 31
0.0
  0
ARC
  5
2851E
  8
0
 10
3158.6957359726229697
 20
153.1681501869888962
 30
0.0
 40
0.0976097502695255
 50
199.6240714546594006
 51
211.2309359758008043
  0
ARC
  5
2851F
  8
0
 10
3159.3626356917748126
 20
152.7019490880109061
 30
0.0
 40
0.0268421309250733
 50
8.5748766975210948
 51
87.9624084768666421
  0
ARC
  5
28520
  8
0
 10
3159.3627364662238506
 20
152.704781606818301
 30
0.0
 40
0.0240078200240748
 50
87.9624084768666421
 51
159.0127425916182062
  0
ARC
  5
28521
  8
0
 10
3159.3704609818250901
 20
152.7018184139965911
 30
0.0
 40
0.0322811901337913
 50
159.0127425916166999
 51
222.5380856837923886
  0
ARC
  5
28522
  8
0
 10
3159.3636387082701731
 20
152.6984507589708926
 30
0.0
 40
0.0250682844449278
 50
227.4146075399339963
 51
326.3073112485025717
  0
ARC
  5
28523
  8
0
 10
3159.3506562632669556
 20
152.7031604913667877
 30
0.0
 40
0.0386224760254502
 50
331.1838331046523081
 51
4.1437240453501829
  0
ARC
  5
28524
  8
0
 10
3159.3582050368891032
 20
152.7075781107801049
 30
0.0
 40
0.0700290240786877
 50
306.9206342830943868
 51
339.2307331259606258
  0
ARC
  5
28525
  8
0
 10
3159.3639123940552054
 20
152.6997946188739093
 30
0.0
 40
0.0603780176036005
 50
253.0163103836347886
 51
307.0276339973963218
  0
ARC
  5
28526
  8
0
 10
3159.36553495410908
 20
152.705107182168689
 30
0.0
 40
0.0659328380229237
 50
207.1860476919565883
 51
253.0163103836347886
  0
ARC
  5
28527
  8
0
 10
3159.3685428492008214
 20
152.7066521044600904
 30
0.0
 40
0.0693142900439592
 50
167.3101682965946111
 51
207.1860476919580094
  0
ARC
  5
28528
  8
0
 10
3159.3683152054231869
 20
152.7067033637509894
 30
0.0
 40
0.0690809465105997
 50
135.9952662569710071
 51
167.3101682965946111
  0
ARC
  5
28529
  8
0
 10
3159.3635724275682151
 20
152.7112841684102875
 30
0.0
 40
0.0624871833127678
 50
52.2119783142154787
 51
135.9952662569710071
  0
ARC
  5
2852A
  8
0
 10
3159.3607514076170446
 20
152.7076457610156126
 30
0.0
 40
0.0670911122797793
 50
5.6648672815048764
 51
52.2119783142154787
  0
ARC
  5
2852B
  8
0
 10
3159.355058222668049
 20
152.7070810311323896
 30
0.0
 40
0.0728122375803954
 50
340.4746445562308281
 51
5.6648672815048764
  0
ARC
  5
2852C
  8
0
 10
3159.3659632922558558
 20
152.7267370826234014
 30
0.0
 40
0.0725731623058452
 50
322.6869450526792207
 51
335.7282888460360937
  0
ARC
  5
2852D
  8
0
 10
3159.3493018325320918
 20
152.7342501189532129
 30
0.0
 40
0.0908501958464673
 50
335.7282888460360937
 51
14.0956669250649398
  0
ARC
  5
2852E
  8
0
 10
3159.352839598520859
 20
152.7351384599251958
 30
0.0
 40
0.087202602410119
 50
14.0956669250649398
 51
46.4605741738265081
  0
ARC
  5
2852F
  8
0
 10
3159.3627896205680372
 20
152.7456091562065126
 30
0.0
 40
0.0727582810569489
 50
46.4605741738265081
 51
87.6293625330813342
  0
ARC
  5
28530
  8
0
 10
3159.3629386251241158
 20
152.7492083821601057
 30
0.0
 40
0.0691559720997063
 50
87.6293625330813342
 51
132.3712850875938898
  0
ARC
  5
28531
  8
0
 10
3159.3794755402727787
 20
152.7310799115923885
 30
0.0
 40
0.093693922457152
 50
132.3712850875938898
 51
154.2792678450163066
  0
ARC
  5
28532
  8
0
 10
3159.3693449502829935
 20
152.7359599508280894
 30
0.0
 40
0.0824492065209747
 50
154.2792678450163066
 51
183.8695927054803008
  0
ARC
  5
28533
  8
0
 10
3159.3837884119761839
 20
152.7369369066641127
 30
0.0
 40
0.0969256711585577
 50
183.8695927054803008
 51
214.0703614620138922
  0
LINE
  5
28534
  8
0
 10
3159.4274533728971619
 20
152.6992987329610969
 30
0.0
 11
3159.4374165681351769
 21
152.7563759286551885
 31
0.0
  0
ARC
  5
28535
  8
0
 10
3159.3056176062609666
 20
152.7921878419168991
 30
0.0
 40
0.1442342873926253
 50
330.6372712038830741
 51
338.6841727014319758
  0
LINE
  5
28536
  8
0
 10
3159.2996123296638871
 20
152.699368267514302
 30
0.0
 11
3159.28955912213587
 21
152.7567468044364887
 31
0.0
  0
ARC
  5
28537
  8
0
 10
3159.3789690007679383
 20
152.773423647451807
 30
0.0
 40
0.0976097502695255
 50
199.6240714546594006
 51
211.2309359758008043
  0
ARC
  5
28538
  8
0
 10
3159.8502095921890032
 20
152.5495424245609968
 30
0.0
 40
0.0268421309250733
 50
8.5748766975210948
 51
87.9624084768666421
  0
ARC
  5
28539
  8
0
 10
3159.8503103666389507
 20
152.5523749433683065
 30
0.0
 40
0.0240078200240748
 50
87.9624084768666421
 51
159.0127425916182062
  0
ARC
  5
2853A
  8
0
 10
3159.8580348822401902
 20
152.5494117505465965
 30
0.0
 40
0.0322811901337913
 50
159.0127425916166999
 51
222.5380856837923886
  0
ARC
  5
2853B
  8
0
 10
3159.8512126086848184
 20
152.5460440955210117
 30
0.0
 40
0.0250682844449278
 50
227.4146075399339963
 51
326.3073112485025717
  0
ARC
  5
2853C
  8
0
 10
3159.8382301636811462
 20
152.5507538279167932
 30
0.0
 40
0.0386224760254502
 50
331.1838331046523081
 51
4.1437240453501829
  0
ARC
  5
2853D
  8
0
 10
3159.8457789373042033
 20
152.5551714473301104
 30
0.0
 40
0.0700290240786877
 50
306.9206342830943868
 51
339.2307331259606258
  0
ARC
  5
2853E
  8
0
 10
3159.8514862944689412
 20
152.5473879554238863
 30
0.0
 40
0.0603780176036005
 50
253.0163103836347886
 51
307.0276339973963218
  0
ARC
  5
2853F
  8
0
 10
3159.8531088545241801
 20
152.5527005187186944
 30
0.0
 40
0.0659328380229237
 50
207.1860476919565883
 51
253.0163103836347886
  0
ARC
  5
28540
  8
0
 10
3159.8561167496159214
 20
152.5542454410100959
 30
0.0
 40
0.0693142900439592
 50
167.3101682965946111
 51
207.1860476919580094
  0
ARC
  5
28541
  8
0
 10
3159.8558891058378322
 20
152.5542967003009949
 30
0.0
 40
0.0690809465105997
 50
135.9952662569710071
 51
167.3101682965946111
  0
ARC
  5
28542
  8
0
 10
3159.8511463279819509
 20
152.558877504960293
 30
0.0
 40
0.0624871833127678
 50
52.2119783142154787
 51
135.9952662569710071
  0
ARC
  5
28543
  8
0
 10
3159.8483253080321447
 20
152.5552390975655896
 30
0.0
 40
0.0670911122797793
 50
5.6648672815048764
 51
52.2119783142154787
  0
ARC
  5
28544
  8
0
 10
3159.8426321230831491
 20
152.5546743676825088
 30
0.0
 40
0.0728122375803954
 50
340.4746445562308281
 51
5.6648672815048764
  0
ARC
  5
28545
  8
0
 10
3159.8535371926709558
 20
152.5743304191734921
 30
0.0
 40
0.0725731623058452
 50
322.6869450526792207
 51
335.7282888460360937
  0
ARC
  5
28546
  8
0
 10
3159.8368757329458276
 20
152.5818434555033036
 30
0.0
 40
0.0908501958464673
 50
335.7282888460360937
 51
14.0956669250649398
  0
ARC
  5
28547
  8
0
 10
3159.8404134989350496
 20
152.5827317964752012
 30
0.0
 40
0.087202602410119
 50
14.0956669250649398
 51
46.4605741738265081
  0
ARC
  5
28548
  8
0
 10
3159.8503635209831373
 20
152.5932024927564896
 30
0.0
 40
0.0727582810569489
 50
46.4605741738265081
 51
87.6293625330813342
  0
ARC
  5
28549
  8
0
 10
3159.8505125255392159
 20
152.5968017187101964
 30
0.0
 40
0.0691559720997063
 50
87.6293625330813342
 51
132.3712850875938898
  0
ARC
  5
2854A
  8
0
 10
3159.8670494406878788
 20
152.5786732481425076
 30
0.0
 40
0.093693922457152
 50
132.3712850875938898
 51
154.2792678450163066
  0
ARC
  5
2854B
  8
0
 10
3159.8569188506971841
 20
152.5835532873780949
 30
0.0
 40
0.0824492065209747
 50
154.2792678450163066
 51
183.8695927054803008
  0
ARC
  5
2854C
  8
0
 10
3159.8713623123908292
 20
152.5845302432140898
 30
0.0
 40
0.0969256711585577
 50
183.8695927054803008
 51
214.0703614620138922
  0
LINE
  5
2854D
  8
0
 10
3159.9150272733118072
 20
152.5468920695111024
 30
0.0
 11
3159.9249904685489128
 21
152.603969265205194
 31
0.0
  0
ARC
  5
2854E
  8
0
 10
3159.7931915066760666
 20
152.6397811784669045
 30
0.0
 40
0.1442342873926253
 50
330.6372712038830741
 51
338.6841727014319758
  0
LINE
  5
2854F
  8
0
 10
3159.7871862300789871
 20
152.5469616040643928
 30
0.0
 11
3159.7771330225509701
 21
152.6043401409866078
 31
0.0
  0
ARC
  5
28550
  8
0
 10
3159.8665429011821288
 20
152.6210169840018978
 30
0.0
 40
0.0976097502695255
 50
199.6240714546594006
 51
211.2309359758008043
  0
ARC
  5
28551
  8
0
 10
3158.7610751836209602
 20
150.4099952998824961
 30
0.0
 40
0.032544057421958
 50
68.5232888778039353
 51
144.355766804783002
  0
ARC
  5
28552
  8
0
 10
3158.7440535605128389
 20
150.4222014725237955
 30
0.0
 40
0.0115982630045883
 50
144.355766804783002
 51
236.4283658377738107
  0
ARC
  5
28553
  8
0
 10
3158.7671769325688729
 20
150.4229591215824939
 30
0.0
 40
0.0182701423768342
 50
15.3058211045231207
 51
71.4464918171222223
  0
ARC
  5
28554
  8
0
 10
3158.7726322234930194
 20
150.4244521160401007
 30
0.0
 40
0.0126142400159476
 50
295.7320191995611935
 51
15.3058211045215504
  0
ARC
  5
28555
  8
0
 10
3158.7575077900769429
 20
150.4397441728719116
 30
0.0
 40
0.0336884875590938
 50
233.8606435565446873
 51
307.6992331828976717
  0
ARC
  5
28556
  8
0
 10
3158.7889547543950357
 20
150.432906083975098
 30
0.0
 40
0.0343546845451782
 50
342.0678777653325255
 51
36.0444303789727201
  0
ARC
  5
28557
  8
0
 10
3158.7729166872350106
 20
150.4212347336276139
 30
0.0
 40
0.0541900070074988
 50
36.0444303789727201
 51
80.0288161776202998
  0
ARC
  5
28558
  8
0
 10
3158.7658280487248703
 20
150.380914496422406
 30
0.0
 40
0.0951286235473024
 50
80.0288161776202998
 51
124.5046570697463011
  0
ARC
  5
28559
  8
0
 10
3158.7343659115967966
 20
150.4266842197743017
 30
0.0
 40
0.0395882450071387
 50
124.5046570697454058
 51
188.8014576743501038
  0
ARC
  5
2855A
  8
0
 10
3158.7321226462058803
 20
150.4263368855044121
 30
0.0
 40
0.0373182492555917
 50
188.8014576743485122
 51
231.3215609320432122
  0
ARC
  5
2855B
  8
0
 10
3158.7531473152371291
 20
150.4526002101964934
 30
0.0
 40
0.0709604687390558
 50
231.3215609320432122
 51
277.5786541040176871
  0
ARC
  5
2855C
  8
0
 10
3158.7502087650791509
 20
150.4746863825610035
 30
0.0
 40
0.0932412695941094
 50
277.5786541040176871
 51
309.3579917447344201
  0
ARC
  5
2855D
  8
0
 10
3158.7863471086620848
 20
150.4306250182652889
 30
0.0
 40
0.0362554494236015
 50
309.3579917447344201
 51
346.7716940517008197
  0
LINE
  5
2855E
  8
0
 10
3158.8295671813048102
 20
150.4836710287897859
 30
0.0
 11
3158.8232255321909179
 21
150.4305064716089078
 31
0.0
  0
ARC
  5
2855F
  8
0
 10
3158.7915633487627929
 20
150.4692552913057
 30
0.0
 40
0.0442075529010529
 50
317.7844079458943156
 51
335.2645884268358145
  0
ARC
  5
28560
  8
0
 10
3158.7994683767351489
 20
150.4656134637183129
 30
0.0
 40
0.0355039688448612
 50
335.2645884268358145
 51
7.8030315002459201
  0
ARC
  5
28561
  8
0
 10
3158.8038390649458051
 20
150.4662124091219937
 30
0.0
 40
0.0310924327147971
 50
7.8030315002475339
 51
34.1600833714593222
  0
ARC
  5
28562
  8
0
 10
3158.7870529377260027
 20
150.454821656424798
 30
0.0
 40
0.0513784701304842
 50
34.1600833714593222
 51
57.2165275870697698
  0
ARC
  5
28563
  8
0
 10
3158.7699232907848454
 20
150.4282248012640082
 30
0.0
 40
0.0830141700403471
 50
57.2165275870697698
 51
86.6177239952931757
  0
ARC
  5
28564
  8
0
 10
3158.7671558763199755
 20
150.3813992484575124
 30
0.0
 40
0.1299214293767807
 50
86.6177239952931757
 51
105.4154698434658002
  0
ARC
  5
28565
  8
0
 10
3158.7547246676867871
 20
150.4264829180808931
 30
0.0
 40
0.0831552854819973
 50
105.4154698434658002
 51
132.1391864297216898
  0
ARC
  5
28566
  8
0
 10
3158.7369098546369059
 20
150.4461718751952901
 30
0.0
 40
0.0566030238783478
 50
132.1391864297216898
 51
162.4939021136950998
  0
ARC
  5
28567
  8
0
 10
3158.7132066787498843
 20
150.4536482314126999
 30
0.0
 40
0.0317487194343671
 50
162.4939021136950998
 51
232.5989060887675066
  0
LINE
  5
28568
  8
0
 10
3158.6950350356041781
 20
150.4221774097782998
 30
0.0
 11
3158.6939227920870508
 21
150.4284269526810078
 31
0.0
  0
LINE
  5
28569
  8
0
 10
3158.6939227920870508
 20
150.4284269526810078
 30
0.0
 11
3158.6865494148328253
 21
150.472012316656901
 31
0.0
  0
ARC
  5
2856A
  8
0
 10
3159.052601842211061
 20
150.7665865787203927
 30
0.0
 40
0.032544057421958
 50
68.5232888778039353
 51
144.355766804783002
  0
ARC
  5
2856B
  8
0
 10
3159.0355802191038492
 20
150.7787927513616921
 30
0.0
 40
0.0115982630045883
 50
144.355766804783002
 51
236.4283658377738107
  0
ARC
  5
2856C
  8
0
 10
3159.0587035911598832
 20
150.7795504004205043
 30
0.0
 40
0.0182701423768342
 50
15.3058211045231207
 51
71.4464918171222223
  0
ARC
  5
2856D
  8
0
 10
3159.0641588820831203
 20
150.7810433948779973
 30
0.0
 40
0.0126142400159476
 50
295.7320191995611935
 51
15.3058211045215504
  0
ARC
  5
2856E
  8
0
 10
3159.0490344486670438
 20
150.7963354517098082
 30
0.0
 40
0.0336884875590938
 50
233.8606435565446873
 51
307.6992331828976717
  0
ARC
  5
2856F
  8
0
 10
3159.0804814129860461
 20
150.7894973628131083
 30
0.0
 40
0.0343546845451782
 50
342.0678777653325255
 51
36.0444303789727201
  0
ARC
  5
28570
  8
0
 10
3159.0644433458251115
 20
150.7778260124655105
 30
0.0
 40
0.0541900070074988
 50
36.0444303789727201
 51
80.0288161776202998
  0
ARC
  5
28571
  8
0
 10
3159.0573547073158807
 20
150.737505775260388
 30
0.0
 40
0.0951286235473024
 50
80.0288161776202998
 51
124.5046570697463011
  0
ARC
  5
28572
  8
0
 10
3159.025892570187807
 20
150.7832754986121984
 30
0.0
 40
0.0395882450071387
 50
124.5046570697454058
 51
188.8014576743501038
  0
ARC
  5
28573
  8
0
 10
3159.0236493047959812
 20
150.7829281643423087
 30
0.0
 40
0.0373182492555917
 50
188.8014576743485122
 51
231.3215609320432122
  0
ARC
  5
28574
  8
0
 10
3159.0446739738281394
 20
150.8091914890343901
 30
0.0
 40
0.0709604687390558
 50
231.3215609320432122
 51
277.5786541040176871
  0
ARC
  5
28575
  8
0
 10
3159.0417354236701613
 20
150.8312776613989001
 30
0.0
 40
0.0932412695941094
 50
277.5786541040176871
 51
309.3579917447344201
  0
ARC
  5
28576
  8
0
 10
3159.0778737672530951
 20
150.7872162971032139
 30
0.0
 40
0.0362554494236015
 50
309.3579917447344201
 51
346.7716940517008197
  0
LINE
  5
28577
  8
0
 10
3159.1210938398958206
 20
150.8402623076277109
 30
0.0
 11
3159.1147521907810187
 21
150.7870977504468897
 31
0.0
  0
ARC
  5
28578
  8
0
 10
3159.0830900073528937
 20
150.8258465701437103
 30
0.0
 40
0.0442075529010529
 50
317.7844079458943156
 51
335.2645884268358145
  0
ARC
  5
28579
  8
0
 10
3159.0909950353261593
 20
150.8222047425562096
 30
0.0
 40
0.0355039688448612
 50
335.2645884268358145
 51
7.8030315002459201
  0
ARC
  5
2857A
  8
0
 10
3159.095365723535906
 20
150.8228036879598903
 30
0.0
 40
0.0310924327147971
 50
7.8030315002475339
 51
34.1600833714593222
  0
ARC
  5
2857B
  8
0
 10
3159.0785795963170131
 20
150.8114129352628083
 30
0.0
 40
0.0513784701304842
 50
34.1600833714593222
 51
57.2165275870697698
  0
ARC
  5
2857C
  8
0
 10
3159.0614499493749463
 20
150.7848160801019048
 30
0.0
 40
0.0830141700403471
 50
57.2165275870697698
 51
86.6177239952931757
  0
ARC
  5
2857D
  8
0
 10
3159.0586825349100764
 20
150.737990527295409
 30
0.0
 40
0.1299214293767807
 50
86.6177239952931757
 51
105.4154698434658002
  0
ARC
  5
2857E
  8
0
 10
3159.0462513262777975
 20
150.7830741969187898
 30
0.0
 40
0.0831552854819973
 50
105.4154698434658002
 51
132.1391864297216898
  0
ARC
  5
2857F
  8
0
 10
3159.0284365132270068
 20
150.8027631540331868
 30
0.0
 40
0.0566030238783478
 50
132.1391864297216898
 51
162.4939021136950998
  0
ARC
  5
28580
  8
0
 10
3159.0047333373399852
 20
150.8102395102507103
 30
0.0
 40
0.0317487194343671
 50
162.4939021136950998
 51
232.5989060887675066
  0
LINE
  5
28581
  8
0
 10
3158.9865616941938242
 20
150.7787686886161964
 30
0.0
 11
3158.9854494506771516
 21
150.7850182315189045
 31
0.0
  0
LINE
  5
28582
  8
0
 10
3158.9854494506771516
 20
150.7850182315189045
 30
0.0
 11
3158.9780760734229261
 21
150.8286035954949114
 31
0.0
  0
ARC
  5
28583
  8
0
 10
3159.5814384791101475
 20
150.8831397755585897
 30
0.0
 40
0.032544057421958
 50
68.5232888778039353
 51
144.355766804783002
  0
ARC
  5
28584
  8
0
 10
3159.5644168560020262
 20
150.8953459481998891
 30
0.0
 40
0.0115982630045883
 50
144.355766804783002
 51
236.4283658377738107
  0
ARC
  5
28585
  8
0
 10
3159.5875402280580602
 20
150.8961035972585876
 30
0.0
 40
0.0182701423768342
 50
15.3058211045231207
 51
71.4464918171222223
  0
ARC
  5
28586
  8
0
 10
3159.5929955189808425
 20
150.8975965917161943
 30
0.0
 40
0.0126142400159476
 50
295.7320191995611935
 51
15.3058211045215504
  0
ARC
  5
28587
  8
0
 10
3159.5778710855652207
 20
150.9128886485480052
 30
0.0
 40
0.0336884875590938
 50
233.8606435565446873
 51
307.6992331828976717
  0
ARC
  5
28588
  8
0
 10
3159.609318049884223
 20
150.9060505596511916
 30
0.0
 40
0.0343546845451782
 50
342.0678777653325255
 51
36.0444303789727201
  0
ARC
  5
28589
  8
0
 10
3159.5932799827241979
 20
150.8943792093037075
 30
0.0
 40
0.0541900070074988
 50
36.0444303789727201
 51
80.0288161776202998
  0
ARC
  5
2858A
  8
0
 10
3159.5861913442140576
 20
150.8540589720984997
 30
0.0
 40
0.0951286235473024
 50
80.0288161776202998
 51
124.5046570697463011
  0
ARC
  5
2858B
  8
0
 10
3159.5547292070859839
 20
150.8998286954503953
 30
0.0
 40
0.0395882450071387
 50
124.5046570697454058
 51
188.8014576743501038
  0
ARC
  5
2858C
  8
0
 10
3159.5524859416950676
 20
150.8994813611805057
 30
0.0
 40
0.0373182492555917
 50
188.8014576743485122
 51
231.3215609320432122
  0
ARC
  5
2858D
  8
0
 10
3159.5735106107258616
 20
150.9257446858725871
 30
0.0
 40
0.0709604687390558
 50
231.3215609320432122
 51
277.5786541040176871
  0
ARC
  5
2858E
  8
0
 10
3159.5705720605678835
 20
150.9478308582370971
 30
0.0
 40
0.0932412695941094
 50
277.5786541040176871
 51
309.3579917447344201
  0
ARC
  5
2858F
  8
0
 10
3159.6067104041508173
 20
150.9037694939414109
 30
0.0
 40
0.0362554494236015
 50
309.3579917447344201
 51
346.7716940517008197
  0
LINE
  5
28590
  8
0
 10
3159.6499304767939975
 20
150.9568155044659079
 30
0.0
 11
3159.6435888276791957
 21
150.9036509472850867
 31
0.0
  0
ARC
  5
28591
  8
0
 10
3159.6119266442519802
 20
150.9423997669817936
 30
0.0
 40
0.0442075529010529
 50
317.7844079458943156
 51
335.2645884268358145
  0
ARC
  5
28592
  8
0
 10
3159.6198316722238815
 20
150.9387579393944065
 30
0.0
 40
0.0355039688448612
 50
335.2645884268358145
 51
7.8030315002459201
  0
ARC
  5
28593
  8
0
 10
3159.6242023604340829
 20
150.9393568847980873
 30
0.0
 40
0.0310924327147971
 50
7.8030315002475339
 51
34.1600833714593222
  0
ARC
  5
28594
  8
0
 10
3159.60741623321519
 20
150.9279661321008916
 30
0.0
 40
0.0513784701304842
 50
34.1600833714593222
 51
57.2165275870697698
  0
ARC
  5
28595
  8
0
 10
3159.5902865862731232
 20
150.9013692769401871
 30
0.0
 40
0.0830141700403471
 50
57.2165275870697698
 51
86.6177239952931757
  0
ARC
  5
28596
  8
0
 10
3159.5875191718077986
 20
150.854543724133606
 30
0.0
 40
0.1299214293767807
 50
86.6177239952931757
 51
105.4154698434658002
  0
ARC
  5
28597
  8
0
 10
3159.5750879631759744
 20
150.8996273937571004
 30
0.0
 40
0.0831552854819973
 50
105.4154698434658002
 51
132.1391864297216898
  0
ARC
  5
28598
  8
0
 10
3159.5572731501260932
 20
150.9193163508714122
 30
0.0
 40
0.0566030238783478
 50
132.1391864297216898
 51
162.4939021136950998
  0
ARC
  5
28599
  8
0
 10
3159.5335699742390716
 20
150.9267927070889073
 30
0.0
 40
0.0317487194343671
 50
162.4939021136950998
 51
232.5989060887675066
  0
LINE
  5
2859A
  8
0
 10
3159.5153983310920012
 20
150.8953218854543934
 30
0.0
 11
3159.5142860875757833
 21
150.9015714283571015
 31
0.0
  0
LINE
  5
2859B
  8
0
 10
3159.5142860875757833
 20
150.9015714283571015
 30
0.0
 11
3159.5069127103220126
 21
150.9451567923331083
 31
0.0
  0
ARC
  5
2859C
  8
0
 10
3159.5866302750328032
 20
151.3141028465483089
 30
0.0
 40
0.032544057421958
 50
68.5232888778039353
 51
144.355766804783002
  0
ARC
  5
2859D
  8
0
 10
3159.5696086519251367
 20
151.3263090191896083
 30
0.0
 40
0.0115982630045883
 50
144.355766804783002
 51
236.4283658377738107
  0
ARC
  5
2859E
  8
0
 10
3159.5927320239811706
 20
151.3270666682483068
 30
0.0
 40
0.0182701423768342
 50
15.3058211045231207
 51
71.4464918171222223
  0
ARC
  5
2859F
  8
0
 10
3159.5981873149062267
 20
151.3285596627059135
 30
0.0
 40
0.0126142400159476
 50
295.7320191995611935
 51
15.3058211045215504
  0
ARC
  5
285A0
  8
0
 10
3159.5830628814887859
 20
151.343851719537696
 30
0.0
 40
0.0336884875590938
 50
233.8606435565446873
 51
307.6992331828976717
  0
ARC
  5
285A1
  8
0
 10
3159.6145098458077882
 20
151.3370136306409961
 30
0.0
 40
0.0343546845451782
 50
342.0678777653325255
 51
36.0444303789727201
  0
ARC
  5
285A2
  8
0
 10
3159.5984717786468536
 20
151.3253422802933983
 30
0.0
 40
0.0541900070074988
 50
36.0444303789727201
 51
80.0288161776202998
  0
ARC
  5
285A3
  8
0
 10
3159.5913831401380776
 20
151.2850220430883041
 30
0.0
 40
0.0951286235473024
 50
80.0288161776202998
 51
124.5046570697463011
  0
ARC
  5
285A4
  8
0
 10
3159.5599210030090944
 20
151.3307917664400861
 30
0.0
 40
0.0395882450071387
 50
124.5046570697454058
 51
188.8014576743501038
  0
ARC
  5
285A5
  8
0
 10
3159.5576777376181781
 20
151.3304444321701965
 30
0.0
 40
0.0373182492555917
 50
188.8014576743485122
 51
231.3215609320432122
  0
ARC
  5
285A6
  8
0
 10
3159.5787024066498816
 20
151.3567077568623063
 30
0.0
 40
0.0709604687390558
 50
231.3215609320432122
 51
277.5786541040176871
  0
ARC
  5
285A7
  8
0
 10
3159.5757638564919034
 20
151.3787939292267879
 30
0.0
 40
0.0932412695941094
 50
277.5786541040176871
 51
309.3579917447344201
  0
ARC
  5
285A8
  8
0
 10
3159.6119022000748373
 20
151.3347325649311017
 30
0.0
 40
0.0362554494236015
 50
309.3579917447344201
 51
346.7716940517008197
  0
LINE
  5
285A9
  8
0
 10
3159.655122272717108
 20
151.3877785754555987
 30
0.0
 11
3159.6487806236032156
 21
151.3346140182746922
 31
0.0
  0
ARC
  5
285AA
  8
0
 10
3159.6171184401750907
 20
151.3733628379715981
 30
0.0
 40
0.0442075529010529
 50
317.7844079458943156
 51
335.2645884268358145
  0
ARC
  5
285AB
  8
0
 10
3159.6250234681469919
 20
151.3697210103840973
 30
0.0
 40
0.0355039688448612
 50
335.2645884268358145
 51
7.8030315002459201
  0
ARC
  5
285AC
  8
0
 10
3159.6293941563581029
 20
151.3703199557878065
 30
0.0
 40
0.0310924327147971
 50
7.8030315002475339
 51
34.1600833714593222
  0
ARC
  5
285AD
  8
0
 10
3159.61260802913921
 20
151.3589292030906108
 30
0.0
 40
0.0513784701304842
 50
34.1600833714593222
 51
57.2165275870697698
  0
ARC
  5
285AE
  8
0
 10
3159.5954783821971432
 20
151.3323323479299063
 30
0.0
 40
0.0830141700403471
 50
57.2165275870697698
 51
86.6177239952931757
  0
ARC
  5
285AF
  8
0
 10
3159.5927109677331828
 20
151.2855067951232968
 30
0.0
 40
0.1299214293767807
 50
86.6177239952931757
 51
105.4154698434658002
  0
ARC
  5
285B0
  8
0
 10
3159.5802797590990849
 20
151.3305904647467059
 30
0.0
 40
0.0831552854819973
 50
105.4154698434658002
 51
132.1391864297216898
  0
ARC
  5
285B1
  8
0
 10
3159.5624649460492037
 20
151.3502794218611029
 30
0.0
 40
0.0566030238783478
 50
132.1391864297216898
 51
162.4939021136950998
  0
ARC
  5
285B2
  8
0
 10
3159.5387617701630916
 20
151.357755778078598
 30
0.0
 40
0.0317487194343671
 50
162.4939021136950998
 51
232.5989060887675066
  0
LINE
  5
285B3
  8
0
 10
3159.5205901270160211
 20
151.3262849564441126
 30
0.0
 11
3159.5194778834988938
 21
151.3325344993467922
 31
0.0
  0
LINE
  5
285B4
  8
0
 10
3159.5194778834988938
 20
151.3325344993467922
 30
0.0
 11
3159.512104506245123
 21
151.3761198633227139
 31
0.0
  0
ARC
  5
285B5
  8
0
 10
3159.9823394350542003
 20
151.679105895636809
 30
0.0
 40
0.032544057421958
 50
68.5232888778039353
 51
144.355766804783002
  0
ARC
  5
285B6
  8
0
 10
3159.965317811946079
 20
151.6913120682781084
 30
0.0
 40
0.0115982630045883
 50
144.355766804783002
 51
236.4283658377738107
  0
ARC
  5
285B7
  8
0
 10
3159.988441184002113
 20
151.6920697173368069
 30
0.0
 40
0.0182701423768342
 50
15.3058211045231207
 51
71.4464918171222223
  0
ARC
  5
285B8
  8
0
 10
3159.9938964749258048
 20
151.6935627117944136
 30
0.0
 40
0.0126142400159476
 50
295.7320191995611935
 51
15.3058211045215504
  0
ARC
  5
285B9
  8
0
 10
3159.978772041510183
 20
151.7088547686261109
 30
0.0
 40
0.0336884875590938
 50
233.8606435565446873
 51
307.6992331828976717
  0
ARC
  5
285BA
  8
0
 10
3160.0102190058278211
 20
151.702016679729411
 30
0.0
 40
0.0343546845451782
 50
342.0678777653325255
 51
36.0444303789727201
  0
ARC
  5
285BB
  8
0
 10
3159.994180938667796
 20
151.6903453293818131
 30
0.0
 40
0.0541900070074988
 50
36.0444303789727201
 51
80.0288161776202998
  0
ARC
  5
285BC
  8
0
 10
3159.9870923001581104
 20
151.6500250921766906
 30
0.0
 40
0.0951286235473024
 50
80.0288161776202998
 51
124.5046570697463011
  0
ARC
  5
285BD
  8
0
 10
3159.9556301630300368
 20
151.6957948155285862
 30
0.0
 40
0.0395882450071387
 50
124.5046570697454058
 51
188.8014576743501038
  0
ARC
  5
285BE
  8
0
 10
3159.9533868976391204
 20
151.6954474812586113
 30
0.0
 40
0.0373182492555917
 50
188.8014576743485122
 51
231.3215609320432122
  0
ARC
  5
285BF
  8
0
 10
3159.9744115666699145
 20
151.7217108059508064
 30
0.0
 40
0.0709604687390558
 50
231.3215609320432122
 51
277.5786541040176871
  0
ARC
  5
285C0
  8
0
 10
3159.9714730165128458
 20
151.743796978315288
 30
0.0
 40
0.0932412695941094
 50
277.5786541040176871
 51
309.3579917447344201
  0
ARC
  5
285C1
  8
0
 10
3160.0076113600948702
 20
151.6997356140196018
 30
0.0
 40
0.0362554494236015
 50
309.3579917447344201
 51
346.7716940517008197
  0
LINE
  5
285C2
  8
0
 10
3160.0508314327380504
 20
151.7527816245440135
 30
0.0
 11
3160.0444897836227938
 21
151.6996170673631923
 31
0.0
  0
ARC
  5
285C3
  8
0
 10
3160.012827600196033
 20
151.7383658870600129
 30
0.0
 40
0.0442075529010529
 50
317.7844079458943156
 51
335.2645884268358145
  0
ARC
  5
285C4
  8
0
 10
3160.0207326281679343
 20
151.7347240594725974
 30
0.0
 40
0.0355039688448612
 50
335.2645884268358145
 51
7.8030315002459201
  0
ARC
  5
285C5
  8
0
 10
3160.0251033163790453
 20
151.7353230048763066
 30
0.0
 40
0.0310924327147971
 50
7.8030315002475339
 51
34.1600833714593222
  0
ARC
  5
285C6
  8
0
 10
3160.0083171891587881
 20
151.7239322521791109
 30
0.0
 40
0.0513784701304842
 50
34.1600833714593222
 51
57.2165275870697698
  0
ARC
  5
285C7
  8
0
 10
3159.9911875422171761
 20
151.6973353970182927
 30
0.0
 40
0.0830141700403471
 50
57.2165275870697698
 51
86.6177239952931757
  0
ARC
  5
285C8
  8
0
 10
3159.9884201277532156
 20
151.6505098442117969
 30
0.0
 40
0.1299214293767807
 50
86.6177239952931757
 51
105.4154698434658002
  0
ARC
  5
285C9
  8
0
 10
3159.9759889191200273
 20
151.6955935138352061
 30
0.0
 40
0.0831552854819973
 50
105.4154698434658002
 51
132.1391864297216898
  0
ARC
  5
285CA
  8
0
 10
3159.9581741060701461
 20
151.7152824709496031
 30
0.0
 40
0.0566030238783478
 50
132.1391864297216898
 51
162.4939021136950998
  0
ARC
  5
285CB
  8
0
 10
3159.9344709301831244
 20
151.7227588271670129
 30
0.0
 40
0.0317487194343671
 50
162.4939021136950998
 51
232.5989060887675066
  0
LINE
  5
285CC
  8
0
 10
3159.9162992870369635
 20
151.6912880055326127
 30
0.0
 11
3159.9151870435198362
 21
151.6975375484352071
 31
0.0
  0
LINE
  5
285CD
  8
0
 10
3159.9151870435198362
 20
151.6975375484352071
 30
0.0
 11
3159.9078136662660654
 21
151.741122912411214
 31
0.0
  0
ARC
  5
285CE
  8
0
 10
3159.6975800539999
 20
152.0429741663967036
 30
0.0
 40
0.032544057421958
 50
68.5232888778039353
 51
144.355766804783002
  0
ARC
  5
285CF
  8
0
 10
3159.6805584308917787
 20
152.055180339038003
 30
0.0
 40
0.0115982630045883
 50
144.355766804783002
 51
236.4283658377738107
  0
ARC
  5
285D0
  8
0
 10
3159.7036818029478127
 20
152.0559379880967015
 30
0.0
 40
0.0182701423768342
 50
15.3058211045231207
 51
71.4464918171222223
  0
ARC
  5
285D1
  8
0
 10
3159.7091370938719592
 20
152.0574309825543082
 30
0.0
 40
0.0126142400159476
 50
295.7320191995611935
 51
15.3058211045215504
  0
ARC
  5
285D2
  8
0
 10
3159.6940126604558827
 20
152.0727230393860907
 30
0.0
 40
0.0336884875590938
 50
233.8606435565446873
 51
307.6992331828976717
  0
ARC
  5
285D3
  8
0
 10
3159.725459624774885
 20
152.0658849504893055
 30
0.0
 40
0.0343546845451782
 50
342.0678777653325255
 51
36.0444303789727201
  0
ARC
  5
285D4
  8
0
 10
3159.7094215576139504
 20
152.0542136001417077
 30
0.0
 40
0.0541900070074988
 50
36.0444303789727201
 51
80.0288161776202998
  0
ARC
  5
285D5
  8
0
 10
3159.7023329191038101
 20
152.0138933629366136
 30
0.0
 40
0.0951286235473024
 50
80.0288161776202998
 51
124.5046570697463011
  0
ARC
  5
285D6
  8
0
 10
3159.6708707819761912
 20
152.0596630862885092
 30
0.0
 40
0.0395882450071387
 50
124.5046570697454058
 51
188.8014576743501038
  0
ARC
  5
285D7
  8
0
 10
3159.6686275165839106
 20
152.0593157520185912
 30
0.0
 40
0.0373182492555917
 50
188.8014576743485122
 51
231.3215609320432122
  0
ARC
  5
285D8
  8
0
 10
3159.6896521856160689
 20
152.085579076710701
 30
0.0
 40
0.0709604687390558
 50
231.3215609320432122
 51
277.5786541040176871
  0
ARC
  5
285D9
  8
0
 10
3159.6867136354590002
 20
152.107665249075211
 30
0.0
 40
0.0932412695941094
 50
277.5786541040176871
 51
309.3579917447344201
  0
ARC
  5
285DA
  8
0
 10
3159.7228519790410246
 20
152.0636038847794964
 30
0.0
 40
0.0362554494236015
 50
309.3579917447344201
 51
346.7716940517008197
  0
LINE
  5
285DB
  8
0
 10
3159.7660720516842048
 20
152.1166498953039081
 30
0.0
 11
3159.7597304025698577
 21
152.0634853381230869
 31
0.0
  0
ARC
  5
285DC
  8
0
 10
3159.7280682191421874
 20
152.1022341578199075
 30
0.0
 40
0.0442075529010529
 50
317.7844079458943156
 51
335.2645884268358145
  0
ARC
  5
285DD
  8
0
 10
3159.7359732471140887
 20
152.098592330232492
 30
0.0
 40
0.0355039688448612
 50
335.2645884268358145
 51
7.8030315002459201
  0
ARC
  5
285DE
  8
0
 10
3159.7403439353238355
 20
152.0991912756362012
 30
0.0
 40
0.0310924327147971
 50
7.8030315002475339
 51
34.1600833714593222
  0
ARC
  5
285DF
  8
0
 10
3159.7235578081049425
 20
152.0878005229390055
 30
0.0
 40
0.0513784701304842
 50
34.1600833714593222
 51
57.2165275870697698
  0
ARC
  5
285E0
  8
0
 10
3159.7064281611628758
 20
152.0612036677781873
 30
0.0
 40
0.0830141700403471
 50
57.2165275870697698
 51
86.6177239952931757
  0
ARC
  5
285E1
  8
0
 10
3159.7036607466989153
 20
152.0143781149716915
 30
0.0
 40
0.1299214293767807
 50
86.6177239952931757
 51
105.4154698434658002
  0
ARC
  5
285E2
  8
0
 10
3159.6912295380661817
 20
152.0594617845951007
 30
0.0
 40
0.0831552854819973
 50
105.4154698434658002
 51
132.1391864297216898
  0
ARC
  5
285E3
  8
0
 10
3159.6734147250149363
 20
152.0791507417094977
 30
0.0
 40
0.0566030238783478
 50
132.1391864297216898
 51
162.4939021136950998
  0
ARC
  5
285E4
  8
0
 10
3159.6497115491288241
 20
152.0866270979269075
 30
0.0
 40
0.0317487194343671
 50
162.4939021136950998
 51
232.5989060887675066
  0
LINE
  5
285E5
  8
0
 10
3159.6315399059831179
 20
152.0551562762925073
 30
0.0
 11
3159.6304276624659906
 21
152.061405819195187
 31
0.0
  0
LINE
  5
285E6
  8
0
 10
3159.6304276624659906
 20
152.061405819195187
 30
0.0
 11
3159.6230542852122198
 21
152.1049911831711086
 31
0.0
  0
ARC
  5
285E7
  8
0
 10
3158.7398210775290863
 20
151.1659180547823951
 30
0.0
 40
0.0255798350541456
 50
19.2612508583356998
 51
91.9432184961061552
  0
ARC
  5
285E8
  8
0
 10
3158.7399564293641561
 20
151.1619287374722091
 30
0.0
 40
0.0295714478510929
 50
91.9432184961061552
 51
145.2519117537461
  0
ARC
  5
285E9
  8
0
 10
3158.7322258536510162
 20
151.1697929854983045
 30
0.0
 40
0.0188495359605226
 50
151.5126252543668954
 51
219.4252678966448116
  0
ARC
  5
285EA
  8
0
 10
3158.7362307231528575
 20
151.172582297498991
 30
0.0
 40
0.0237177099216007
 50
218.4860753032839966
 51
241.7579097554526868
  0
ARC
  5
285EB
  8
0
 10
3158.7389247171017814
 20
151.1775977245611102
 30
0.0
 40
0.0294108735427872
 50
241.7579097554526868
 51
276.2632562869451931
  0
ARC
  5
285EC
  8
0
 10
3158.738988768829131
 20
151.1770141201579065
 30
0.0
 40
0.0288237647598669
 50
276.2632562869451931
 51
309.9119307848919789
  0
ARC
  5
285ED
  8
0
 10
3158.7449450205308494
 20
151.1698935366526939
 30
0.0
 40
0.0195404655730405
 50
309.9119307848919789
 51
13.2018374832689407
  0
ARC
  5
285EE
  8
0
 10
3158.7545900183140475
 20
151.1747780573118121
 30
0.0
 40
0.0484572422601305
 50
350.5294890000785131
 51
38.6654026249876992
  0
ARC
  5
285EF
  8
0
 10
3158.7421225116650021
 20
151.1648020554158904
 30
0.0
 40
0.064424688388718
 50
38.6654026249864273
 51
82.4654028658740401
  0
ARC
  5
285F0
  8
0
 10
3158.7404777859951537
 20
151.1523671503956905
 30
0.0
 40
0.0769678931383846
 50
82.4654028658740401
 51
128.7555521142531063
  0
ARC
  5
285F1
  8
0
 10
3158.72185436637983
 20
151.1755668445723018
 30
0.0
 40
0.0472179760291364
 50
128.7555521142521116
 51
200.4197273141774076
  0
ARC
  5
285F2
  8
0
 10
3158.7320118328711942
 20
151.1793483539904912
 30
0.0
 40
0.0580565155521089
 50
200.4197273141774076
 51
243.1680778813455959
  0
ARC
  5
285F3
  8
0
 10
3158.7386766081658607
 20
151.1925241208766124
 30
0.0
 40
0.0728220180079248
 50
243.1680778813455959
 51
306.9241645298903904
  0
ARC
  5
285F4
  8
0
 10
3158.7511879076200785
 20
151.1758752631533866
 30
0.0
 40
0.0519961428160376
 50
306.9241645298903904
 51
349.9537592248693727
  0
ARC
  5
285F5
  8
0
 10
3158.7561766136132064
 20
151.2054129839629013
 30
0.0
 40
0.0602159939425495
 50
320.1216279724063156
 51
349.6470669532976103
  0
ARC
  5
285F6
  8
0
 10
3158.7653756420399986
 20
151.203732456438587
 30
0.0
 40
0.0508647214760567
 50
349.6470669532976103
 51
21.9665542178461308
  0
ARC
  5
285F7
  8
0
 10
3158.7505539712669815
 20
151.1977541746776126
 30
0.0
 40
0.0668466418018999
 50
21.9665542178461308
 51
56.8610032652314104
  0
ARC
  5
285F8
  8
0
 10
3158.7395433716951629
 20
151.1808890514824952
 30
0.0
 40
0.0869877858438523
 50
56.8610032652314104
 51
100.3782694556841051
  0
ARC
  5
285F9
  8
0
 10
3158.7398237754541697
 20
151.179357981285591
 30
0.0
 40
0.0885443211680643
 50
100.3782694556841051
 51
134.6862463078965106
  0
ARC
  5
285FA
  8
0
 10
3158.7143015510378063
 20
151.2051612688082116
 30
0.0
 40
0.0522511594695935
 50
134.6862463078965106
 51
172.8164286140597881
  0
ARC
  5
285FB
  8
0
 10
3158.7212848675130772
 20
151.2042811050106934
 30
0.0
 40
0.059289724472353
 50
172.8164286140597881
 51
219.433075129531602
  0
LINE
  5
285FC
  8
0
 10
3158.8028304293798101
 20
151.1701990762429091
 30
0.0
 11
3158.8127466466248734
 21
151.2222583252550123
 31
0.0
  0
ARC
  5
285FD
  8
0
 10
3158.717718444871025
 20
151.2475259788108986
 30
0.0
 40
0.1063819563673368
 50
326.4203657035137098
 51
337.676556845485095
  0
LINE
  5
285FE
  8
0
 10
3158.6749139224998544
 20
151.170454898890199
 30
0.0
 11
3158.6651709030379607
 21
151.2229478674994994
 31
0.0
  0
ARC
  5
285FF
  8
0
 10
3158.72544799835714
 20
151.2308468628934861
 30
0.0
 40
0.0679849417791287
 50
201.1232384341585089
 51
217.2699027394444897
  0
ARC
  5
28600
  8
0
 10
3158.706983003276946
 20
151.4684073600500938
 30
0.0
 40
0.0255798350541456
 50
19.2612508583356998
 51
91.9432184961061552
  0
ARC
  5
28601
  8
0
 10
3158.7071183551120157
 20
151.4644180427399078
 30
0.0
 40
0.0295714478510929
 50
91.9432184961061552
 51
145.2519117537461
  0
ARC
  5
28602
  8
0
 10
3158.6993877793997854
 20
151.4722822907658895
 30
0.0
 40
0.0188495359605226
 50
151.5126252543668954
 51
219.4252678966448116
  0
ARC
  5
28603
  8
0
 10
3158.7033926489011719
 20
151.4750716027666897
 30
0.0
 40
0.0237177099216007
 50
218.4860753032839966
 51
241.7579097554526868
  0
ARC
  5
28604
  8
0
 10
3158.7060866428510053
 20
151.4800870298288089
 30
0.0
 40
0.0294108735427872
 50
241.7579097554526868
 51
276.2632562869451931
  0
ARC
  5
28605
  8
0
 10
3158.7061506945769906
 20
151.4795034254256905
 30
0.0
 40
0.0288237647598669
 50
276.2632562869451931
 51
309.9119307848919789
  0
ARC
  5
28606
  8
0
 10
3158.7121069462791638
 20
151.4723828419203926
 30
0.0
 40
0.0195404655730405
 50
309.9119307848919789
 51
13.2018374832689407
  0
ARC
  5
28607
  8
0
 10
3158.7217519440619071
 20
151.4772673625795107
 30
0.0
 40
0.0484572422601305
 50
350.5294890000785131
 51
38.6654026249876992
  0
ARC
  5
28608
  8
0
 10
3158.709284437414226
 20
151.4672913606835891
 30
0.0
 40
0.064424688388718
 50
38.6654026249864273
 51
82.4654028658740401
  0
ARC
  5
28609
  8
0
 10
3158.7076397117430133
 20
151.4548564556635029
 30
0.0
 40
0.0769678931383846
 50
82.4654028658740401
 51
128.7555521142531063
  0
ARC
  5
2860A
  8
0
 10
3158.6890162921281444
 20
151.4780561498400004
 30
0.0
 40
0.0472179760291364
 50
128.7555521142521116
 51
200.4197273141774076
  0
ARC
  5
2860B
  8
0
 10
3158.6991737586190538
 20
151.4818376592581899
 30
0.0
 40
0.0580565155521089
 50
200.4197273141774076
 51
243.1680778813455959
  0
ARC
  5
2860C
  8
0
 10
3158.7058385339141751
 20
151.4950134261443111
 30
0.0
 40
0.0728220180079248
 50
243.1680778813455959
 51
306.9241645298903904
  0
ARC
  5
2860D
  8
0
 10
3158.7183498333679381
 20
151.4783645684211137
 30
0.0
 40
0.0519961428160376
 50
306.9241645298903904
 51
349.9537592248693727
  0
ARC
  5
2860E
  8
0
 10
3158.7233385393619756
 20
151.5079022892306
 30
0.0
 40
0.0602159939425495
 50
320.1216279724063156
 51
349.6470669532976103
  0
ARC
  5
2860F
  8
0
 10
3158.7325375677878583
 20
151.5062217617063993
 30
0.0
 40
0.0508647214760567
 50
349.6470669532976103
 51
21.9665542178461308
  0
ARC
  5
28610
  8
0
 10
3158.7177158970162054
 20
151.5002434799453965
 30
0.0
 40
0.0668466418018999
 50
21.9665542178461308
 51
56.8610032652314104
  0
ARC
  5
28611
  8
0
 10
3158.7067052974439321
 20
151.4833783567501939
 30
0.0
 40
0.0869877858438523
 50
56.8610032652314104
 51
100.3782694556841051
  0
ARC
  5
28612
  8
0
 10
3158.7069857012020293
 20
151.4818472865532897
 30
0.0
 40
0.0885443211680643
 50
100.3782694556841051
 51
134.6862463078965106
  0
ARC
  5
28613
  8
0
 10
3158.6814634767870302
 20
151.5076505740759956
 30
0.0
 40
0.0522511594695935
 50
134.6862463078965106
 51
172.8164286140597881
  0
ARC
  5
28614
  8
0
 10
3158.6884467932618463
 20
151.5067704102783921
 30
0.0
 40
0.059289724472353
 50
172.8164286140597881
 51
219.433075129531602
  0
LINE
  5
28615
  8
0
 10
3158.7699923551281245
 20
151.472688381510693
 30
0.0
 11
3158.7799085723740973
 21
151.524747630522711
 31
0.0
  0
ARC
  5
28616
  8
0
 10
3158.6848803706188846
 20
151.5500152840785972
 30
0.0
 40
0.1063819563673368
 50
326.4203657035137098
 51
337.676556845485095
  0
LINE
  5
28617
  8
0
 10
3158.6420758482490783
 20
151.4729442041578977
 30
0.0
 11
3158.6323328287871846
 21
151.525437172767198
 31
0.0
  0
ARC
  5
28618
  8
0
 10
3158.6926099241049997
 20
151.5333361681612132
 30
0.0
 40
0.0679849417791287
 50
201.1232384341585089
 51
217.2699027394444897
  0
ARC
  5
28619
  8
0
 10
3158.4343043754370228
 20
151.3119376244227965
 30
0.0
 40
0.0255798350541456
 50
19.2612508583356998
 51
91.9432184961061552
  0
ARC
  5
2861A
  8
0
 10
3158.4344397272711831
 20
151.3079483071126106
 30
0.0
 40
0.0295714478510929
 50
91.9432184961061552
 51
145.2519117537461
  0
ARC
  5
2861B
  8
0
 10
3158.4267091515580432
 20
151.3158125551385922
 30
0.0
 40
0.0188495359605226
 50
151.5126252543668954
 51
219.4252678966448116
  0
ARC
  5
2861C
  8
0
 10
3158.4307140210598845
 20
151.3186018671393924
 30
0.0
 40
0.0237177099216007
 50
218.4860753032839966
 51
241.7579097554526868
  0
ARC
  5
2861D
  8
0
 10
3158.4334080150088084
 20
151.3236172942015116
 30
0.0
 40
0.0294108735427872
 50
241.7579097554526868
 51
276.2632562869451931
  0
ARC
  5
2861E
  8
0
 10
3158.433472066736158
 20
151.3230336897983079
 30
0.0
 40
0.0288237647598669
 50
276.2632562869451931
 51
309.9119307848919789
  0
ARC
  5
2861F
  8
0
 10
3158.4394283184378764
 20
151.3159131062930101
 30
0.0
 40
0.0195404655730405
 50
309.9119307848919789
 51
13.2018374832689407
  0
ARC
  5
28620
  8
0
 10
3158.449073316221984
 20
151.3207976269522135
 30
0.0
 40
0.0484572422601305
 50
350.5294890000785131
 51
38.6654026249876992
  0
ARC
  5
28621
  8
0
 10
3158.4366058095720291
 20
151.3108216250562919
 30
0.0
 40
0.064424688388718
 50
38.6654026249864273
 51
82.4654028658740401
  0
ARC
  5
28622
  8
0
 10
3158.4349610839008164
 20
151.2983867200360919
 30
0.0
 40
0.0769678931383846
 50
82.4654028658740401
 51
128.7555521142531063
  0
ARC
  5
28623
  8
0
 10
3158.416337664286857
 20
151.3215864142127032
 30
0.0
 40
0.0472179760291364
 50
128.7555521142521116
 51
200.4197273141774076
  0
ARC
  5
28624
  8
0
 10
3158.4264951307782212
 20
151.3253679236308926
 30
0.0
 40
0.0580565155521089
 50
200.4197273141774076
 51
243.1680778813455959
  0
ARC
  5
28625
  8
0
 10
3158.4331599060728877
 20
151.3385436905170138
 30
0.0
 40
0.0728220180079248
 50
243.1680778813455959
 51
306.9241645298903904
  0
ARC
  5
28626
  8
0
 10
3158.4456712055271055
 20
151.3218948327937881
 30
0.0
 40
0.0519961428160376
 50
306.9241645298903904
 51
349.9537592248693727
  0
ARC
  5
28627
  8
0
 10
3158.4506599115211429
 20
151.3514325536033027
 30
0.0
 40
0.0602159939425495
 50
320.1216279724063156
 51
349.6470669532976103
  0
ARC
  5
28628
  8
0
 10
3158.4598589399470256
 20
151.3497520260789884
 30
0.0
 40
0.0508647214760567
 50
349.6470669532976103
 51
21.9665542178461308
  0
ARC
  5
28629
  8
0
 10
3158.4450372691740085
 20
151.343773744318014
 30
0.0
 40
0.0668466418018999
 50
21.9665542178461308
 51
56.8610032652314104
  0
ARC
  5
2862A
  8
0
 10
3158.4340266696021899
 20
151.3269086211228966
 30
0.0
 40
0.0869877858438523
 50
56.8610032652314104
 51
100.3782694556841051
  0
ARC
  5
2862B
  8
0
 10
3158.4343070733598324
 20
151.3253775509259924
 30
0.0
 40
0.0885443211680643
 50
100.3782694556841051
 51
134.6862463078965106
  0
ARC
  5
2862C
  8
0
 10
3158.4087848489448334
 20
151.351180838448613
 30
0.0
 40
0.0522511594695935
 50
134.6862463078965106
 51
172.8164286140597881
  0
ARC
  5
2862D
  8
0
 10
3158.4157681654201042
 20
151.3503006746510948
 30
0.0
 40
0.059289724472353
 50
172.8164286140597881
 51
219.433075129531602
  0
LINE
  5
2862E
  8
0
 10
3158.4973137272868371
 20
151.3162186458833105
 30
0.0
 11
3158.5072299445319004
 21
151.3682778948954137
 31
0.0
  0
ARC
  5
2862F
  8
0
 10
3158.412201742778052
 20
151.3935455484513
 30
0.0
 40
0.1063819563673368
 50
326.4203657035137098
 51
337.676556845485095
  0
LINE
  5
28630
  8
0
 10
3158.3693972204077909
 20
151.3164744685306005
 30
0.0
 11
3158.3596542009449877
 21
151.3689674371399008
 31
0.0
  0
ARC
  5
28631
  8
0
 10
3158.419931296264167
 20
151.3768664325338875
 30
0.0
 40
0.0679849417791287
 50
201.1232384341585089
 51
217.2699027394444897
  0
ARC
  5
28632
  8
0
 10
3158.8454269152030065
 20
151.7309989024062133
 30
0.0
 40
0.0255798350541456
 50
19.2612508583356998
 51
91.9432184961061552
  0
ARC
  5
28633
  8
0
 10
3158.8455622670380762
 20
151.727009585095999
 30
0.0
 40
0.0295714478510929
 50
91.9432184961061552
 51
145.2519117537461
  0
ARC
  5
28634
  8
0
 10
3158.8378316913249364
 20
151.7348738331220943
 30
0.0
 40
0.0188495359605226
 50
151.5126252543668954
 51
219.4252678966448116
  0
ARC
  5
28635
  8
0
 10
3158.8418365608267777
 20
151.7376631451228093
 30
0.0
 40
0.0237177099216007
 50
218.4860753032839966
 51
241.7579097554526868
  0
ARC
  5
28636
  8
0
 10
3158.8445305547770658
 20
151.7426785721849001
 30
0.0
 40
0.0294108735427872
 50
241.7579097554526868
 51
276.2632562869451931
  0
ARC
  5
28637
  8
0
 10
3158.8445946065030512
 20
151.7420949677818101
 30
0.0
 40
0.0288237647598669
 50
276.2632562869451931
 51
309.9119307848919789
  0
ARC
  5
28638
  8
0
 10
3158.8505508582052244
 20
151.7349743842763985
 30
0.0
 40
0.0195404655730405
 50
309.9119307848919789
 51
13.2018374832689407
  0
ARC
  5
28639
  8
0
 10
3158.8601958559879677
 20
151.7398589049356019
 30
0.0
 40
0.0484572422601305
 50
350.5294890000785131
 51
38.6654026249876992
  0
ARC
  5
2863A
  8
0
 10
3158.8477283493389223
 20
151.7298829030397087
 30
0.0
 40
0.064424688388718
 50
38.6654026249864273
 51
82.4654028658740401
  0
ARC
  5
2863B
  8
0
 10
3158.8460836236681644
 20
151.717447998019594
 30
0.0
 40
0.0769678931383846
 50
82.4654028658740401
 51
128.7555521142531063
  0
ARC
  5
2863C
  8
0
 10
3158.827460204054205
 20
151.7406476921960916
 30
0.0
 40
0.0472179760291364
 50
128.7555521142521116
 51
200.4197273141774076
  0
ARC
  5
2863D
  8
0
 10
3158.8376176705451144
 20
151.7444292016143095
 30
0.0
 40
0.0580565155521089
 50
200.4197273141774076
 51
243.1680778813455959
  0
ARC
  5
2863E
  8
0
 10
3158.8442824458411451
 20
151.7576049685004023
 30
0.0
 40
0.0728220180079248
 50
243.1680778813455959
 51
306.9241645298903904
  0
ARC
  5
2863F
  8
0
 10
3158.8567937452939987
 20
151.7409561107772049
 30
0.0
 40
0.0519961428160376
 50
306.9241645298903904
 51
349.9537592248693727
  0
ARC
  5
28640
  8
0
 10
3158.8617824512880361
 20
151.7704938315866912
 30
0.0
 40
0.0602159939425495
 50
320.1216279724063156
 51
349.6470669532976103
  0
ARC
  5
28641
  8
0
 10
3158.8709814797139188
 20
151.7688133040624052
 30
0.0
 40
0.0508647214760567
 50
349.6470669532976103
 51
21.9665542178461308
  0
ARC
  5
28642
  8
0
 10
3158.8561598089409017
 20
151.7628350223014024
 30
0.0
 40
0.0668466418018999
 50
21.9665542178461308
 51
56.8610032652314104
  0
ARC
  5
28643
  8
0
 10
3158.8451492093699926
 20
151.7459698991063135
 30
0.0
 40
0.0869877858438523
 50
56.8610032652314104
 51
100.3782694556841051
  0
ARC
  5
28644
  8
0
 10
3158.8454296131271803
 20
151.7444388289094093
 30
0.0
 40
0.0885443211680643
 50
100.3782694556841051
 51
134.6862463078965106
  0
ARC
  5
28645
  8
0
 10
3158.8199073887121813
 20
151.7702421164320015
 30
0.0
 40
0.0522511594695935
 50
134.6862463078965106
 51
172.8164286140597881
  0
ARC
  5
28646
  8
0
 10
3158.8268907051869974
 20
151.7693619526345117
 30
0.0
 40
0.059289724472353
 50
172.8164286140597881
 51
219.433075129531602
  0
LINE
  5
28647
  8
0
 10
3158.9084362670550945
 20
151.7352799238668126
 30
0.0
 11
3158.9183524842987936
 21
151.7873391728788022
 31
0.0
  0
ARC
  5
28648
  8
0
 10
3158.8233242825449452
 20
151.8126068264346884
 30
0.0
 40
0.1063819563673368
 50
326.4203657035137098
 51
337.676556845485095
  0
LINE
  5
28649
  8
0
 10
3158.7805197601751388
 20
151.7355357465139889
 30
0.0
 11
3158.7707767407118808
 21
151.7880287151232892
 31
0.0
  0
ARC
  5
2864A
  8
0
 10
3158.8310538360310602
 20
151.7959277105173044
 30
0.0
 40
0.0679849417791287
 50
201.1232384341585089
 51
217.2699027394444897
  0
ARC
  5
2864B
  8
0
 10
3159.0628998586062153
 20
151.4933873273326981
 30
0.0
 40
0.0255798350541456
 50
19.2612508583356998
 51
91.9432184961061552
  0
ARC
  5
2864C
  8
0
 10
3159.0630352104399208
 20
151.4893980100223985
 30
0.0
 40
0.0295714478510929
 50
91.9432184961061552
 51
145.2519117537461
  0
ARC
  5
2864D
  8
0
 10
3159.0553046347267809
 20
151.4972622580484938
 30
0.0
 40
0.0188495359605226
 50
151.5126252543668954
 51
219.4252678966448116
  0
ARC
  5
2864E
  8
0
 10
3159.0593095042281675
 20
151.5000515700492087
 30
0.0
 40
0.0237177099216007
 50
218.4860753032839966
 51
241.7579097554526868
  0
ARC
  5
2864F
  8
0
 10
3159.0620034981789104
 20
151.5050669971112995
 30
0.0
 40
0.0294108735427872
 50
241.7579097554526868
 51
276.2632562869451931
  0
ARC
  5
28650
  8
0
 10
3159.0620675499048957
 20
151.5044833927082095
 30
0.0
 40
0.0288237647598669
 50
276.2632562869451931
 51
309.9119307848919789
  0
ARC
  5
28651
  8
0
 10
3159.0680238016070689
 20
151.4973628092029116
 30
0.0
 40
0.0195404655730405
 50
309.9119307848919789
 51
13.2018374832689407
  0
ARC
  5
28652
  8
0
 10
3159.0776687993898122
 20
151.5022473298620866
 30
0.0
 40
0.0484572422601305
 50
350.5294890000785131
 51
38.6654026249876992
  0
ARC
  5
28653
  8
0
 10
3159.0652012927412216
 20
151.4922713279661082
 30
0.0
 40
0.064424688388718
 50
38.6654026249864273
 51
82.4654028658740401
  0
ARC
  5
28654
  8
0
 10
3159.0635565670700089
 20
151.4798364229459935
 30
0.0
 40
0.0769678931383846
 50
82.4654028658740401
 51
128.7555521142531063
  0
ARC
  5
28655
  8
0
 10
3159.0449331474560495
 20
151.5030361171226048
 30
0.0
 40
0.0472179760291364
 50
128.7555521142521116
 51
200.4197273141774076
  0
ARC
  5
28656
  8
0
 10
3159.0550906139469589
 20
151.5068176265407089
 30
0.0
 40
0.0580565155521089
 50
200.4197273141774076
 51
243.1680778813455959
  0
ARC
  5
28657
  8
0
 10
3159.0617553892420801
 20
151.519993393426887
 30
0.0
 40
0.0728220180079248
 50
243.1680778813455959
 51
306.9241645298903904
  0
ARC
  5
28658
  8
0
 10
3159.0742666886958432
 20
151.5033445357036896
 30
0.0
 40
0.0519961428160376
 50
306.9241645298903904
 51
349.9537592248693727
  0
ARC
  5
28659
  8
0
 10
3159.0792553946898806
 20
151.5328822565130906
 30
0.0
 40
0.0602159939425495
 50
320.1216279724063156
 51
349.6470669532976103
  0
ARC
  5
2865A
  8
0
 10
3159.0884544231162181
 20
151.53120172898889
 30
0.0
 40
0.0508647214760567
 50
349.6470669532976103
 51
21.9665542178461308
  0
ARC
  5
2865B
  8
0
 10
3159.0736327523441105
 20
151.5252234472278872
 30
0.0
 40
0.0668466418018999
 50
21.9665542178461308
 51
56.8610032652314104
  0
ARC
  5
2865C
  8
0
 10
3159.0626221527709276
 20
151.5083583240327982
 30
0.0
 40
0.0869877858438523
 50
56.8610032652314104
 51
100.3782694556841051
  0
ARC
  5
2865D
  8
0
 10
3159.0629025565290249
 20
151.5068272538358087
 30
0.0
 40
0.0885443211680643
 50
100.3782694556841051
 51
134.6862463078965106
  0
ARC
  5
2865E
  8
0
 10
3159.0373803321140258
 20
151.5326305413584862
 30
0.0
 40
0.0522511594695935
 50
134.6862463078965106
 51
172.8164286140597881
  0
ARC
  5
2865F
  8
0
 10
3159.0443636485888419
 20
151.5317503775609111
 30
0.0
 40
0.059289724472353
 50
172.8164286140597881
 51
219.433075129531602
  0
LINE
  5
28660
  8
0
 10
3159.1259092104560295
 20
151.4976683487932121
 30
0.0
 11
3159.1358254277010928
 21
151.5497275978052869
 31
0.0
  0
ARC
  5
28661
  8
0
 10
3159.0407972259467897
 20
151.5749952513610879
 30
0.0
 40
0.1063819563673368
 50
326.4203657035137098
 51
337.676556845485095
  0
LINE
  5
28662
  8
0
 10
3158.9979927035769833
 20
151.4979241714403884
 30
0.0
 11
3158.9882496841141801
 21
151.5504171400498024
 31
0.0
  0
ARC
  5
28663
  8
0
 10
3159.0485267794329047
 20
151.5583161354437891
 30
0.0
 40
0.0679849417791287
 50
201.1232384341585089
 51
217.2699027394444897
  0
ARC
  5
28664
  8
0
 10
3158.79691230515391
 20
152.0176314846918899
 30
0.0
 40
0.0255798350541456
 50
19.2612508583356998
 51
91.9432184961061552
  0
ARC
  5
28665
  8
0
 10
3158.7970476569889797
 20
152.0136421673815903
 30
0.0
 40
0.0295714478510929
 50
91.9432184961061552
 51
145.2519117537461
  0
ARC
  5
28666
  8
0
 10
3158.7893170812758399
 20
152.021506415407714
 30
0.0
 40
0.0188495359605226
 50
151.5126252543668954
 51
219.4252678966448116
  0
ARC
  5
28667
  8
0
 10
3158.7933219507772264
 20
152.0242957274084006
 30
0.0
 40
0.0237177099216007
 50
218.4860753032839966
 51
241.7579097554526868
  0
ARC
  5
28668
  8
0
 10
3158.7960159447279693
 20
152.0293111544704914
 30
0.0
 40
0.0294108735427872
 50
241.7579097554526868
 51
276.2632562869451931
  0
ARC
  5
28669
  8
0
 10
3158.7960799964539547
 20
152.0287275500674014
 30
0.0
 40
0.0288237647598669
 50
276.2632562869451931
 51
309.9119307848919789
  0
ARC
  5
2866A
  8
0
 10
3158.8020362481561278
 20
152.0216069665621035
 30
0.0
 40
0.0195404655730405
 50
309.9119307848919789
 51
13.2018374832689407
  0
ARC
  5
2866B
  8
0
 10
3158.8116812459388711
 20
152.0264914872211932
 30
0.0
 40
0.0484572422601305
 50
350.5294890000785131
 51
38.6654026249876992
  0
ARC
  5
2866C
  8
0
 10
3158.7992137392898258
 20
152.0165154853253
 30
0.0
 40
0.064424688388718
 50
38.6654026249864273
 51
82.4654028658740401
  0
ARC
  5
2866D
  8
0
 10
3158.7975690136190678
 20
152.0040805803052137
 30
0.0
 40
0.0769678931383846
 50
82.4654028658740401
 51
128.7555521142531063
  0
ARC
  5
2866E
  8
0
 10
3158.7789455940051084
 20
152.0272802744817966
 30
0.0
 40
0.0472179760291364
 50
128.7555521142521116
 51
200.4197273141774076
  0
ARC
  5
2866F
  8
0
 10
3158.7891030604960179
 20
152.0310617838999008
 30
0.0
 40
0.0580565155521089
 50
200.4197273141774076
 51
243.1680778813455959
  0
ARC
  5
28670
  8
0
 10
3158.7957678357911391
 20
152.0442375507861072
 30
0.0
 40
0.0728220180079248
 50
243.1680778813455959
 51
306.9241645298903904
  0
ARC
  5
28671
  8
0
 10
3158.8082791352449021
 20
152.0275886930629099
 30
0.0
 40
0.0519961428160376
 50
306.9241645298903904
 51
349.9537592248693727
  0
ARC
  5
28672
  8
0
 10
3158.8132678412389396
 20
152.0571264138723109
 30
0.0
 40
0.0602159939425495
 50
320.1216279724063156
 51
349.6470669532976103
  0
ARC
  5
28673
  8
0
 10
3158.8224668696639128
 20
152.0554458863481102
 30
0.0
 40
0.0508647214760567
 50
349.6470669532976103
 51
21.9665542178461308
  0
ARC
  5
28674
  8
0
 10
3158.8076451988918052
 20
152.0494676045871074
 30
0.0
 40
0.0668466418018999
 50
21.9665542178461308
 51
56.8610032652314104
  0
ARC
  5
28675
  8
0
 10
3158.7966345993199866
 20
152.0326024813919901
 30
0.0
 40
0.0869877858438523
 50
56.8610032652314104
 51
100.3782694556841051
  0
ARC
  5
28676
  8
0
 10
3158.7969150030780838
 20
152.0310714111950006
 30
0.0
 40
0.0885443211680643
 50
100.3782694556841051
 51
134.6862463078965106
  0
ARC
  5
28677
  8
0
 10
3158.7713927786630848
 20
152.0568746987177065
 30
0.0
 40
0.0522511594695935
 50
134.6862463078965106
 51
172.8164286140597881
  0
ARC
  5
28678
  8
0
 10
3158.7783760951379008
 20
152.055994534920103
 30
0.0
 40
0.059289724472353
 50
172.8164286140597881
 51
219.433075129531602
  0
LINE
  5
28679
  8
0
 10
3158.8599216570050885
 20
152.0219125061524039
 30
0.0
 11
3158.8698378742501518
 21
152.0739717551645072
 31
0.0
  0
ARC
  5
2867A
  8
0
 10
3158.7748096724949392
 20
152.0992394087203081
 30
0.0
 40
0.1063819563673368
 50
326.4203657035137098
 51
337.676556845485095
  0
LINE
  5
2867B
  8
0
 10
3158.7320051501251328
 20
152.0221683287996086
 30
0.0
 11
3158.7222621306627843
 21
152.0746612974089089
 31
0.0
  0
ARC
  5
2867C
  8
0
 10
3158.7825392259819637
 20
152.0825602928030094
 30
0.0
 40
0.0679849417791287
 50
201.1232384341585089
 51
217.2699027394444897
  0
ARC
  5
2867D
  8
0
 10
3158.5821739638740837
 20
152.236742078145312
 30
0.0
 40
0.0255798350541456
 50
19.2612508583356998
 51
91.9432184961061552
  0
ARC
  5
2867E
  8
0
 10
3158.5823093157091535
 20
152.2327527608350977
 30
0.0
 40
0.0295714478510929
 50
91.9432184961061552
 51
145.2519117537461
  0
ARC
  5
2867F
  8
0
 10
3158.5745787399960136
 20
152.2406170088611077
 30
0.0
 40
0.0188495359605226
 50
151.5126252543668954
 51
219.4252678966448116
  0
ARC
  5
28680
  8
0
 10
3158.5785836094969454
 20
152.2434063208619079
 30
0.0
 40
0.0237177099216007
 50
218.4860753032839966
 51
241.7579097554526868
  0
ARC
  5
28681
  8
0
 10
3158.5812776034481431
 20
152.2484217479239135
 30
0.0
 40
0.0294108735427872
 50
241.7579097554526868
 51
276.2632562869451931
  0
ARC
  5
28682
  8
0
 10
3158.5813416551741284
 20
152.247838143520795
 30
0.0
 40
0.0288237647598669
 50
276.2632562869451931
 51
309.9119307848919789
  0
ARC
  5
28683
  8
0
 10
3158.5872979068758468
 20
152.2407175600154972
 30
0.0
 40
0.0195404655730405
 50
309.9119307848919789
 51
13.2018374832689407
  0
ARC
  5
28684
  8
0
 10
3158.5969429046590449
 20
152.2456020806747006
 30
0.0
 40
0.0484572422601305
 50
350.5294890000785131
 51
38.6654026249876992
  0
ARC
  5
28685
  8
0
 10
3158.5844753980099995
 20
152.2356260787788074
 30
0.0
 40
0.064424688388718
 50
38.6654026249864273
 51
82.4654028658740401
  0
ARC
  5
28686
  8
0
 10
3158.5828306723387868
 20
152.2231911737586074
 30
0.0
 40
0.0769678931383846
 50
82.4654028658740401
 51
128.7555521142531063
  0
ARC
  5
28687
  8
0
 10
3158.5642072527248274
 20
152.2463908679351903
 30
0.0
 40
0.0472179760291364
 50
128.7555521142521116
 51
200.4197273141774076
  0
ARC
  5
28688
  8
0
 10
3158.5743647192161916
 20
152.2501723773534081
 30
0.0
 40
0.0580565155521089
 50
200.4197273141774076
 51
243.1680778813455959
  0
ARC
  5
28689
  8
0
 10
3158.5810294945122223
 20
152.2633481442395009
 30
0.0
 40
0.0728220180079248
 50
243.1680778813455959
 51
306.9241645298903904
  0
ARC
  5
2868A
  8
0
 10
3158.5935407939650759
 20
152.2466992865163036
 30
0.0
 40
0.0519961428160376
 50
306.9241645298903904
 51
349.9537592248693727
  0
ARC
  5
2868B
  8
0
 10
3158.5985294999591133
 20
152.2762370073257898
 30
0.0
 40
0.0602159939425495
 50
320.1216279724063156
 51
349.6470669532976103
  0
ARC
  5
2868C
  8
0
 10
3158.607728528384996
 20
152.2745564798015039
 30
0.0
 40
0.0508647214760567
 50
349.6470669532976103
 51
21.9665542178461308
  0
ARC
  5
2868D
  8
0
 10
3158.5929068576119789
 20
152.2685781980405011
 30
0.0
 40
0.0668466418018999
 50
21.9665542178461308
 51
56.8610032652314104
  0
ARC
  5
2868E
  8
0
 10
3158.5818962580401603
 20
152.2517130748454122
 30
0.0
 40
0.0869877858438523
 50
56.8610032652314104
 51
100.3782694556841051
  0
ARC
  5
2868F
  8
0
 10
3158.5821766617978028
 20
152.2501820046485079
 30
0.0
 40
0.0885443211680643
 50
100.3782694556841051
 51
134.6862463078965106
  0
ARC
  5
28690
  8
0
 10
3158.5566544373828037
 20
152.2759852921711001
 30
0.0
 40
0.0522511594695935
 50
134.6862463078965106
 51
172.8164286140597881
  0
ARC
  5
28691
  8
0
 10
3158.5636377538580746
 20
152.2751051283736103
 30
0.0
 40
0.059289724472353
 50
172.8164286140597881
 51
219.433075129531602
  0
LINE
  5
28692
  8
0
 10
3158.6451833157248075
 20
152.2410230996057976
 30
0.0
 11
3158.6550995329698708
 21
152.2930823486179008
 31
0.0
  0
ARC
  5
28693
  8
0
 10
3158.5600713312160224
 20
152.3183500021737871
 30
0.0
 40
0.1063819563673368
 50
326.4203657035137098
 51
337.676556845485095
  0
LINE
  5
28694
  8
0
 10
3158.5172668088448518
 20
152.2412789222530876
 30
0.0
 11
3158.5075237893838676
 21
152.2937718908623879
 31
0.0
  0
ARC
  5
28695
  8
0
 10
3158.5678008847021374
 20
152.301670886256403
 30
0.0
 40
0.0679849417791287
 50
201.1232384341585089
 51
217.2699027394444897
  0
ARC
  5
28696
  8
0
 10
3158.9188234297062081
 20
152.3204253482143997
 30
0.0
 40
0.0255798350541456
 50
19.2612508583356998
 51
91.9432184961061552
  0
ARC
  5
28697
  8
0
 10
3158.9189587815408231
 20
152.3164360309042138
 30
0.0
 40
0.0295714478510929
 50
91.9432184961061552
 51
145.2519117537461
  0
ARC
  5
28698
  8
0
 10
3158.9112282058267738
 20
152.3243002789301954
 30
0.0
 40
0.0188495359605226
 50
151.5126252543668954
 51
219.4252678966448116
  0
ARC
  5
28699
  8
0
 10
3158.9152330753290698
 20
152.3270895909309957
 30
0.0
 40
0.0237177099216007
 50
218.4860753032839966
 51
241.7579097554526868
  0
ARC
  5
2869A
  8
0
 10
3158.9179270692789032
 20
152.3321050179930864
 30
0.0
 40
0.0294108735427872
 50
241.7579097554526868
 51
276.2632562869451931
  0
ARC
  5
2869B
  8
0
 10
3158.9179911210048886
 20
152.3315214135899112
 30
0.0
 40
0.0288237647598669
 50
276.2632562869451931
 51
309.9119307848919789
  0
ARC
  5
2869C
  8
0
 10
3158.9239473727070617
 20
152.3244008300846133
 30
0.0
 40
0.0195404655730405
 50
309.9119307848919789
 51
13.2018374832689407
  0
ARC
  5
2869D
  8
0
 10
3158.9335923704911693
 20
152.3292853507437883
 30
0.0
 40
0.0484572422601305
 50
350.5294890000785131
 51
38.6654026249876992
  0
ARC
  5
2869E
  8
0
 10
3158.9211248638412144
 20
152.3193093488478951
 30
0.0
 40
0.064424688388718
 50
38.6654026249864273
 51
82.4654028658740401
  0
ARC
  5
2869F
  8
0
 10
3158.9194801381709112
 20
152.3068744438276951
 30
0.0
 40
0.0769678931383846
 50
82.4654028658740401
 51
128.7555521142531063
  0
ARC
  5
286A0
  8
0
 10
3158.9008567185569518
 20
152.3300741380043064
 30
0.0
 40
0.0472179760291364
 50
128.7555521142521116
 51
200.4197273141774076
  0
ARC
  5
286A1
  8
0
 10
3158.9110141850478612
 20
152.3338556474224958
 30
0.0
 40
0.0580565155521089
 50
200.4197273141774076
 51
243.1680778813455959
  0
ARC
  5
286A2
  8
0
 10
3158.9176789603429825
 20
152.3470314143085886
 30
0.0
 40
0.0728220180079248
 50
243.1680778813455959
 51
306.9241645298903904
  0
ARC
  5
286A3
  8
0
 10
3158.9301902597972003
 20
152.3303825565853913
 30
0.0
 40
0.0519961428160376
 50
306.9241645298903904
 51
349.9537592248693727
  0
ARC
  5
286A4
  8
0
 10
3158.9351789657898735
 20
152.359920277394906
 30
0.0
 40
0.0602159939425495
 50
320.1216279724063156
 51
349.6470669532976103
  0
ARC
  5
286A5
  8
0
 10
3158.9443779942162109
 20
152.3582397498705916
 30
0.0
 40
0.0508647214760567
 50
349.6470669532976103
 51
21.9665542178461308
  0
ARC
  5
286A6
  8
0
 10
3158.9295563234441033
 20
152.3522614681095888
 30
0.0
 40
0.0668466418018999
 50
21.9665542178461308
 51
56.8610032652314104
  0
ARC
  5
286A7
  8
0
 10
3158.9185457238709205
 20
152.3353963449144999
 30
0.0
 40
0.0869877858438523
 50
56.8610032652314104
 51
100.3782694556841051
  0
ARC
  5
286A8
  8
0
 10
3158.9188261276299272
 20
152.3338652747175956
 30
0.0
 40
0.0885443211680643
 50
100.3782694556841051
 51
134.6862463078965106
  0
ARC
  5
286A9
  8
0
 10
3158.8933039032140186
 20
152.3596685622401878
 30
0.0
 40
0.0522511594695935
 50
134.6862463078965106
 51
172.8164286140597881
  0
ARC
  5
286AA
  8
0
 10
3158.9002872196888347
 20
152.3587883984426981
 30
0.0
 40
0.059289724472353
 50
172.8164286140597881
 51
219.433075129531602
  0
LINE
  5
286AB
  8
0
 10
3158.9818327815560224
 20
152.3247063696749137
 30
0.0
 11
3158.9917489988010857
 21
152.3767656186869885
 31
0.0
  0
ARC
  5
286AC
  8
0
 10
3158.8967207970467825
 20
152.4020332722429032
 30
0.0
 40
0.1063819563673368
 50
326.4203657035137098
 51
337.676556845485095
  0
LINE
  5
286AD
  8
0
 10
3158.8539162746769762
 20
152.3249621923222037
 30
0.0
 11
3158.8441732552150825
 21
152.377455160931504
 31
0.0
  0
ARC
  5
286AE
  8
0
 10
3158.9044503505328976
 20
152.3853541563254907
 30
0.0
 40
0.0679849417791287
 50
201.1232384341585089
 51
217.2699027394444897
  0
ARC
  5
286AF
  8
0
 10
3158.5167402375400343
 20
152.5525641706636861
 30
0.0
 40
0.0255798350541456
 50
19.2612508583356998
 51
91.9432184961061552
  0
ARC
  5
286B0
  8
0
 10
3158.516875589375104
 20
152.5485748533533865
 30
0.0
 40
0.0295714478510929
 50
91.9432184961061552
 51
145.2519117537461
  0
ARC
  5
286B1
  8
0
 10
3158.5091450136619642
 20
152.5564391013795102
 30
0.0
 40
0.0188495359605226
 50
151.5126252543668954
 51
219.4252678966448116
  0
ARC
  5
286B2
  8
0
 10
3158.513149883162896
 20
152.5592284133801968
 30
0.0
 40
0.0237177099216007
 50
218.4860753032839966
 51
241.7579097554526868
  0
ARC
  5
286B3
  8
0
 10
3158.5158438771131841
 20
152.5642438404422876
 30
0.0
 40
0.0294108735427872
 50
241.7579097554526868
 51
276.2632562869451931
  0
ARC
  5
286B4
  8
0
 10
3158.515907928840079
 20
152.5636602360391976
 30
0.0
 40
0.0288237647598669
 50
276.2632562869451931
 51
309.9119307848919789
  0
ARC
  5
286B5
  8
0
 10
3158.5218641805417974
 20
152.5565396525338997
 30
0.0
 40
0.0195404655730405
 50
309.9119307848919789
 51
13.2018374832689407
  0
ARC
  5
286B6
  8
0
 10
3158.5315091783249954
 20
152.5614241731929894
 30
0.0
 40
0.0484572422601305
 50
350.5294890000785131
 51
38.6654026249876992
  0
ARC
  5
286B7
  8
0
 10
3158.5190416716759501
 20
152.5514481712970962
 30
0.0
 40
0.064424688388718
 50
38.6654026249864273
 51
82.4654028658740401
  0
ARC
  5
286B8
  8
0
 10
3158.5173969460051921
 20
152.53901326627701
 30
0.0
 40
0.0769678931383846
 50
82.4654028658740401
 51
128.7555521142531063
  0
ARC
  5
286B9
  8
0
 10
3158.498773526390778
 20
152.5622129604535928
 30
0.0
 40
0.0472179760291364
 50
128.7555521142521116
 51
200.4197273141774076
  0
ARC
  5
286BA
  8
0
 10
3158.5089309928821422
 20
152.5659944698718107
 30
0.0
 40
0.0580565155521089
 50
200.4197273141774076
 51
243.1680778813455959
  0
ARC
  5
286BB
  8
0
 10
3158.5155957681768086
 20
152.5791702367579035
 30
0.0
 40
0.0728220180079248
 50
243.1680778813455959
 51
306.9241645298903904
  0
ARC
  5
286BC
  8
0
 10
3158.5281070676310264
 20
152.5625213790347061
 30
0.0
 40
0.0519961428160376
 50
306.9241645298903904
 51
349.9537592248693727
  0
ARC
  5
286BD
  8
0
 10
3158.5330957736250639
 20
152.5920590998441071
 30
0.0
 40
0.0602159939425495
 50
320.1216279724063156
 51
349.6470669532976103
  0
ARC
  5
286BE
  8
0
 10
3158.5422948020500371
 20
152.5903785723199064
 30
0.0
 40
0.0508647214760567
 50
349.6470669532976103
 51
21.9665542178461308
  0
ARC
  5
286BF
  8
0
 10
3158.5274731312779295
 20
152.5844002905589036
 30
0.0
 40
0.0668466418018999
 50
21.9665542178461308
 51
56.8610032652314104
  0
ARC
  5
286C0
  8
0
 10
3158.5164625317061109
 20
152.5675351673637863
 30
0.0
 40
0.0869877858438523
 50
56.8610032652314104
 51
100.3782694556841051
  0
ARC
  5
286C1
  8
0
 10
3158.5167429354651176
 20
152.5660040971669105
 30
0.0
 40
0.0885443211680643
 50
100.3782694556841051
 51
134.6862463078965106
  0
ARC
  5
286C2
  8
0
 10
3158.4912207110492091
 20
152.5918073846895027
 30
0.0
 40
0.0522511594695935
 50
134.6862463078965106
 51
172.8164286140597881
  0
ARC
  5
286C3
  8
0
 10
3158.4982040275240252
 20
152.5909272208918992
 30
0.0
 40
0.059289724472353
 50
172.8164286140597881
 51
219.433075129531602
  0
LINE
  5
286C4
  8
0
 10
3158.5797495893912128
 20
152.5568451921242001
 30
0.0
 11
3158.5896658066358214
 21
152.6089044411363034
 31
0.0
  0
ARC
  5
286C5
  8
0
 10
3158.4946376048819729
 20
152.6341720946921043
 30
0.0
 40
0.1063819563673368
 50
326.4203657035137098
 51
337.676556845485095
  0
LINE
  5
286C6
  8
0
 10
3158.4518330825108023
 20
152.5571010147714048
 30
0.0
 11
3158.4420900630489086
 21
152.6095939833807904
 31
0.0
  0
ARC
  5
286C7
  8
0
 10
3158.502367158368088
 20
152.6174929787748056
 30
0.0
 40
0.0679849417791287
 50
201.1232384341585089
 51
217.2699027394444897
  0
ARC
  5
286C8
  8
0
 10
3159.131340057756006
 20
151.9229015706893904
 30
0.0
 40
0.0255798350541456
 50
19.2612508583356998
 51
91.9432184961061552
  0
ARC
  5
286C9
  8
0
 10
3159.1314754095910757
 20
151.9189122533792045
 30
0.0
 40
0.0295714478510929
 50
91.9432184961061552
 51
145.2519117537461
  0
ARC
  5
286CA
  8
0
 10
3159.1237448338788454
 20
151.9267765014051861
 30
0.0
 40
0.0188495359605226
 50
151.5126252543668954
 51
219.4252678966448116
  0
ARC
  5
286CB
  8
0
 10
3159.1277497033797772
 20
151.9295658134059011
 30
0.0
 40
0.0237177099216007
 50
218.4860753032839966
 51
241.7579097554526868
  0
ARC
  5
286CC
  8
0
 10
3159.1304436973300653
 20
151.9345812404679918
 30
0.0
 40
0.0294108735427872
 50
241.7579097554526868
 51
276.2632562869451931
  0
ARC
  5
286CD
  8
0
 10
3159.1305077490560507
 20
151.9339976360649018
 30
0.0
 40
0.0288237647598669
 50
276.2632562869451931
 51
309.9119307848919789
  0
ARC
  5
286CE
  8
0
 10
3159.1364640007582238
 20
151.926877052559604
 30
0.0
 40
0.0195404655730405
 50
309.9119307848919789
 51
13.2018374832689407
  0
ARC
  5
286CF
  8
0
 10
3159.1461089985409671
 20
151.9317615732188074
 30
0.0
 40
0.0484572422601305
 50
350.5294890000785131
 51
38.6654026249876992
  0
ARC
  5
286D0
  8
0
 10
3159.1336414918928313
 20
151.9217855713228005
 30
0.0
 40
0.064424688388718
 50
38.6654026249864273
 51
82.4654028658740401
  0
ARC
  5
286D1
  8
0
 10
3159.1319967662220733
 20
151.9093506663026858
 30
0.0
 40
0.0769678931383846
 50
82.4654028658740401
 51
128.7555521142531063
  0
ARC
  5
286D2
  8
0
 10
3159.1133733466081139
 20
151.9325503604792971
 30
0.0
 40
0.0472179760291364
 50
128.7555521142521116
 51
200.4197273141774076
  0
ARC
  5
286D3
  8
0
 10
3159.1235308130981139
 20
151.9363318698974012
 30
0.0
 40
0.0580565155521089
 50
200.4197273141774076
 51
243.1680778813455959
  0
ARC
  5
286D4
  8
0
 10
3159.1301955883927803
 20
151.9495076367836077
 30
0.0
 40
0.0728220180079248
 50
243.1680778813455959
 51
306.9241645298903904
  0
ARC
  5
286D5
  8
0
 10
3159.1427068878469981
 20
151.9328587790602967
 30
0.0
 40
0.0519961428160376
 50
306.9241645298903904
 51
349.9537592248693727
  0
ARC
  5
286D6
  8
0
 10
3159.1476955938410356
 20
151.9623964998698114
 30
0.0
 40
0.0602159939425495
 50
320.1216279724063156
 51
349.6470669532976103
  0
ARC
  5
286D7
  8
0
 10
3159.1568946222669183
 20
151.9607159723456107
 30
0.0
 40
0.0508647214760567
 50
349.6470669532976103
 51
21.9665542178461308
  0
ARC
  5
286D8
  8
0
 10
3159.1420729514948107
 20
151.9547376905846079
 30
0.0
 40
0.0668466418018999
 50
21.9665542178461308
 51
56.8610032652314104
  0
ARC
  5
286D9
  8
0
 10
3159.1310623519229921
 20
151.9378725673894905
 30
0.0
 40
0.0869877858438523
 50
56.8610032652314104
 51
100.3782694556841051
  0
ARC
  5
286DA
  8
0
 10
3159.1313427556810893
 20
151.936341497192501
 30
0.0
 40
0.0885443211680643
 50
100.3782694556841051
 51
134.6862463078965106
  0
ARC
  5
286DB
  8
0
 10
3159.1058205312660903
 20
151.9621447847152069
 30
0.0
 40
0.0522511594695935
 50
134.6862463078965106
 51
172.8164286140597881
  0
ARC
  5
286DC
  8
0
 10
3159.1128038477409063
 20
151.9612646209176035
 30
0.0
 40
0.059289724472353
 50
172.8164286140597881
 51
219.433075129531602
  0
LINE
  5
286DD
  8
0
 10
3159.194349409608094
 20
151.9271825921499044
 30
0.0
 11
3159.2042656268517931
 21
151.9792418411620076
 31
0.0
  0
ARC
  5
286DE
  8
0
 10
3159.1092374250979447
 20
152.0045094947178086
 30
0.0
 40
0.1063819563673368
 50
326.4203657035137098
 51
337.676556845485095
  0
LINE
  5
286DF
  8
0
 10
3159.0664329027281383
 20
151.9274384147971091
 30
0.0
 11
3159.0566898832657898
 21
151.9799313834064094
 31
0.0
  0
ARC
  5
286E0
  8
0
 10
3159.1169669785840597
 20
151.9878303788005098
 30
0.0
 40
0.0679849417791287
 50
201.1232384341585089
 51
217.2699027394444897
  0
ARC
  5
286E1
  8
0
 10
3158.5974249921578121
 20
150.8525850772261947
 30
0.0
 40
0.0420590590897079
 50
38.4187745612049412
 51
107.0680483733877963
  0
ARC
  5
286E2
  8
0
 10
3158.5980833795229046
 20
150.850440701370502
 30
0.0
 40
0.0443022313373366
 50
107.0680483733877963
 51
154.2805902309191879
  0
ARC
  5
286E3
  8
0
 10
3158.5849275976311219
 20
150.8612524612015875
 30
0.0
 40
0.0280491097828503
 50
162.5443356265222974
 51
234.9631751415948031
  0
ARC
  5
286E4
  8
0
 10
3158.5952964102320948
 20
150.8754679360602893
 30
0.0
 40
0.0456424498849537
 50
234.5505913556320081
 51
313.4871620209519278
  0
ARC
  5
286E5
  8
0
 10
3158.6077159959190794
 20
150.8626389571977882
 30
0.0
 40
0.0277881948752947
 50
313.1119733666424736
 51
35.3611369516963876
  0
ARC
  5
286E6
  8
0
 10
3158.6243957666138158
 20
150.8705992257756066
 30
0.0
 40
0.0866312339315576
 50
319.5111689493638778
 51
11.8682159862051808
  0
ARC
  5
286E7
  8
0
 10
3158.6207952145969102
 20
150.8649686501400993
 30
0.0
 40
0.0914372975453921
 50
14.8583391852709497
 51
56.3599420093484511
  0
ARC
  5
286E8
  8
0
 10
3158.5983538327800488
 20
150.8293186922520874
 30
0.0
 40
0.1335532945893323
 50
56.8172396759580423
 51
121.2376300009553063
  0
ARC
  5
286E9
  8
0
 10
3158.5719747562061457
 20
150.8652033389780911
 30
0.0
 40
0.089278394353289
 50
118.704804468497997
 51
210.2867938217669916
  0
ARC
  5
286EA
  8
0
 10
3158.6207116442951701
 20
150.869227751415707
 30
0.0
 40
0.0886092418281308
 50
302.698203214565126
 51
321.7329346780314268
  0
ARC
  5
286EB
  8
0
 10
3158.5924706594028066
 20
150.913220640854405
 30
0.0
 40
0.1408866513737705
 50
256.7434356845777756
 51
302.698203214565126
  0
ARC
  5
286EC
  8
0
 10
3158.585624986944822
 20
150.8841630318489138
 30
0.0
 40
0.111033546467795
 50
215.1886443888845974
 51
256.7434356845777756
  0
ARC
  5
286ED
  8
0
 10
3158.6214324341740394
 20
150.8913386628769047
 30
0.0
 40
0.1015335136477515
 50
318.4976873215076125
 51
339.6599167548442892
  0
ARC
  5
286EE
  8
0
 10
3158.6406425085679075
 20
150.8842173586292859
 30
0.0
 40
0.0810459580978998
 50
339.6599167548442892
 51
23.2644432501148302
  0
ARC
  5
286EF
  8
0
 10
3158.6233691056668249
 20
150.8767909604511885
 30
0.0
 40
0.0998481345056472
 50
23.2644432501163401
 51
59.7740632672792387
  0
ARC
  5
286F0
  8
0
 10
3158.5992912314682144
 20
150.8354640735228998
 30
0.0
 40
0.1476775774160275
 50
59.7740632672792387
 51
93.7711263524362835
  0
ARC
  5
286F1
  8
0
 10
3158.5993888518100903
 20
150.8339830426710932
 30
0.0
 40
0.1491618220438097
 50
93.7711263524362835
 51
122.7420386874461968
  0
ARC
  5
286F2
  8
0
 10
3158.5769748684278966
 20
150.8688401270806878
 30
0.0
 40
0.1077202609654002
 50
122.7420386874461968
 51
144.2215198536931098
  0
ARC
  5
286F3
  8
0
 10
3158.5648972716530807
 20
150.8775438706234127
 30
0.0
 40
0.0928332365645158
 50
144.2215198536931098
 51
189.9403315112315909
  0
ARC
  5
286F4
  8
0
 10
3158.5499115188890755
 20
150.8749175666926874
 30
0.0
 40
0.0776190899158105
 50
189.9403315112315909
 51
224.8487166975145044
  0
ARC
  5
286F5
  8
0
 10
3159.1445804177119498
 20
151.1663101356377013
 30
0.0
 40
0.0420590590897079
 50
38.4187745612049412
 51
107.0680483733877963
  0
ARC
  5
286F6
  8
0
 10
3159.1452388050770423
 20
151.1641657597820085
 30
0.0
 40
0.0443022313373366
 50
107.0680483733877963
 51
154.2805902309191879
  0
ARC
  5
286F7
  8
0
 10
3159.1320830231838954
 20
151.1749775196132077
 30
0.0
 40
0.0280491097828503
 50
162.5443356265222974
 51
234.9631751415948031
  0
ARC
  5
286F8
  8
0
 10
3159.1424518357857778
 20
151.1891929944719095
 30
0.0
 40
0.0456424498849537
 50
234.5505913556320081
 51
313.4871620209519278
  0
ARC
  5
286F9
  8
0
 10
3159.1548714214732172
 20
151.1763640156094084
 30
0.0
 40
0.0277881948752947
 50
313.1119733666424736
 51
35.3611369516963876
  0
ARC
  5
286FA
  8
0
 10
3159.1715511921670441
 20
151.1843242841871131
 30
0.0
 40
0.0866312339315576
 50
319.5111689493638778
 51
11.8682159862051808
  0
ARC
  5
286FB
  8
0
 10
3159.167950640151048
 20
151.1786937085516058
 30
0.0
 40
0.0914372975453921
 50
14.8583391852709497
 51
56.3599420093484511
  0
ARC
  5
286FC
  8
0
 10
3159.1455092583341866
 20
151.143043750663594
 30
0.0
 40
0.1335532945893323
 50
56.8172396759580423
 51
121.2376300009553063
  0
ARC
  5
286FD
  8
0
 10
3159.1191301817598287
 20
151.1789283973895976
 30
0.0
 40
0.089278394353289
 50
118.704804468497997
 51
210.2867938217669916
  0
ARC
  5
286FE
  8
0
 10
3159.1678670698488531
 20
151.1829528098272988
 30
0.0
 40
0.0886092418281308
 50
302.698203214565126
 51
321.7329346780314268
  0
ARC
  5
286FF
  8
0
 10
3159.1396260849569444
 20
151.2269456992659968
 30
0.0
 40
0.1408866513737705
 50
256.7434356845777756
 51
302.698203214565126
  0
ARC
  5
28700
  8
0
 10
3159.1327804124989598
 20
151.1978880902603919
 30
0.0
 40
0.111033546467795
 50
215.1886443888845974
 51
256.7434356845777756
  0
ARC
  5
28701
  8
0
 10
3159.1685878597281771
 20
151.2050637212884965
 30
0.0
 40
0.1015335136477515
 50
318.4976873215076125
 51
339.6599167548442892
  0
ARC
  5
28702
  8
0
 10
3159.1877979341220453
 20
151.1979424170407924
 30
0.0
 40
0.0810459580978998
 50
339.6599167548442892
 51
23.2644432501148302
  0
ARC
  5
28703
  8
0
 10
3159.1705245312209627
 20
151.1905160188626951
 30
0.0
 40
0.0998481345056472
 50
23.2644432501163401
 51
59.7740632672792387
  0
ARC
  5
28704
  8
0
 10
3159.1464466570218974
 20
151.1491891319344063
 30
0.0
 40
0.1476775774160275
 50
59.7740632672792387
 51
93.7711263524362835
  0
ARC
  5
28705
  8
0
 10
3159.1465442773637733
 20
151.1477081010827135
 30
0.0
 40
0.1491618220438097
 50
93.7711263524362835
 51
122.7420386874461968
  0
ARC
  5
28706
  8
0
 10
3159.1241302939820343
 20
151.182565185492308
 30
0.0
 40
0.1077202609654002
 50
122.7420386874461968
 51
144.2215198536931098
  0
ARC
  5
28707
  8
0
 10
3159.1120526972072184
 20
151.1912689290348908
 30
0.0
 40
0.0928332365645158
 50
144.2215198536931098
 51
189.9403315112315909
  0
ARC
  5
28708
  8
0
 10
3159.097066944441849
 20
151.1886426251041939
 30
0.0
 40
0.0776190899158105
 50
189.9403315112315909
 51
224.8487166975145044
  0
ARC
  5
28709
  8
0
 10
3159.4136340165150614
 20
151.6926617645935949
 30
0.0
 40
0.0420590590897079
 50
38.4187745612049412
 51
107.0680483733877963
  0
ARC
  5
2870A
  8
0
 10
3159.4142924038787896
 20
151.6905173887379021
 30
0.0
 40
0.0443022313373366
 50
107.0680483733877963
 51
154.2805902309191879
  0
ARC
  5
2870B
  8
0
 10
3159.4011366219870069
 20
151.7013291485691013
 30
0.0
 40
0.0280491097828503
 50
162.5443356265222974
 51
234.9631751415948031
  0
ARC
  5
2870C
  8
0
 10
3159.4115054345888893
 20
151.7155446234278031
 30
0.0
 40
0.0456424498849537
 50
234.5505913556320081
 51
313.4871620209519278
  0
ARC
  5
2870D
  8
0
 10
3159.423925020275874
 20
151.702715644565302
 30
0.0
 40
0.0277881948752947
 50
313.1119733666424736
 51
35.3611369516963876
  0
ARC
  5
2870E
  8
0
 10
3159.4406047909701556
 20
151.7106759131430067
 30
0.0
 40
0.0866312339315576
 50
319.5111689493638778
 51
11.8682159862051808
  0
ARC
  5
2870F
  8
0
 10
3159.437004238955069
 20
151.7050453375074994
 30
0.0
 40
0.0914372975453921
 50
14.8583391852709497
 51
56.3599420093484511
  0
ARC
  5
28710
  8
0
 10
3159.4145628571368434
 20
151.6693953796194876
 30
0.0
 40
0.1335532945893323
 50
56.8172396759580423
 51
121.2376300009553063
  0
ARC
  5
28711
  8
0
 10
3159.3881837805629402
 20
151.7052800263454913
 30
0.0
 40
0.089278394353289
 50
118.704804468497997
 51
210.2867938217669916
  0
ARC
  5
28712
  8
0
 10
3159.4369206686519647
 20
151.7093044387831071
 30
0.0
 40
0.0886092418281308
 50
302.698203214565126
 51
321.7329346780314268
  0
ARC
  5
28713
  8
0
 10
3159.4086796837600559
 20
151.7532973282218052
 30
0.0
 40
0.1408866513737705
 50
256.7434356845777756
 51
302.698203214565126
  0
ARC
  5
28714
  8
0
 10
3159.4018340113020713
 20
151.7242397192163139
 30
0.0
 40
0.111033546467795
 50
215.1886443888845974
 51
256.7434356845777756
  0
ARC
  5
28715
  8
0
 10
3159.4376414585308339
 20
151.7314153502443048
 30
0.0
 40
0.1015335136477515
 50
318.4976873215076125
 51
339.6599167548442892
  0
ARC
  5
28716
  8
0
 10
3159.4568515329251568
 20
151.724294045996686
 30
0.0
 40
0.0810459580978998
 50
339.6599167548442892
 51
23.2644432501148302
  0
ARC
  5
28717
  8
0
 10
3159.4395781300240742
 20
151.7168676478185887
 30
0.0
 40
0.0998481345056472
 50
23.2644432501163401
 51
59.7740632672792387
  0
ARC
  5
28718
  8
0
 10
3159.4155002558250089
 20
151.6755407608902999
 30
0.0
 40
0.1476775774160275
 50
59.7740632672792387
 51
93.7711263524362835
  0
ARC
  5
28719
  8
0
 10
3159.4155978761668848
 20
151.6740597300384934
 30
0.0
 40
0.1491618220438097
 50
93.7711263524362835
 51
122.7420386874461968
  0
ARC
  5
2871A
  8
0
 10
3159.3931838927851459
 20
151.708916814448088
 30
0.0
 40
0.1077202609654002
 50
122.7420386874461968
 51
144.2215198536931098
  0
ARC
  5
2871B
  8
0
 10
3159.3811062960098752
 20
151.7176205579908128
 30
0.0
 40
0.0928332365645158
 50
144.2215198536931098
 51
189.9403315112315909
  0
ARC
  5
2871C
  8
0
 10
3159.3661205432449606
 20
151.7149942540600875
 30
0.0
 40
0.0776190899158105
 50
189.9403315112315909
 51
224.8487166975145044
  0
ARC
  5
2871D
  8
0
 10
3159.3178604668578373
 20
152.2658049728514129
 30
0.0
 40
0.0420590590897079
 50
38.4187745612049412
 51
107.0680483733877963
  0
ARC
  5
2871E
  8
0
 10
3159.3185188542220203
 20
152.2636605969958055
 30
0.0
 40
0.0443022313373366
 50
107.0680483733877963
 51
154.2805902309191879
  0
ARC
  5
2871F
  8
0
 10
3159.3053630723311471
 20
152.274472356826891
 30
0.0
 40
0.0280491097828503
 50
162.5443356265222974
 51
234.9631751415948031
  0
ARC
  5
28720
  8
0
 10
3159.31573188493212
 20
152.2886878316857064
 30
0.0
 40
0.0456424498849537
 50
234.5505913556320081
 51
313.4871620209519278
  0
ARC
  5
28721
  8
0
 10
3159.3281514706191047
 20
152.2758588528230916
 30
0.0
 40
0.0277881948752947
 50
313.1119733666424736
 51
35.3611369516963876
  0
ARC
  5
28722
  8
0
 10
3159.3448312413129315
 20
152.28381912140091
 30
0.0
 40
0.0866312339315576
 50
319.5111689493638778
 51
11.8682159862051808
  0
ARC
  5
28723
  8
0
 10
3159.3412306892969355
 20
152.2781885457654028
 30
0.0
 40
0.0914372975453921
 50
14.8583391852709497
 51
56.3599420093484511
  0
ARC
  5
28724
  8
0
 10
3159.3187893074809836
 20
152.2425385878773909
 30
0.0
 40
0.1335532945893323
 50
56.8172396759580423
 51
121.2376300009553063
  0
ARC
  5
28725
  8
0
 10
3159.2924102309061709
 20
152.2784232346033946
 30
0.0
 40
0.089278394353289
 50
118.704804468497997
 51
210.2867938217669916
  0
ARC
  5
28726
  8
0
 10
3159.3411471189938311
 20
152.2824476470410104
 30
0.0
 40
0.0886092418281308
 50
302.698203214565126
 51
321.7329346780314268
  0
ARC
  5
28727
  8
0
 10
3159.3129061341028319
 20
152.3264405364797085
 30
0.0
 40
0.1408866513737705
 50
256.7434356845777756
 51
302.698203214565126
  0
ARC
  5
28728
  8
0
 10
3159.3060604616439377
 20
152.2973829274741888
 30
0.0
 40
0.111033546467795
 50
215.1886443888845974
 51
256.7434356845777756
  0
ARC
  5
28729
  8
0
 10
3159.3418679088740646
 20
152.3045585585022081
 30
0.0
 40
0.1015335136477515
 50
318.4976873215076125
 51
339.6599167548442892
  0
ARC
  5
2872A
  8
0
 10
3159.3610779832679327
 20
152.2974372542545893
 30
0.0
 40
0.0810459580978998
 50
339.6599167548442892
 51
23.2644432501148302
  0
ARC
  5
2872B
  8
0
 10
3159.3438045803668501
 20
152.2900108560764068
 30
0.0
 40
0.0998481345056472
 50
23.2644432501163401
 51
59.7740632672792387
  0
ARC
  5
2872C
  8
0
 10
3159.3197267061677849
 20
152.2486839691482032
 30
0.0
 40
0.1476775774160275
 50
59.7740632672792387
 51
93.7711263524362835
  0
ARC
  5
2872D
  8
0
 10
3159.319824326511025
 20
152.2472029382963967
 30
0.0
 40
0.1491618220438097
 50
93.7711263524362835
 51
122.7420386874461968
  0
ARC
  5
2872E
  8
0
 10
3159.2974103431270123
 20
152.2820600227059913
 30
0.0
 40
0.1077202609654002
 50
122.7420386874461968
 51
144.2215198536931098
  0
ARC
  5
2872F
  8
0
 10
3159.2853327463531059
 20
152.2907637662486877
 30
0.0
 40
0.0928332365645158
 50
144.2215198536931098
 51
189.9403315112315909
  0
ARC
  5
28730
  8
0
 10
3159.2703469935891007
 20
152.2881374623179909
 30
0.0
 40
0.0776190899158105
 50
189.9403315112315909
 51
224.8487166975145044
  0
ARC
  5
28731
  8
0
 10
3158.8932556698191547
 20
152.7069937986063906
 30
0.0
 40
0.0420590590897079
 50
38.4187745612049412
 51
107.0680483733877963
  0
ARC
  5
28732
  8
0
 10
3158.893914057182883
 20
152.7048494227506978
 30
0.0
 40
0.0443022313373366
 50
107.0680483733877963
 51
154.2805902309191879
  0
ARC
  5
28733
  8
0
 10
3158.8807582752911003
 20
152.7156611825818118
 30
0.0
 40
0.0280491097828503
 50
162.5443356265222974
 51
234.9631751415948031
  0
ARC
  5
28734
  8
0
 10
3158.8911270878920732
 20
152.7298766574405988
 30
0.0
 40
0.0456424498849537
 50
234.5505913556320081
 51
313.4871620209519278
  0
ARC
  5
28735
  8
0
 10
3158.9035466735799673
 20
152.7170476785780977
 30
0.0
 40
0.0277881948752947
 50
313.1119733666424736
 51
35.3611369516963876
  0
ARC
  5
28736
  8
0
 10
3158.9202264442728847
 20
152.7250079471558024
 30
0.0
 40
0.0866312339315576
 50
319.5111689493638778
 51
11.8682159862051808
  0
ARC
  5
28737
  8
0
 10
3158.9166258922577981
 20
152.7193773715202951
 30
0.0
 40
0.0914372975453921
 50
14.8583391852709497
 51
56.3599420093484511
  0
ARC
  5
28738
  8
0
 10
3158.8941845104409367
 20
152.6837274136323117
 30
0.0
 40
0.1335532945893323
 50
56.8172396759580423
 51
121.2376300009553063
  0
ARC
  5
28739
  8
0
 10
3158.8678054338661241
 20
152.719612060358287
 30
0.0
 40
0.089278394353289
 50
118.704804468497997
 51
210.2867938217669916
  0
ARC
  5
2873A
  8
0
 10
3158.9165423219551485
 20
152.7236364727959881
 30
0.0
 40
0.0886092418281308
 50
302.698203214565126
 51
321.7329346780314268
  0
ARC
  5
2873B
  8
0
 10
3158.8883013370641493
 20
152.7676293622346861
 30
0.0
 40
0.1408866513737705
 50
256.7434356845777756
 51
302.698203214565126
  0
ARC
  5
2873C
  8
0
 10
3158.8814556646061646
 20
152.7385717532291096
 30
0.0
 40
0.111033546467795
 50
215.1886443888845974
 51
256.7434356845777756
  0
ARC
  5
2873D
  8
0
 10
3158.9172631118340178
 20
152.7457473842572142
 30
0.0
 40
0.1015335136477515
 50
318.4976873215076125
 51
339.6599167548442892
  0
ARC
  5
2873E
  8
0
 10
3158.9364731862278859
 20
152.7386260800095101
 30
0.0
 40
0.0810459580978998
 50
339.6599167548442892
 51
23.2644432501148302
  0
ARC
  5
2873F
  8
0
 10
3158.9191997833268033
 20
152.7311996818314128
 30
0.0
 40
0.0998481345056472
 50
23.2644432501163401
 51
59.7740632672792387
  0
ARC
  5
28740
  8
0
 10
3158.8951219091291023
 20
152.6898727949030956
 30
0.0
 40
0.1476775774160275
 50
59.7740632672792387
 51
93.7711263524362835
  0
ARC
  5
28741
  8
0
 10
3158.8952195294709782
 20
152.6883917640514028
 30
0.0
 40
0.1491618220438097
 50
93.7711263524362835
 51
122.7420386874461968
  0
ARC
  5
28742
  8
0
 10
3158.872805546087875
 20
152.7232488484609121
 30
0.0
 40
0.1077202609654002
 50
122.7420386874461968
 51
144.2215198536931098
  0
ARC
  5
28743
  8
0
 10
3158.8607279493130591
 20
152.7319525920036085
 30
0.0
 40
0.0928332365645158
 50
144.2215198536931098
 51
189.9403315112315909
  0
ARC
  5
28744
  8
0
 10
3158.8457421965490539
 20
152.7293262880729117
 30
0.0
 40
0.0776190899158105
 50
189.9403315112315909
 51
224.8487166975145044
  0
LINE
  5
28745
  8
0
 10
3159.6304377256051339
 20
160.9974449600898083
 30
0.0
 11
3159.4666193850439413
 21
160.9974449600898083
 31
0.0
  0
LINE
  5
28746
  8
0
 10
3159.3496306490060306
 20
160.9974449600898083
 30
0.0
 11
3159.2570209913051258
 21
160.9974449600898083
 31
0.0
  0
LINE
  5
28747
  8
0
 10
3159.0101189081051416
 20
160.9974449600898083
 30
0.0
 11
3158.7996825772061129
 21
160.9974449600898083
 31
0.0
  0
LINE
  5
28748
  8
0
 10
3158.6327084598051442
 20
160.9974449600898083
 30
0.0
 11
3158.4631538563048707
 21
160.9974449600898083
 31
0.0
  0
LINE
  5
28749
  8
0
 10
3158.3312251271049718
 20
160.9974449600898083
 30
0.0
 11
3158.1210873092049951
 21
160.9974449600898083
 31
0.0
  0
LINE
  5
2874A
  8
0
 10
3158.0064219775049423
 20
160.9974449600898083
 30
0.0
 11
3157.9138123199049915
 21
160.9974449600898083
 31
0.0
  0
LINE
  5
2874B
  8
0
 10
3157.8752881167051783
 20
160.9974449600898083
 30
0.0
 11
3157.782678459005183
 21
160.9974449600898083
 31
0.0
  0
LINE
  5
2874C
  8
0
 10
3157.6816188279049129
 20
160.9974449600898083
 30
0.0
 11
3157.589009170304962
 21
160.9974449600898083
 31
0.0
  0
LINE
  5
2874D
  8
0
 10
3157.5075573447052193
 20
160.9974449600898083
 30
0.0
 11
3157.2642060207049326
 21
160.9974449600898083
 31
0.0
  0
LINE
  5
2874E
  8
0
 10
3157.0549281577050351
 20
160.9974449600898083
 30
0.0
 11
3156.9394028710048588
 21
160.9974449600898083
 31
0.0
  0
LINE
  5
2874F
  8
0
 10
3156.7219179704061389
 20
160.9974449600898083
 30
0.0
 11
3156.6145997214048293
 21
160.9974449600898083
 31
0.0
  0
LINE
  5
28750
  8
0
 10
3159.6455821586050661
 20
161.0565000782897869
 30
0.0
 11
3159.6382351119082159
 21
161.0042231247095117
 31
0.0
  0
ARC
  5
28751
  8
0
 10
3159.6305561451690664
 20
161.0051827496299097
 30
0.0
 40
0.0077386956368946
 50
269.1232106316840031
 51
352.8767903483819737
  0
LINE
  5
28752
  8
0
 10
3159.4517063538050934
 20
161.0565000782897869
 30
0.0
 11
3159.4590534004842084
 21
161.004223124709597
 31
0.0
  0
ARC
  5
28753
  8
0
 10
3159.466854835293816
 20
161.0053195448676888
 30
0.0
 40
0.0078781039752777
 50
187.9999999864670031
 51
268.287365241048974
  0
ARC
  5
28754
  8
0
 10
3159.3496306486949834
 20
161.0053189761208046
 30
0.0
 40
0.0078740160396216
 50
269.9973259391466058
 51
351.9999985171430126
  0
LINE
  5
28755
  8
0
 10
3159.3574280353232098
 20
161.004223124689787
 30
0.0
 11
3159.3647750833729333
 21
161.0565000781116112
 31
0.0
  0
ARC
  5
28756
  8
0
 10
3159.2570209916011663
 20
161.0053189760940029
 30
0.0
 40
0.0078740160042301
 50
188.0000013220027881
 51
269.9999978427155725
  0
LINE
  5
28757
  8
0
 10
3159.2492236050061365
 20
161.004223124689787
 30
0.0
 11
3159.2418765571042059
 21
161.0565000781209903
 31
0.0
  0
ARC
  5
28758
  8
0
 10
3159.0101189078509378
 20
161.0053189761597991
 30
0.0
 40
0.0078740160705561
 50
269.9993309505529737
 51
351.9999984134503279
  0
LINE
  5
28759
  8
0
 10
3159.0179162945078133
 20
161.0042231247103075
 30
0.0
 11
3159.0252633426762259
 21
161.0565000782897869
 31
0.0
  0
ARC
  5
2875A
  8
0
 10
3158.7996825775198886
 20
161.0053189762294039
 30
0.0
 40
0.007874016139688
 50
188.0000021788380877
 51
269.9999977136125153
  0
LINE
  5
2875B
  8
0
 10
3158.7918851908048055
 20
161.004223124689787
 30
0.0
 11
3158.7845381420829654
 21
161.0565000782897869
 31
0.0
  0
ARC
  5
2875C
  8
0
 10
3158.8922922348051543
 20
161.0053189758897929
 30
0.0
 40
0.0078740157000112
 50
270.0000000000259774
 51
351.9999998675060056
  0
LINE
  5
2875D
  8
0
 10
3158.9000896211227882
 20
161.004223124689787
 30
0.0
 11
3158.9049007426260687
 21
161.0384560323869039
 31
0.0
  0
ARC
  5
2875E
  8
0
 10
3158.9175942141378073
 20
161.0053915039009098
 30
0.0
 40
0.007968472475686
 50
188.4314047434336885
 51
265.7483664095390736
  0
LINE
  5
2875F
  8
0
 10
3158.9097118640052031
 20
161.004223124689787
 30
0.0
 11
3158.9023648173761103
 21
161.0565000782897869
 31
0.0
  0
ARC
  5
28760
  8
0
 10
3158.6327084594440748
 20
161.0053189762830073
 30
0.0
 40
0.0078740161932412
 50
269.999879651266383
 51
351.9999975261151235
  0
LINE
  5
28761
  8
0
 10
3158.6405058462059969
 20
161.0042231246956987
 30
0.0
 11
3158.6478528952020497
 21
161.0565000782897869
 31
0.0
  0
ARC
  5
28762
  8
0
 10
3158.4631538563048707
 20
161.0053189758897929
 30
0.0
 40
0.0078740157000077
 50
188.0000000000420926
 51
270.0
  0
LINE
  5
28763
  8
0
 10
3158.455356469984963
 20
161.0042231247078064
 30
0.0
 11
3158.4480094232922056
 21
161.0565000782897869
 31
0.0
  0
ARC
  5
28764
  8
0
 10
3158.5557635136410681
 20
161.005318976172191
 30
0.0
 40
0.0078740160824076
 50
270.0000019240912934
 51
351.9999982143937132
  0
LINE
  5
28765
  8
0
 10
3158.563560900306129
 20
161.0042231246939934
 30
0.0
 11
3158.570907948660988
 21
161.0565000782897869
 31
0.0
  0
ARC
  5
28766
  8
0
 10
3158.3312251268462205
 20
161.0053189760714929
 30
0.0
 40
0.0078740159817627
 50
270.0000018845134946
 51
351.9999988201067822
  0
LINE
  5
28767
  8
0
 10
3158.3390225134230604
 20
161.004223124689787
 30
0.0
 11
3158.3463695612158517
 21
161.0565000782897869
 31
0.0
  0
ARC
  5
28768
  8
0
 10
3158.1210873092149996
 20
161.0053189759956922
 30
0.0
 40
0.0078740158060029
 50
188.0000008029398941
 51
269.9999999266028112
  0
LINE
  5
28769
  8
0
 10
3158.1132899228050519
 20
161.004223124689787
 30
0.0
 11
3158.1059428753628708
 21
161.0565000782897869
 31
0.0
  0
ARC
  5
2876A
  8
0
 10
3158.2386154697592247
 20
161.0053189761592023
 30
0.0
 40
0.0078740160694757
 50
188.0000017347132939
 51
269.9999981577217909
  0
LINE
  5
2876B
  8
0
 10
3158.2308180831068967
 20
161.0042231246771962
 30
0.0
 11
3158.2291928880408705
 21
161.0157869882334865
 31
0.0
  0
LINE
  5
2876C
  8
0
 10
3158.2275676930048576
 20
161.004223124689787
 30
0.0
 11
3158.234914739704891
 21
161.0565000782897869
 31
0.0
  0
ARC
  5
2876D
  8
0
 10
3158.2197703063538938
 20
161.005318976062199
 30
0.0
 40
0.007874015972444
 50
269.9999974596534003
 51
351.999998879055795
  0
ARC
  5
2876E
  8
0
 10
3158.0064219772580145
 20
161.0053189760581063
 30
0.0
 40
0.007874015968407
 50
269.9998395327116896
 51
351.9999989048155271
  0
LINE
  5
2876F
  8
0
 10
3158.014219363823031
 20
161.004223124689787
 30
0.0
 11
3158.021566411537151
 21
161.0565000782897869
 31
0.0
  0
ARC
  5
28770
  8
0
 10
3157.9138123199049915
 20
161.0053189758897929
 30
0.0
 40
0.0078740157000041
 50
188.0000000000098055
 51
269.9999999999478746
  0
LINE
  5
28771
  8
0
 10
3157.9060149335850838
 20
161.0042231247078064
 30
0.0
 11
3157.8986678868918716
 21
161.0565000782897869
 31
0.0
  0
ARC
  5
28772
  8
0
 10
3157.8752881163190978
 20
161.0053189763125943
 30
0.0
 40
0.0078740162228499
 50
270.0000020847730866
 51
351.999997406470186
  0
LINE
  5
28773
  8
0
 10
3157.8830855031069405
 20
161.0042231247049074
 30
0.0
 11
3157.8904325522130421
 21
161.0565000782897869
 31
0.0
  0
ARC
  5
28774
  8
0
 10
3157.7826784593639786
 20
161.0053189761866008
 30
0.0
 40
0.0078740160968209
 50
188.0000019076832132
 51
269.9999973876630861
  0
LINE
  5
28775
  8
0
 10
3157.7748810726870943
 20
161.004223124689787
 30
0.0
 11
3157.7675340242180937
 21
161.0565000782897869
 31
0.0
  0
ARC
  5
28776
  8
0
 10
3157.681618827631155
 20
161.0053189761839008
 30
0.0
 40
0.0078740160942021
 50
269.9999255947782899
 51
351.9999981525006092
  0
LINE
  5
28777
  8
0
 10
3157.6894162143062204
 20
161.0042231246956987
 30
0.0
 11
3157.6967632627188323
 21
161.0565000782897869
 31
0.0
  0
ARC
  5
28778
  8
0
 10
3157.5890091705960003
 20
161.0053189762031991
 30
0.0
 40
0.0078740161133979
 50
188.0000019689703947
 51
269.9999978798962275
  0
LINE
  5
28779
  8
0
 10
3157.5812117839050188
 20
161.004223124689787
 30
0.0
 11
3157.5738647372058949
 21
161.0565000782897869
 31
0.0
  0
ARC
  5
2877A
  8
0
 10
3157.5075573444009933
 20
161.0053189761028989
 30
0.0
 40
0.0078740160131081
 50
269.9998792394915199
 51
351.9999986219668813
  0
LINE
  5
2877B
  8
0
 10
3157.5227017777051515
 20
161.0565000782897869
 30
0.0
 11
3157.5153547310051181
 21
161.004223124689787
 31
0.0
  0
ARC
  5
2877C
  8
0
 10
3157.4149476873030835
 20
161.0053189762109014
 30
0.0
 40
0.0078740161211286
 50
188.000002061442899
 51
269.9999978309908215
  0
LINE
  5
2877D
  8
0
 10
3157.407150300604826
 20
161.004223124689787
 30
0.0
 11
3157.400525421814109
 21
161.0513615743506932
 31
0.0
  0
LINE
  5
2877E
  8
0
 10
3157.4012475931031076
 20
161.0565000782897869
 30
0.0
 11
3157.3939005464230831
 21
161.004223124689787
 31
0.0
  0
ARC
  5
2877F
  8
0
 10
3157.3861031601259128
 20
161.0053189758664018
 30
0.0
 40
0.0078740156765947
 50
269.9999998519548967
 51
352.0000000156369993
  0
ARC
  5
28780
  8
0
 10
3157.2642060210127966
 20
161.0053189761283932
 30
0.0
 40
0.0078740160386417
 50
188.000001539679289
 51
269.9999977556914814
  0
LINE
  5
28781
  8
0
 10
3157.2564086343868439
 20
161.004223124689787
 30
0.0
 11
3157.2490615862598133
 21
161.0565000782897869
 31
0.0
  0
ARC
  5
28782
  8
0
 10
3157.2934935024049992
 20
161.0053189758897929
 30
0.0
 40
0.0078740157000041
 50
188.0000000000113971
 51
269.9999999999739089
  0
LINE
  5
28783
  8
0
 10
3157.2856961160850915
 20
161.0042231247078064
 30
0.0
 11
3157.2783490693927888
 21
161.0565000782897869
 31
0.0
  0
ARC
  5
28784
  8
0
 10
3157.0549281574139968
 20
161.0053189761082137
 30
0.0
 40
0.0078740160184879
 50
269.999902427934785
 51
351.9999985878924917
  0
LINE
  5
28785
  8
0
 10
3157.0627255440231238
 20
161.004223124689787
 30
0.0
 11
3157.0700725920310106
 21
161.0565000782897869
 31
0.0
  0
ARC
  5
28786
  8
0
 10
3156.9394028712908948
 20
161.0053189760818952
 30
0.0
 40
0.0078740159921829
 50
188.0000012458039862
 51
269.9999979189527721
  0
LINE
  5
28787
  8
0
 10
3156.93160548470496
 20
161.004223124689787
 30
0.0
 11
3156.9242584368507778
 21
161.0565000782897869
 31
0.0
  0
ARC
  5
28788
  8
0
 10
3156.9623185003620165
 20
161.0053189760689918
 30
0.0
 40
0.0078740159792083
 50
188.0000011637424109
 51
269.9999981316667004
  0
LINE
  5
28789
  8
0
 10
3156.9545211137869956
 20
161.004223124689787
 30
0.0
 11
3156.9471740660101204
 21
161.0565000782897869
 31
0.0
  0
ARC
  5
2878A
  8
0
 10
3156.7219179701592111
 20
161.0053189760575947
 30
0.0
 40
0.0078740159678361
 50
270.0000017964472931
 51
351.9999989081994727
  0
LINE
  5
2878B
  8
0
 10
3156.7297153567228634
 20
161.004223124689787
 30
0.0
 11
3156.7370624044328906
 21
161.0565000782897869
 31
0.0
  0
ARC
  5
2878C
  8
0
 10
3156.614599721680861
 20
161.0053189760708108
 30
0.0
 40
0.0078740159809954
 50
188.000001175036914
 51
269.9999979897185085
  0
LINE
  5
2878D
  8
0
 10
3156.6068023351049305
 20
161.004223124689787
 30
0.0
 11
3156.5994552873171415
 21
161.0565000782897869
 31
0.0
  0
ARC
  5
2878E
  8
0
 10
3156.6282054220268947
 20
161.0053189760089083
 30
0.0
 40
0.0078740158192012
 50
188.0000007353741012
 51
269.9999998430961909
  0
LINE
  5
2878F
  8
0
 10
3156.6204080356019404
 20
161.0042231247103075
 30
0.0
 11
3156.6130609882261524
 21
161.0565000782897869
 31
0.0
  0
ARC
  5
28791
  8
0
 10
3155.9659542448548564
 20
155.7365307228897962
 30
0.0
 40
0.0078740157000022
 50
90.0
 51
179.4999998364023099
  0
LINE
  5
28792
  8
0
 10
3155.9620856526048556
 20
155.7444047386898092
 30
0.0
 11
3156.7101171486560816
 21
155.7444047386898092
 31
0.0
  0
LINE
  5
28793
  8
0
 10
3156.7101171487051943
 20
155.5081842661896872
 30
0.0
 11
3155.9620856526048556
 21
155.5081842661896872
 31
0.0
  0
ARC
  5
28794
  8
0
 10
3156.7081725903549341
 20
155.5160582819898138
 30
0.0
 40
0.0078740156999998
 50
271.0669354293212905
 51
0.0
  0
LINE
  5
28795
  8
0
 10
3156.7160466060549879
 20
155.5160582819898138
 30
0.0
 11
3156.7141222723371357
 21
155.7365994357672889
 31
0.0
  0
ARC
  5
28796
  8
0
 10
3156.7062485564551935
 20
155.7365307228897962
 30
0.0
 40
0.007874015699998
 50
0.5000000001070765
 51
90.0
  0
LINE
  5
28797
  8
0
 10
3155.9580805289738237
 20
155.7365994357897137
 30
0.0
 11
3155.9561564950549837
 21
155.5161269948897882
 31
0.0
  0
ARC
  5
28798
  8
0
 10
3155.9640302109610275
 20
155.5160582820136028
 30
0.0
 40
0.007874015723816
 50
179.5000000112304122
 51
269.9999999604223149
  0
ARC
  5
28799
  8
0
 10
3155.9659542448548564
 20
135.8152708803897895
 30
0.0
 40
0.0078740157000022
 50
90.0
 51
179.4999998364023099
  0
LINE
  5
2879A
  8
0
 10
3155.9620856526048556
 20
135.8231448961898025
 30
0.0
 11
3156.7101171487051943
 21
135.8231448961898025
 31
0.0
  0
LINE
  5
2879B
  8
0
 10
3156.7101171487051943
 20
135.5869244236897089
 30
0.0
 11
3155.9620856526048556
 21
135.5869244236897089
 31
0.0
  0
ARC
  5
2879C
  8
0
 10
3156.7081725903549341
 20
135.5947984394898072
 30
0.0
 40
0.0078740156999998
 50
271.0669354293212905
 51
0.0
  0
LINE
  5
2879D
  8
0
 10
3156.7160466060549879
 20
135.5947984394898072
 30
0.0
 11
3156.7141222723371357
 21
135.8153395932673106
 31
0.0
  0
ARC
  5
2879E
  8
0
 10
3156.7062485564551935
 20
135.8152708803897895
 30
0.0
 40
0.007874015699998
 50
0.5000000001070765
 51
90.0
  0
LINE
  5
2879F
  8
0
 10
3155.9580805289738237
 20
135.815339593289707
 30
0.0
 11
3155.9561564950549837
 21
135.5948671523896962
 31
0.0
  0
ARC
  5
287A0
  8
0
 10
3155.9640302109610275
 20
135.5947984395135961
 30
0.0
 40
0.007874015723816
 50
179.5000000112304122
 51
269.9999999604223149
  0
LINE
  5
287A1
  8
0
 10
3160.6694617195798855
 20
125.5984755090606058
 30
0.0
 11
3160.6694617195798855
 21
125.1541838779012039
 31
0.0
  0
ARC
  5
287A2
  8
0
 10
3152.488487642885957
 20
124.056428611059502
 30
0.0
 40
9.7546629144498418
 50
355.6157889341358214
 51
4.4264864940051174
  0
ARC
  5
287A3
  8
0
 10
3162.2056368759331235
 20
123.3115532826387977
 30
0.0
 40
0.009006874760042
 50
339.1538809374615084
 51
354.8228273700644877
  0
ENDSEC
  0
EOF
