  0
SECTION
  2
HEADER
  9
$ACADVER
  1
AC1009
  9
$INSBASE
 10
3156.3275468362307947
 20
192.6002980736076893
 30
0.0
  9
$EXTMIN
 10
3150.2781454574519557
 20
171.1279846239106064
 30
-0.0015258207003583
  9
$EXTMAX
 10
3162.341147757669205
 20
192.6115586993834086
 30
0.0000000349246037
  9
$LIMMIN
 10
0.0
 20
0.0
  9
$LIMMAX
 10
11.6929133858000007
 20
8.2677165353999982
  9
$ORTHOMODE
 70
     0
  9
$REGENMODE
 70
     1
  9
$FILLMODE
 70
     1
  9
$QTEXTMODE
 70
     0
  9
$MIRRTEXT
 70
     0
  9
$DRAGMODE
 70
     2
  9
$LTSCALE
 40
0.6431102362
  9
$OSMODE
 70
  4095
  9
$ATTMODE
 70
     1
  9
$TEXTSIZE
 40
0.2
  9
$TRACEWID
 40
0.05
  9
$TEXTSTYLE
  7
STANDARD
  9
$CLAYER
  8
0
  9
$CELTYPE
  6
BYLAYER
  9
$CECOLOR
 62
   256
  9
$DIMSCALE
 40
1.0
  9
$DIMASZ
 40
0.1875
  9
$DIMEXO
 40
0.0625
  9
$DIMDLI
 40
0.4443307087
  9
$DIMRND
 40
0.0
  9
$DIMDLE
 40
0.0
  9
$DIMEXE
 40
0.125
  9
$DIMTP
 40
0.01
  9
$DIMTM
 40
0.01
  9
$DIMTXT
 40
2.0
  9
$DIMCEN
 40
0.1052362205
  9
$DIMTSZ
 40
0.0
  9
$DIMTOL
 70
     1
  9
$DIMLIM
 70
     0
  9
$DIMTIH
 70
     1
  9
$DIMTOH
 70
     1
  9
$DIMSE1
 70
     0
  9
$DIMSE2
 70
     0
  9
$DIMTAD
 70
     0
  9
$DIMZIN
 70
     0
  9
$DIMBLK
  1

  9
$DIMASO
 70
     1
  9
$DIMSHO
 70
     1
  9
$DIMPOST
  1
\X
  9
$DIMAPOST
  1

  9
$DIMALT
 70
     1
  9
$DIMALTD
 70
     2
  9
$DIMALTF
 40
25.3999999999999986
  9
$DIMLFAC
 40
1.0
  9
$DIMTOFL
 70
     0
  9
$DIMTVP
 40
0.0
  9
$DIMTIX
 70
     0
  9
$DIMSOXD
 70
     0
  9
$DIMSAH
 70
     0
  9
$DIMBLK1
  1

  9
$DIMBLK2
  1

  9
$DIMSTYLE
  2
STANDARD
  9
$DIMCLRD
 70
     0
  9
$DIMCLRE
 70
     0
  9
$DIMCLRT
 70
     0
  9
$DIMTFAC
 40
1.0
  9
$DIMGAP
 40
0.09
  9
$LUNITS
 70
     2
  9
$LUPREC
 70
     4
  9
$SKETCHINC
 40
0.1
  9
$FILLETRAD
 40
0.0
  9
$AUNITS
 70
     0
  9
$AUPREC
 70
     0
  9
$MENU
  1
.
  9
$ELEVATION
 40
0.0
  9
$PELEVATION
 40
0.0
  9
$THICKNESS
 40
0.0
  9
$LIMCHECK
 70
     0
  9
$BLIPMODE
 70
     0
  9
$CHAMFERA
 40
0.0
  9
$CHAMFERB
 40
0.0
  9
$SKPOLY
 70
     0
  9
$TDCREATE
 40
2458060.468368056230247
  9
$TDUPDATE
 40
2460076.6671759258024395
  9
$TDINDWG
 40
0.651233912
  9
$TDUSRTIMER
 40
0.651233912
  9
$USRTIMER
 70
     1
  9
$ANGBASE
 50
0.0
  9
$ANGDIR
 70
     0
  9
$PDMODE
 70
     0
  9
$PDSIZE
 40
0.3125
  9
$PLINEWID
 40
0.0
  9
$COORDS
 70
     1
  9
$SPLFRAME
 70
     0
  9
$SPLINETYPE
 70
     6
  9
$SPLINESEGS
 70
     8
  9
$ATTDIA
 70
     1
  9
$ATTREQ
 70
     1
  9
$HANDLING
 70
     1
  9
$HANDSEED
  5
27C44
  9
$SURFTAB1
 70
     6
  9
$SURFTAB2
 70
     6
  9
$SURFTYPE
 70
     6
  9
$SURFU
 70
     6
  9
$SURFV
 70
     6
  9
$UCSNAME
  2

  9
$UCSORG
 10
0.0
 20
0.0
 30
0.0
  9
$UCSXDIR
 10
1.0
 20
0.0
 30
0.0
  9
$UCSYDIR
 10
0.0
 20
1.0
 30
0.0
  9
$PUCSNAME
  2

  9
$PUCSORG
 10
0.0
 20
0.0
 30
0.0
  9
$PUCSXDIR
 10
1.0
 20
0.0
 30
0.0
  9
$PUCSYDIR
 10
0.0
 20
1.0
 30
0.0
  9
$USERI1
 70
     0
  9
$USERI2
 70
     0
  9
$USERI3
 70
     0
  9
$USERI4
 70
     0
  9
$USERI5
 70
     0
  9
$USERR1
 40
0.0
  9
$USERR2
 40
0.0
  9
$USERR3
 40
0.0
  9
$USERR4
 40
0.0
  9
$USERR5
 40
0.0
  9
$WORLDVIEW
 70
     1
  9
$SHADEDGE
 70
     3
  9
$SHADEDIF
 70
    70
  9
$TILEMODE
 70
     1
  9
$MAXACTVP
 70
    64
  9
$PLIMCHECK
 70
     0
  9
$PEXTMIN
 10
1.0000000000000000E+20
 20
1.0000000000000000E+20
 30
1.0000000000000000E+20
  9
$PEXTMAX
 10
-1.0000000000000000E+20
 20
-1.0000000000000000E+20
 30
-1.0000000000000000E+20
  9
$PLIMMIN
 10
0.0
 20
0.0
  9
$PLIMMAX
 10
12.0
 20
9.0
  9
$UNITMODE
 70
     0
  9
$VISRETAIN
 70
     1
  9
$PLINEGEN
 70
     0
  9
$PSLTSCALE
 70
     1
  0
ENDSEC
  0
SECTION
  2
TABLES
  0
TABLE
  2
VPORT
 70
     1
  0
VPORT
  2
*ACTIVE
 70
     0
 10
0.0
 20
0.0
 11
1.0
 21
1.0
 12
-54.8651580799396399
 22
35.3840303412279695
 13
0.0
 23
0.0
 14
1.0
 24
1.0
 15
0.0
 25
0.0
 16
0.0
 26
0.0
 36
24.3507166897908292
 17
3211.1748046875
 27
146.4857413204190095
 37
0.0
 40
21.6712035433808587
 41
2.2259475218658888
 42
50.0
 43
0.0
 44
0.0
 50
0.0
 51
0.0
 71
     0
 72
   100
 73
     1
 74
     1
 75
     0
 76
     0
 77
     0
 78
     0
  0
ENDTAB
  0
TABLE
  2
LTYPE
 70
     2
  0
LTYPE
  2
CONTINUOUS
 70
     0
  3
Solid line
 72
    65
 73
     0
 40
0.0
  0
LTYPE
  2
PHANTOM2
 70
     0
  3
___ _ _ ___ _ _ ___ _ _ ___ _ _
 72
    65
 73
     6
 40
1.25
 49
0.625
 49
-0.125
 49
0.125
 49
-0.125
 49
0.125
 49
-0.125
  0
ENDTAB
  0
TABLE
  2
LAYER
 70
     2
  0
LAYER
  2
0
 70
     0
 62
   255
  6
CONTINUOUS
  0
LAYER
  2
DEFPOINTS
 70
     0
 62
     7
  6
CONTINUOUS
  0
ENDTAB
  0
TABLE
  2
STYLE
 70
     1
  0
STYLE
  2
STANDARD
 70
     0
 40
0.0
 41
0.8
 50
0.0
 71
     0
 42
0.2
  3
txt
  4

  0
ENDTAB
  0
TABLE
  2
VIEW
 70
     0
  0
ENDTAB
  0
TABLE
  2
UCS
 70
     0
  0
ENDTAB
  0
TABLE
  2
APPID
 70
     9
  0
APPID
  2
ACAD
 70
     0
  0
APPID
  2
ACAD_MLEADERVER
 70
     0
  0
APPID
  2
ACAD_EXEMPT_FROM_CAD_STANDARDS
 70
     0
  0
APPID
  2
ACAD_NAV_VCDISPLAY
 70
     0
  0
APPID
  2
ACAECLAYERSTANDARD
 70
     0
  0
APPID
  2
ACCMTRANSPARENCY
 70
     0
  0
APPID
  2
ACAD_DSTYLE_DIMJAG
 70
     0
  0
APPID
  2
ACAD_DSTYLE_DIMTALN
 70
     0
  0
APPID
  2
ACDBATTR
 70
     0
  0
ENDTAB
  0
TABLE
  2
DIMSTYLE
 70
     1
  0
DIMSTYLE
  2
STANDARD
 70
     0
  3

  4

  5

  6

  7

 40
1.0
 41
0.1875
 42
0.0625
 43
0.38
 44
0.125
 45
0.0
 46
0.0
 47
0.01
 48
0.01
140
0.15625
141
0.09
142
0.0
143
25.3999999999999986
144
1.0
145
0.0
146
1.0
147
0.09
 71
     1
 72
     0
 73
     1
 74
     1
 75
     0
 76
     0
 77
     0
 78
     4
170
     0
171
     2
172
     0
173
     0
174
     0
175
     0
176
     0
177
     0
178
     0
  0
ENDTAB
  0
ENDSEC
  0
SECTION
  2
BLOCKS
  0
BLOCK
  8
0
  2
$MODEL_SPACE
 70
     0
 10
0.0
 20
0.0
 30
0.0
  3
$MODEL_SPACE
  1

  0
ENDBLK
  5
21
  8
0
  0
BLOCK
 67
     1
  8
0
  2
$PAPER_SPACE
 70
     0
 10
0.0
 20
0.0
 30
0.0
  3
$PAPER_SPACE
  1

  0
ENDBLK
  5
1D
 67
     1
  8
0
  0
ENDSEC
  0
SECTION
  2
ENTITIES
  0
ATTDEF
  5
27737
  8
DEFPOINTS
 10
3156.3280951823908254
 20
192.6046803920326909
 30
0.0
 40
0.001
  1
K-32403T-7
  3

  2
MODELNUMBER
 70
     0
1001
ACDBATTR
1070
     0
1070
     1
  0
ATTDEF
  5
27738
  8
DEFPOINTS
 10
3156.3280951823908254
 20
192.6030137253659973
 30
0.0
 40
0.001
  1
ATOM
  3

  2
TRADENAME
 70
     0
1001
ACDBATTR
1070
     0
1070
     1
  0
ATTDEF
  5
27739
  8
DEFPOINTS
 10
3156.3280951823908254
 20
192.601347058699389
 30
0.0
 40
0.001
  1
SHOWER COLUMN
  3

  2
PRODUCT
 70
     0
1001
ACDBATTR
1070
     0
1070
     1
  0
LINE
  5
27984
  8
0
 10
3152.0068539956319
 20
192.6002980736076893
 30
0.0
 11
3154.742727865831057
 21
192.6002980736076893
 31
0.0
  0
ARC
  5
27985
  8
0
 10
3152.0068539956319
 20
192.5904555540076899
 30
0.0
 40
0.0098425196999941
 50
90.0000000000521254
 51
180.0000000000406999
  0
LINE
  5
27986
  8
0
 10
3151.9970114759307762
 20
192.5904555540076899
 30
0.0
 11
3152.0125818200581307
 21
191.6983452435991921
 31
0.0
  0
ARC
  5
27987
  8
0
 10
3152.0322638620150428
 20
191.6986887952367908
 30
0.0
 40
0.0196850401164465
 50
181.0000009207226981
 51
224.9999992685359871
  0
LINE
  5
27988
  8
0
 10
3152.0183444364838579
 20
191.6847693700601951
 30
0.0
 11
3152.1285055719267802
 21
191.574608231803694
 31
0.0
  0
ARC
  5
27989
  8
0
 10
3152.13546530595886
 20
191.5815679656573138
 30
0.0
 40
0.0098425501320323
 50
224.9999992685349071
 51
262.0413684596616122
  0
LINE
  5
2798A
  8
0
 10
3152.1341025254091619
 20
191.5718202160568069
 30
0.0
 11
3154.6154872892670937
 21
191.5718213390983067
 31
0.0
  0
ARC
  5
2798B
  8
0
 10
3154.6141165757308045
 20
191.5815679456077021
 30
0.0
 40
0.0098425197000316
 50
278.0052879881362173
 51
314.9999999999021156
  0
LINE
  5
2798C
  8
0
 10
3154.6210762881551091
 20
191.5746082331837954
 30
0.0
 11
3154.7312374250559515
 21
191.6847693700835862
 31
0.0
  0
ARC
  5
2798D
  8
0
 10
3154.717318000331943
 20
191.6986887948071967
 30
0.0
 40
0.0196850392244998
 50
314.9999999999045031
 51
359.0000002894217914
  0
LINE
  5
2798E
  8
0
 10
3154.7370000414312017
 20
191.698345243601409
 30
0.0
 11
3154.7525688819609968
 21
192.5902837783856967
 31
0.0
  0
ARC
  5
2798F
  8
0
 10
3154.742727861405001
 20
192.5904555539887042
 30
0.0
 40
0.0098425196189195
 50
359.0000002894217914
 51
89.9999742309289843
  0
LINE
  5
27990
  8
0
 10
3155.4363254874087943
 20
192.6002980736076893
 30
0.0
 11
3157.2187681850541594
 21
192.6002980736076893
 31
0.0
  0
LINE
  5
27991
  8
0
 10
3155.4363254874087943
 20
192.6002980736076893
 30
0.0
 11
3155.4415812608322085
 21
192.2991950164077082
 31
0.0
  0
ARC
  5
27992
  8
0
 10
3155.4612633018191445
 20
192.2995385677116076
 30
0.0
 40
0.0196850391145898
 50
181.0000000016254944
 51
225.000000650674707
  0
LINE
  5
27993
  8
0
 10
3155.44734387733115
 20
192.2856191429077057
 30
0.0
 11
3155.5062248853500932
 21
192.2267381362262881
 31
0.0
  0
ARC
  5
27994
  8
0
 10
3155.5130743880249611
 20
192.2335876390575038
 30
0.0
 40
0.0096866596892811
 50
225.0000006506759007
 51
266.160019946900718
  0
ARC
  5
27995
  8
0
 10
3156.3243670024030507
 20
199.2513532086651935
 30
0.0
 40
7.0741803703754886
 50
263.4093338487679148
 51
266.9754525694012273
  0
LINE
  5
27996
  8
0
 10
3155.951106380020974
 20
192.1870270256252127
 30
0.0
 11
3156.7033628980311732
 21
192.1870105096076884
 31
0.0
  0
ARC
  5
27997
  8
0
 10
3156.327546834083023
 20
199.2978046576068891
 30
0.0
 40
7.1207349304985073
 50
273.030376607378173
 51
276.576125437241501
  0
ARC
  5
27998
  8
0
 10
3157.1419090751869589
 20
192.2336978487930139
 30
0.0
 40
0.0098425205357366
 50
276.576125437241501
 51
314.9999977726170073
  0
LINE
  5
27999
  8
0
 10
3157.1488687879318604
 20
192.2267381355077021
 30
0.0
 11
3157.207749797570159
 21
192.2856191405687127
 31
0.0
  0
ARC
  5
2799A
  8
0
 10
3157.1938303806609838
 20
192.2995385585606982
 30
0.0
 40
0.0196850289394459
 50
314.9999977726122893
 51
359.0000261202609977
  0
LINE
  5
2799B
  8
0
 10
3157.2135124116311999
 20
192.2991950164077082
 30
0.0
 11
3157.2187681850541594
 21
192.6002980736076893
 31
0.0
  0
ARC
  5
2799C
  8
0
 10
3152.795857394063205
 20
196.2646519314533862
 30
0.0
 40
4.7392603869400229
 50
261.9734176972140745
 51
269.6215602340901114
  0
LINE
  5
2799D
  8
0
 10
3152.7645547123311189
 20
191.5254949223077006
 30
0.0
 11
3153.9850262981190099
 21
191.5255871932990885
 31
0.0
  0
ARC
  5
2799E
  8
0
 10
3153.955499599625
 20
196.2499041806800903
 30
0.0
 40
4.7244092565293627
 50
270.3580905311707738
 51
278.0303364733933904
  0
LINE
  5
2799F
  8
0
 10
3152.7645771983147824
 20
191.5254949240076883
 30
0.0
 11
3152.7448696727310562
 21
191.5058098825076911
 31
0.0
  0
LINE
  5
279A0
  8
0
 10
3152.7448696727310562
 20
191.5058098825076911
 30
0.0
 11
3152.7448696717310668
 21
191.3741270456723953
 31
0.0
  0
ARC
  5
279A1
  8
0
 10
3152.7566806959807764
 20
191.3741270455826964
 30
0.0
 40
0.0118110242496084
 50
179.9999995648975926
 51
239.9999310797178964
  0
LINE
  5
279A2
  8
0
 10
3152.7507751715520499
 20
191.3638984056414927
 30
0.0
 11
3152.7971038162709192
 21
191.3371504758380013
 31
0.0
  0
ARC
  5
279A3
  8
0
 10
3152.790235504939119
 20
191.3252542446977884
 30
0.0
 40
0.0137365940422336
 50
4.7566267030909888
 51
59.9999310797203407
  0
LINE
  5
279A4
  8
0
 10
3152.803924789031953
 20
191.3263933307075888
 30
0.0
 11
3152.8039184655031022
 21
190.7097238589257984
 31
0.0
  0
ARC
  5
279A5
  8
0
 10
3152.7921137653511323
 20
190.7101102974345963
 30
0.0
 40
0.0118110236817419
 50
299.9999895814221986
 51
358.1250356901297209
  0
LINE
  5
279A6
  8
0
 10
3152.7507751715352242
 20
190.6726052538213878
 30
0.0
 11
3152.7980192762511251
 21
190.6998816443644955
 31
0.0
  0
ARC
  5
279A7
  8
0
 10
3152.7566806973118219
 20
190.6623766121981021
 30
0.0
 40
0.0118110263806787
 50
120.0000705066198066
 51
179.9999921919024928
  0
LINE
  5
279A8
  8
0
 10
3152.7448696709311662
 20
190.6623766138077087
 30
0.0
 11
3152.7448696520091289
 21
190.5235264201076859
 31
0.0
  0
ARC
  5
279A9
  8
0
 10
3152.7566806740001084
 20
190.5235264184981077
 30
0.0
 40
0.0118110219904507
 50
179.9999921919041128
 51
270.0000995999599809
  0
LINE
  5
279AA
  8
0
 10
3152.7566806945319513
 20
190.5117153965076966
 30
0.0
 11
3153.9929009030288398
 21
190.5117175454874996
 31
0.0
  0
ARC
  5
279AB
  8
0
 10
3153.9929008824979064
 20
190.5235288538723069
 30
0.0
 40
0.0118113083847683
 50
270.0000995999340034
 51
359.9881939885443103
  0
LINE
  5
279AC
  8
0
 10
3154.0047121906318353
 20
190.5235264201076859
 30
0.0
 11
3154.0047408012369488
 21
190.662376610860008
 31
0.0
  0
ARC
  5
279AD
  8
0
 10
3153.9929623597981845
 20
190.662379037852304
 30
0.0
 40
0.011778441690003
 50
359.9881939885539737
 51
60.2518513052001765
  0
LINE
  5
279AE
  8
0
 10
3153.9988066865312248
 20
190.6726052558076958
 30
0.0
 11
3153.9515625843318958
 21
190.6998816509253913
 31
0.0
  0
ARC
  5
279AF
  8
0
 10
3153.9574681005888124
 20
190.7101102995200961
 30
0.0
 40
0.0118110280570241
 50
180.0000102474120922
 51
240.0093372362819935
  0
LINE
  5
279B0
  8
0
 10
3153.9456570725310485
 20
190.7101102974077094
 30
0.0
 11
3153.9456569623089308
 21
191.3263933619076909
 31
0.0
  0
ARC
  5
279B1
  8
0
 10
3153.9575308374191991
 20
191.3263933640313041
 30
0.0
 40
0.0118738751105594
 50
115.8267662773242961
 51
180.0000102474120922
  0
LINE
  5
279B2
  8
0
 10
3153.9523579642009281
 20
191.3370812212912142
 30
0.0
 11
3153.9986835349241119
 21
191.3638273019518863
 31
0.0
  0
ARC
  5
279B3
  8
0
 10
3153.992643294041045
 20
191.3742759325261886
 30
0.0
 40
0.0120689018061411
 50
300.0317446700059918
 51
359.9467344651578742
  0
LINE
  5
279B4
  8
0
 10
3154.0047121906318353
 20
191.374264712563587
 30
0.0
 11
3154.0047121906318353
 21
191.5058098807076874
 31
0.0
  0
LINE
  5
279B5
  8
0
 10
3154.0047121906318353
 20
191.5058098807076874
 30
0.0
 11
3153.9849348850511888
 21
191.5255871863880941
 31
0.0
  0
LINE
  5
279B6
  8
0
 10
3152.7448696727310562
 20
191.5058098825076911
 30
0.0
 11
3154.0047121906318353
 21
191.5058098825076911
 31
0.0
  0
LINE
  5
279B7
  8
0
 10
3152.7645547102310957
 20
190.4920303571076943
 30
0.0
 11
3153.9850271512309519
 21
190.4920303571076943
 31
0.0
  0
ARC
  5
279B8
  8
0
 10
3153.9850271512309519
 20
190.4723453177076919
 30
0.0
 40
0.0196850394000023
 50
359.9999999999789111
 51
90.0
  0
LINE
  5
279B9
  8
0
 10
3154.0047121906318353
 20
190.4723453177076919
 30
0.0
 11
3154.0047121906318353
 21
190.2951799629076959
 31
0.0
  0
ARC
  5
279BA
  8
0
 10
3154.083453510137133
 20
190.2951799629076959
 30
0.0
 40
0.0787413195059714
 50
179.9999999999787974
 51
269.9991540775641852
  0
LINE
  5
279BB
  8
0
 10
3154.0834523475900824
 20
190.2164386434102141
 30
0.0
 11
3154.5243972298831068
 21
190.2164321332419092
 31
0.0
  0
LINE
  5
279BC
  8
0
 10
3155.5086491984311579
 20
190.3748084112077095
 30
0.0
 11
3155.5086491984311579
 21
188.5323846882077135
 31
0.0
  0
LINE
  5
279BD
  8
0
 10
3155.5086491984311579
 20
188.5323846882077135
 30
0.0
 11
3155.5401452614319169
 21
188.5323846882077135
 31
0.0
  0
LINE
  5
279BE
  8
0
 10
3155.5401452614319169
 20
188.5323846882077135
 30
0.0
 11
3155.5401452614319169
 21
190.1052193331076978
 31
0.0
  0
LINE
  5
279BF
  8
0
 10
3155.5401452614319169
 20
190.1052193331076978
 30
0.0
 11
3155.5086491984311579
 21
190.105219333507705
 31
0.0
  0
ARC
  5
279C0
  8
0
 10
3155.5602767563082125
 20
190.0992758558813023
 30
0.0
 40
0.0205031515796269
 50
91.2477123997662147
 51
169.0741174930491013
  0
LINE
  5
279C1
  8
0
 10
3155.9732161276310762
 20
190.1161673321076933
 30
0.0
 11
3155.5600020830311223
 21
190.1196393054065084
 31
0.0
  0
ARC
  5
279C2
  8
0
 10
3155.4889641592421867
 20
190.3748084129184974
 30
0.0
 40
0.0196850391891195
 50
359.999995020226379
 51
90.0000003227185204
  0
LINE
  5
279C3
  8
0
 10
3155.4889641591307736
 20
190.3944934521076959
 30
0.0
 11
3154.5634589860278538
 21
190.3864174403572918
 31
0.0
  0
ARC
  5
279C4
  8
0
 10
3154.5637673680807893
 20
190.347048509613586
 30
0.0
 40
0.0393701385239269
 50
90.448796256485565
 51
180.007900744304095
  0
LINE
  5
279C5
  8
0
 10
3154.5243972299308552
 20
190.3470430807076923
 30
0.0
 11
3154.5199174061931444
 21
188.5622263911224934
 31
0.0
  0
ARC
  5
279C6
  8
0
 10
3154.5589658250519278
 20
188.5672487517157947
 30
0.0
 40
0.0393700790100901
 50
187.3290764266947974
 51
269.4928005394447723
  0
LINE
  5
279C7
  8
0
 10
3154.558617313832201
 20
188.5278802152787989
 30
0.0
 11
3155.4887913495908833
 21
188.5196458200570078
 31
0.0
  0
ARC
  5
279C8
  8
0
 10
3155.4889678679887766
 20
188.5395856974770084
 30
0.0
 40
0.0199406587220904
 50
269.4928005394447723
 51
350.7495126671964272
  0
ARC
  5
279C9
  8
0
 10
3155.560109934394859
 20
188.5380644201489133
 30
0.0
 40
0.0202340828310077
 50
189.3602117147098056
 51
269.6946015671127839
  0
ARC
  5
279CA
  8
0
 10
3153.9188666985792224
 20
381.9333269900802179
 30
0.0
 40
193.4224580697319027
 50
270.4860935879729027
 51
270.6027212843466145
  0
ARC
  5
279CB
  8
0
 10
3152.7645547102029013
 20
190.4723453178364991
 30
0.0
 40
0.0196850392711454
 50
89.9999999159983446
 51
180.0000003750745918
  0
LINE
  5
279CC
  8
0
 10
3152.7448696709311662
 20
190.4723453177076919
 30
0.0
 11
3152.7448696720912267
 21
190.2951791217404889
 31
0.0
  0
ARC
  5
279CD
  8
0
 10
3152.6661293164611379
 20
190.2951791212250896
 30
0.0
 40
0.0787403556303579
 50
270.0012845636022121
 51
0.0000003750746205
  0
LINE
  5
279CE
  8
0
 10
3152.6661310818080892
 20
190.2164387656144982
 30
0.0
 11
3152.5482216612481352
 21
190.2164361221012996
 31
0.0
  0
ARC
  5
279CF
  8
0
 10
3152.5482221071551976
 20
190.1965471693212919
 30
0.0
 40
0.0198889527850063
 50
90.0012845636022263
 51
179.401946172509895
  0
LINE
  5
279D0
  8
0
 10
3152.5283342378311318
 20
190.2045252593077009
 30
0.0
 11
3152.5283342378311318
 21
188.456700809207689
 31
0.0
  0
ARC
  5
279D1
  8
0
 10
3152.5165232142308014
 20
188.456700809207689
 30
0.0
 40
0.0118110236000035
 50
270.0000000000259774
 51
0.0
  0
ARC
  5
279D2
  8
0
 10
3564.3405607778631747
 20
47403.854161849762022
 30
0.0
 40
47217.205251544022758
 50
269.4999115828147183
 51
269.5002652465274764
  0
ARC
  5
279D3
  8
0
 10
3152.2252894942648709
 20
188.4593472340833102
 30
0.0
 40
0.0119163397500493
 50
180.4998231186775115
 51
269.0001768293308828
  0
LINE
  5
279D4
  8
0
 10
3152.2133736079322262
 20
188.459243282507714
 30
0.0
 11
3152.2133736079322262
 21
190.2019827860077044
 31
0.0
  0
ARC
  5
279D5
  8
0
 10
3152.2251846315311923
 20
190.2019827860077044
 30
0.0
 40
0.0118110235999951
 50
90.4999999996788631
 51
180.0000000000341913
  0
LINE
  5
279D6
  8
0
 10
3152.2250815622151094
 20
190.2137933598800998
 30
0.0
 11
3152.5164201449151733
 21
190.2163358331719962
 31
0.0
  0
ARC
  5
279D7
  8
0
 10
3152.5165232142308014
 20
190.2045252592994018
 30
0.0
 40
0.0118110236002526
 50
0.0000000403968102
 51
90.4999999996788631
  0
ARC
  5
279D8
  8
0
 10
3152.2015625842927875
 20
190.1690930879188102
 30
0.0
 40
0.0118110236389191
 50
270.5000001060658974
 51
359.9999999459535047
  0
LINE
  5
279D9
  8
0
 10
3152.2016656536320625
 20
190.1572825140077043
 30
0.0
 11
3152.1700665213320462
 21
190.1570067524993135
 31
0.0
  0
LINE
  5
279DA
  8
0
 10
3152.1700665212310923
 20
190.2098001484077088
 30
0.0
 11
3152.1700665213311368
 21
188.4514259202076971
 31
0.0
  0
ARC
  5
279DB
  8
0
 10
3152.1582554976321262
 20
188.4514259202069866
 30
0.0
 40
0.0118110236993263
 50
269.9999999967430995
 51
0.000000003256888
  0
LINE
  5
279DC
  8
0
 10
3152.1582554976312167
 20
188.4396148965076918
 30
0.0
 11
3150.5212978061308604
 21
188.4538999601076057
 31
0.0
  0
ARC
  5
279DD
  8
0
 10
3150.5214695885920264
 20
188.4735842504728112
 30
0.0
 40
0.0196850399134008
 50
225.0000004202707942
 51
269.4999992517034002
  0
LINE
  5
279DE
  8
0
 10
3150.5075501634842112
 20
188.4596648251599902
 30
0.0
 11
3150.4406658634929954
 21
188.5265491241694065
 31
0.0
  0
ARC
  5
279DF
  8
0
 10
3150.4476255745012168
 20
188.5335088352790933
 30
0.0
 40
0.009842517769305
 50
179.9999893552393928
 51
225.0000004202397008
  0
LINE
  5
279E0
  8
0
 10
3150.4377830567318597
 20
188.5335088371076893
 30
0.0
 11
3150.437783352912902
 21
190.1277172315076029
 31
0.0
  0
ARC
  5
279E1
  8
0
 10
3150.4476265921630329
 20
190.1277172296788933
 30
0.0
 40
0.0098432392502143
 50
135.004173171778092
 51
179.9999893552360959
  0
LINE
  5
279E2
  8
0
 10
3150.4406658640082242
 20
190.1346769439313107
 30
0.0
 11
3150.5075452917731127
 21
190.2015661148114134
 31
0.0
  0
ARC
  5
279E3
  8
0
 10
3150.5214511576359655
 20
190.1876622744842962
 30
0.0
 40
0.0196644318822262
 50
90.4468210993216815
 51
135.0041731717793141
  0
LINE
  5
279E4
  8
0
 10
3150.5212978061308604
 20
190.2073261084076989
 30
0.0
 11
3152.1581524283142244
 21
190.2216107223075028
 31
0.0
  0
ARC
  5
279E5
  8
0
 10
3152.1574317344729934
 20
190.2089691649318013
 30
0.0
 40
0.0126620840503147
 50
3.762894762651654
 51
86.7371055869577248
  0
ARC
  5
279E6
  8
0
 10
3150.4451473217382045
 20
190.086508545814695
 30
0.0
 40
0.0079400705515346
 50
158.0399224068791
 51
175.642133292156899
  0
ARC
  5
279E7
  8
0
 10
3160.3642380017518008
 20
189.3306130350599972
 30
0.0
 40
9.9557909913046565
 50
175.642133292156899
 51
184.357866707843101
  0
ARC
  5
279E8
  8
0
 10
3150.4451154645330462
 20
188.5747150965910066
 30
0.0
 40
0.0079081209778798
 50
184.357866707843101
 51
201.9975683744478943
  0
ARC
  5
279E9
  8
0
 10
3150.4476255764311645
 20
189.4133757192076928
 30
0.0
 40
0.009842519700002
 50
90.6798626479755541
 51
179.6697717780932066
  0
LINE
  5
279EA
  8
0
 10
3150.4475087893920318
 20
189.4232175460113012
 30
0.0
 11
3152.1585557796388457
 21
189.4381427873242103
 31
0.0
  0
ARC
  5
279EB
  8
0
 10
3152.158190760269008
 20
189.4260826505405078
 30
0.0
 40
0.0120656594673807
 50
10.1787397748211994
 51
88.2663806349735722
  0
ARC
  5
279EC
  8
0
 10
3150.4476255764311645
 20
189.2479151566143969
 30
0.0
 40
0.009842519700002
 50
180.3302282219067934
 51
269.320137352024517
  0
LINE
  5
279ED
  8
0
 10
3150.4475087893920318
 20
189.2380733298107884
 30
0.0
 11
3152.1585557796388457
 21
189.2231480884977941
 31
0.0
  0
ARC
  5
279EE
  8
0
 10
3152.158190760269008
 20
189.2352082252814967
 30
0.0
 40
0.0120656594673807
 50
271.7336193650264136
 51
349.8212602251771841
  0
LINE
  5
279EF
  8
0
 10
3150.5075501635310502
 20
190.2015612434076957
 30
0.0
 11
3150.5075501635310502
 21
189.4553684454076858
 31
0.0
  0
ARC
  5
279F0
  8
0
 10
3150.4734930828922188
 20
189.4553684454076858
 30
0.0
 40
0.0340570806396793
 50
290.8913804435717907
 51
0.0
  0
LINE
  5
279F1
  8
0
 10
3150.5075501635310502
 20
188.4596648252075966
 30
0.0
 11
3150.5075501635310502
 21
189.2058576232076064
 31
0.0
  0
ARC
  5
279F2
  8
0
 10
3150.4734930828922188
 20
189.2058576232076064
 30
0.0
 40
0.0340570806396793
 50
0.0
 51
69.4248347810338942
  0
LINE
  5
279F3
  8
0
 10
3152.170066521328863
 20
188.5042193159077044
 30
0.0
 11
3152.2016656536297887
 21
188.503943554507714
 31
0.0
  0
ARC
  5
279F4
  8
0
 10
3152.2015613995990861
 20
188.4919972236027093
 30
0.0
 40
0.0119467858018152
 50
8.6080899868191896
 51
89.5000000904491486
  0
ARC
  5
279F5
  8
0
 10
3152.5482611489869669
 20
188.464898820431614
 30
0.0
 40
0.0201140121350137
 50
187.8210224752004933
 51
269.3109994819707822
  0
LINE
  5
279F6
  8
0
 10
3152.5480192772311057
 20
188.4447862626076926
 30
0.0
 11
3155.9535310882311023
 21
188.4447862626076926
 31
0.0
  0
ARC
  5
279F7
  8
0
 10
3155.4874347778049923
 20
190.0896955813988995
 30
0.0
 40
0.0247348334632759
 50
30.9435988393347294
 51
86.8497499666495543
  0
LINE
  5
279F8
  8
0
 10
3155.4887940691319272
 20
190.1143930370076873
 30
0.0
 11
3154.5599964409980203
 21
190.1068669929227042
 31
0.0
  0
ARC
  5
279F9
  8
0
 10
3154.5597248484109514
 20
190.064852425330713
 30
0.0
 40
0.0420154454158818
 50
89.6296298960244826
 51
148.9132353726569136
  0
ARC
  5
279FA
  8
0
 10
3160.4036674843828223
 20
189.3187776330022132
 30
0.0
 40
5.9321905535974038
 50
172.3853115333286041
 51
187.3270685047583015
  0
ARC
  5
279FB
  8
0
 10
3154.2230755254599899
 20
192.0618412251787106
 30
0.0
 40
2.303516341266266
 50
230.0800203126310919
 51
238.8710471161491
  0
ARC
  5
279FC
  8
0
 10
3153.434947708386062
 20
190.7568382514801897
 30
0.0
 40
0.7789907700121733
 50
238.8710471161491
 51
250.4275244710678976
  0
ARC
  5
279FD
  8
0
 10
3153.3758274216152131
 20
190.5905564659450988
 30
0.0
 40
0.6025117613207693
 50
250.4275244710678976
 51
285.818014576520909
  0
ARC
  5
279FE
  8
0
 10
3153.2191067814142116
 20
190.9738482213539044
 30
0.0
 40
1.015065318421323
 50
288.4327548758702733
 51
304.3349647300046854
  0
ARC
  5
279FF
  8
0
 10
3152.4327710589118396
 20
192.1727438364135878
 30
0.0
 40
2.44872314088096
 50
303.7057009023849901
 51
309.936870976409125
  0
LINE
  5
27A00
  8
0
 10
3155.512425671066012
 20
192.2239227261152053
 30
0.0
 11
3157.1430589391488866
 21
192.2239227261152053
 31
0.0
  0
LINE
  5
27A01
  8
0
 10
3157.2077497855370893
 20
192.285619128535501
 30
0.0
 11
3155.4473438917038948
 21
192.285619128535501
 31
0.0
  0
LINE
  5
27A02
  8
0
 10
3154.7312374250791436
 20
191.6847693700601951
 30
0.0
 11
3152.0183444364788556
 21
191.6847693700601951
 31
0.0
  0
ARC
  5
27A03
  8
0
 10
3156.3275468362307947
 20
175.1278547295534054
 30
0.0
 40
3.9957833117999981
 50
95.3708968824769556
 51
84.6291031160836553
  0
ARC
  5
27A04
  8
0
 10
3156.3275468362307947
 20
175.1278547295534054
 30
0.0
 40
3.9449889373000002
 50
95.4402580106031166
 51
84.5597419879312469
  0
LINE
  5
27A05
  8
0
 10
3155.9535310882311023
 20
175.1278547295534054
 30
0.0
 11
3155.9535310882311023
 21
189.3188020106076976
 31
0.0
  0
LINE
  5
27A06
  8
0
 10
3156.7015625842318514
 20
175.1278547295534054
 30
0.0
 11
3156.7015625842318514
 21
189.3188020106076976
 31
0.0
  0
ARC
  5
27A07
  8
0
 10
3156.3275468362307947
 20
175.1278547295534054
 30
0.0
 40
0.3740157479999979
 50
180.0
 51
0.0
  0
ARC
  5
27A08
  8
0
 10
3156.3275468362307947
 20
175.1278547295534054
 30
0.0
 40
0.5334645668999999
 50
134.5158872639686933
 51
45.4841127209728029
  0
ARC
  5
27A09
  8
0
 10
3156.3275468362307947
 20
175.1278547295534054
 30
0.0
 40
0.8070866142000017
 50
117.6076680555731002
 51
62.392331936403167
  0
ARC
  5
27A0A
  8
0
 10
3156.3275468362307947
 20
175.1278547295534054
 30
0.0
 40
0.7874015748000004
 50
118.3593500256675952
 51
61.6406499660468299
  0
ARC
  5
27A0B
  8
0
 10
3156.3275468362307947
 20
175.1278547295534054
 30
0.0
 40
0.7480314938
 50
120.0000000972952989
 51
59.9999998938592611
  0
ARC
  5
27A0C
  8
0
 10
3156.3275468362307947
 20
175.1278547295534054
 30
0.0
 40
0.6541448507000024
 50
124.8732488991245049
 51
55.1267510902024966
  0
ARC
  5
27A0D
  8
0
 10
3156.3275468362307947
 20
189.3188020106076976
 30
0.0
 40
0.3740157479999802
 50
115.8096137001100061
 51
180.0
  0
ARC
  5
27A0E
  8
0
 10
3156.3275468362307947
 20
189.3188020106076124
 30
0.0
 40
0.3740157480000382
 50
67.3839033928855002
 51
115.8096137001100061
  0
ARC
  5
27A0F
  8
0
 10
3156.3275468362307947
 20
189.3188020106076976
 30
0.0
 40
0.3740157479999305
 50
37.2598330987483379
 51
67.383903392884875
  0
ARC
  5
27A10
  8
0
 10
3156.3275468362307947
 20
189.3188020106076124
 30
0.0
 40
0.3740157480000437
 50
0.0000000000016284
 51
37.2598330987483379
  0
ARC
  5
27A11
  8
0
 10
3155.8840841049382107
 20
189.451875144402095
 30
0.0
 40
0.0891358681780042
 50
346.3146834536478877
 51
359.4677833468957147
  0
LINE
  5
27A12
  8
0
 10
3155.9732161276310762
 20
189.4510471792077055
 30
0.0
 11
3155.9732161276310762
 21
192.1870105096076884
 31
0.0
  0
LINE
  5
27A13
  8
0
 10
3156.6818775449319219
 20
192.1870105096076884
 30
0.0
 11
3156.6818775177321186
 21
189.4512530532076937
 31
0.0
  0
ARC
  5
27A14
  8
0
 10
3156.7704362422450686
 20
189.4512530523271892
 30
0.0
 40
0.0885587245134678
 50
179.9999994303393009
 51
192.381883555385798
  0
ARC
  5
27A15
  8
0
 10
3156.3275468362307947
 20
189.3188020106076976
 30
0.0
 40
0.4313555699317553
 50
145.2287358209163983
 51
209.8800075912610055
  0
ARC
  5
27A16
  8
0
 10
3156.3275468362307947
 20
189.3188020106076976
 30
0.0
 40
0.4313555699317553
 50
330.1199924354118025
 51
34.7712641557824611
  0
ARC
  5
27A17
  8
0
 10
3156.3275468362307947
 20
189.3188020106076976
 30
0.0
 40
0.4215040175032023
 50
147.2071543155799986
 51
207.45960712396041
  0
ARC
  5
27A18
  8
0
 10
3156.3275468362307947
 20
189.3188020106076976
 30
0.0
 40
0.4215040175032023
 50
332.5403929055186154
 51
32.7928456593110909
  0
ARC
  5
27A19
  8
0
 10
3156.3239770926229539
 20
189.3186242922583915
 30
0.0
 40
0.3763840588109213
 50
158.7365891069055976
 51
190.1909985215156098
  0
ARC
  5
27A1A
  8
0
 10
3156.3311165799400442
 20
189.3186242922583915
 30
0.0
 40
0.3763840588109213
 50
349.8090014784843902
 51
21.2634108930944485
  0
CIRCLE
  5
27A1B
  8
0
 10
3156.3275468362307947
 20
191.5156524044076889
 30
0.0
 40
0.1181102362000031
  0
CIRCLE
  5
27A1C
  8
0
 10
3156.3275468362307947
 20
191.5156524044076889
 30
0.0
 40
0.0984223295000115
  0
ARC
  5
27A1D
  8
0
 10
3157.9340349719918777
 20
188.4740778423324912
 30
0.0
 40
2.4526899831848832
 50
239.8345800024208074
 51
259.8669135810715147
  0
ARC
  5
27A1E
  8
0
 10
3158.255350317499051
 20
189.7338111391981954
 30
0.0
 40
3.7504993942439961
 50
258.420471867253184
 51
287.9376025492488225
  0
LINE
  5
27A1F
  8
0
 10
3157.2600014122222092
 20
186.1158227853213134
 30
0.0
 11
3157.2622384243331908
 21
186.0723429328753014
 31
0.0
  0
ARC
  5
27A20
  8
0
 10
3157.2750402886299526
 20
186.0730015810507041
 30
0.0
 40
0.0128187966249878
 50
182.9452363146903906
 51
238.3948285105834088
  0
ARC
  5
27A21
  8
0
 10
3157.3112206551390955
 20
186.1318000352331978
 30
0.0
 40
0.0818570261423166
 50
238.3948285105834088
 51
258.2529501016642826
  0
ARC
  5
27A22
  8
0
 10
3157.410730329848775
 20
186.4464894489464939
 30
0.0
 40
0.4115689127152297
 50
253.6040501812910861
 51
262.8484328867002091
  0
ARC
  5
27A23
  8
0
 10
3157.3700617444319505
 20
186.1331815611098079
 30
0.0
 40
0.0956449383044715
 50
263.6554197339369239
 51
272.4270682915505972
  0
ARC
  5
27A24
  8
0
 10
3157.3733581332899121
 20
186.0554102897010011
 30
0.0
 40
0.0178038383891426
 50
272.4270682915765747
 51
343.1049239244218825
  0
LINE
  5
27A25
  8
0
 10
3157.3903935324310623
 20
186.0502361388076906
 30
0.0
 11
3157.3936420299410202
 21
186.081659897700689
 31
0.0
  0
ARC
  5
27A26
  8
0
 10
3157.8101565481620128
 20
186.0145905331224014
 30
0.0
 40
0.0184523878565266
 50
187.8857431841028074
 51
211.5060080676196037
  0
ARC
  5
27A27
  8
0
 10
3157.814824228940779
 20
186.0199341893132896
 30
0.0
 40
0.0253131654101346
 50
216.3025967741972977
 51
245.1911145649077071
  0
ARC
  5
27A28
  8
0
 10
3157.8544656020480943
 20
186.116355821184186
 30
0.0
 40
0.1295468243990221
 50
247.1706433965979102
 51
264.955651673789589
  0
ARC
  5
27A29
  8
0
 10
3157.8680761221139619
 20
186.1683801277806083
 30
0.0
 40
0.1827872567235889
 50
262.13859179895951
 51
280.6396058726662091
  0
ARC
  5
27A2A
  8
0
 10
3157.8969254467388055
 20
186.0148122972088061
 30
0.0
 40
0.0265330980017912
 50
280.6396058726658111
 51
322.1347664343138035
  0
LINE
  5
27A2B
  8
0
 10
3158.1946018551489033
 20
185.9838037617992939
 30
0.0
 11
3158.1982406792321854
 21
185.9364766879077138
 31
0.0
  0
ARC
  5
27A2C
  8
0
 10
3158.2106703789690982
 20
185.9374323669096043
 30
0.0
 40
0.0124663851189289
 50
184.396635230957088
 51
257.3701193071071884
  0
ARC
  5
27A2D
  8
0
 10
3158.2260286750611158
 20
186.005973508863292
 30
0.0
 40
0.0827071524775962
 50
257.3701193071071884
 51
268.9754345508267761
  0
ARC
  5
27A2E
  8
0
 10
3158.261524244706834
 20
186.8040595203142118
 30
0.0
 40
0.8815556788929581
 50
267.5961786955102752
 51
272.899695060102772
  0
ARC
  5
27A2F
  8
0
 10
3158.3048609317502269
 20
185.9710697575198139
 30
0.0
 40
0.0474539029291046
 50
271.520439204797583
 51
283.4497950408231759
  0
ARC
  5
27A30
  8
0
 10
3158.312456725489028
 20
185.9393084209787901
 30
0.0
 40
0.0147969192746572
 50
283.4497950408231759
 51
346.9085085535314761
  0
LINE
  5
27A31
  8
0
 10
3158.326869067131156
 20
185.9359568201076911
 30
0.0
 11
3158.330621662601061
 21
185.9840671571600978
 31
0.0
  0
LINE
  5
27A32
  8
0
 10
3159.2651710004311099
 20
186.1158227853213134
 30
0.0
 11
3159.2629339883201283
 21
186.0723429328753014
 31
0.0
  0
ARC
  5
27A33
  8
0
 10
3159.2501321240220022
 20
186.0730015810507041
 30
0.0
 40
0.0128187966249878
 50
301.6051714894165912
 51
357.0547636853078757
  0
ARC
  5
27A34
  8
0
 10
3159.2139517575142236
 20
186.1318000352331978
 30
0.0
 40
0.0818570261423166
 50
281.7470498983356038
 51
301.6051714894165912
  0
ARC
  5
27A35
  8
0
 10
3159.1144420828040893
 20
186.4464894489464939
 30
0.0
 40
0.4115689127152297
 50
277.1515671132997909
 51
286.3959498187089139
  0
ARC
  5
27A36
  8
0
 10
3159.1551106682200043
 20
186.1331815611098079
 30
0.0
 40
0.0956449383044715
 50
267.5729317084495165
 51
276.3445802660630761
  0
ARC
  5
27A37
  8
0
 10
3159.1518142793629522
 20
186.0554102897010011
 30
0.0
 40
0.0178038383891426
 50
196.8950760755780891
 51
267.5729317084234253
  0
LINE
  5
27A38
  8
0
 10
3159.1347788802208925
 20
186.0502361388076906
 30
0.0
 11
3159.1315303827118441
 21
186.081659897700689
 31
0.0
  0
ARC
  5
27A39
  8
0
 10
3158.715015864489942
 20
186.0145905331224014
 30
0.0
 40
0.0184523878565266
 50
328.4939919323804247
 51
352.1142568158971926
  0
ARC
  5
27A3A
  8
0
 10
3158.7103481837120853
 20
186.0199341893132896
 30
0.0
 40
0.0253131654101346
 50
294.8088854350922929
 51
323.6974032258025886
  0
ARC
  5
27A3B
  8
0
 10
3158.6707068106052247
 20
186.116355821184186
 30
0.0
 40
0.1295468243990221
 50
275.0443483262102973
 51
292.8293566034021183
  0
ARC
  5
27A3C
  8
0
 10
3158.6570962905379929
 20
186.1683801277806083
 30
0.0
 40
0.1827872567235889
 50
259.3603941273337909
 51
277.8614082010403763
  0
ARC
  5
27A3D
  8
0
 10
3158.6282469659131493
 20
186.0148122972088061
 30
0.0
 40
0.0265330980017912
 50
217.8652335656850028
 51
259.3603941273340752
  0
ARC
  5
27A3E
  8
0
 10
3112.7392354609251015
 20
261.6945157369995059
 30
0.0
 40
85.8790891408327752
 50
300.7911087881847152
 51
301.0265622928047264
  0
ARC
  5
27A3F
  8
0
 10
3153.4959184371400625
 20
193.935179603624789
 30
0.0
 40
6.8067498529417501
 50
301.0265622928047264
 51
305.1174548972840057
  0
ARC
  5
27A40
  8
0
 10
3156.8601658120642242
 20
189.1514382749932963
 30
0.0
 40
0.9584730555474759
 50
305.1174548972840057
 51
318.2222455740721898
  0
ARC
  5
27A41
  8
0
 10
3157.1179433137490378
 20
188.858731408788401
 30
0.0
 40
0.5731182242480937
 50
322.8799937429217266
 51
349.162934822816112
  0
ARC
  5
27A42
  8
0
 10
3155.9120130594778857
 20
189.1192689756898062
 30
0.0
 40
1.806762392779814
 50
348.2383028143336219
 51
4.3604432455912363
  0
ARC
  5
27A43
  8
0
 10
3158.260587117149953
 20
189.3174381298950095
 30
0.0
 40
0.5504097416733216
 50
117.4643294930462929
 51
186.3419983659591992
  0
ARC
  5
27A44
  8
0
 10
3158.2625104061789898
 20
189.3179739701085111
 30
0.0
 40
0.5508247700520466
 50
51.0359510214656069
 51
117.6675458606621021
  0
ARC
  5
27A45
  8
0
 10
3158.2741391026797828
 20
189.323730680546106
 30
0.0
 40
0.5390634557903772
 50
4.0190814435274751
 51
51.6122286140391893
  0
ARC
  5
27A46
  8
0
 10
3121.7229296993550633
 20
189.5304727570299974
 30
0.0
 40
37.0893320234799333
 50
359.2815126961526744
 51
359.7389891444266823
  0
ARC
  5
27A47
  8
0
 10
3160.0295375780087852
 20
189.0425798858533142
 30
0.0
 40
1.220405089856029
 50
178.9292385913439034
 51
199.2235559221736878
  0
ARC
  5
27A48
  8
0
 10
3159.3621421131729221
 20
188.8334083203276919
 30
0.0
 40
0.5218260385635617
 50
201.6656486369066954
 51
234.9815932591689887
  0
ARC
  5
27A49
  8
0
 10
3163.9626011971618027
 20
195.2606046001203026
 30
0.0
 40
8.4257924402931188
 50
234.4413349250291105
 51
240.4743436411322079
  0
ARC
  5
27A4A
  8
0
 10
3159.2094382135228443
 20
186.6843874961778909
 30
0.0
 40
1.3820682635310451
 50
35.4344392454650787
 51
64.2321464536425282
  0
ARC
  5
27A4B
  8
0
 10
3159.8442347688378504
 20
187.1732138330609985
 30
0.0
 40
0.5822280342037139
 50
340.9098604635718743
 51
32.4563601678000211
  0
ARC
  5
27A4C
  8
0
 10
3158.7239227825889429
 20
188.205188651818986
 30
0.0
 40
2.152013105298725
 50
288.6029705535626135
 51
307.125337925406086
  0
ARC
  5
27A4D
  8
0
 10
3159.3301401735070613
 20
187.4043619363731068
 30
0.0
 40
1.1476113165592681
 50
307.125337925406086
 51
325.5971200100535157
  0
ARC
  5
27A4E
  8
0
 10
3159.4165282316680532
 20
187.3452044200664091
 30
0.0
 40
1.042909318830137
 50
325.5971200100535157
 51
339.6654997517351262
  0
ARC
  5
27A4F
  8
0
 10
3157.9220807395208794
 20
189.1636069995072944
 30
0.0
 40
2.883456523128058
 50
244.957968179364002
 51
259.152586948949704
  0
ARC
  5
27A50
  8
0
 10
3158.2804341157689123
 20
191.0337519897506127
 30
0.0
 40
4.7876254827531799
 50
259.152586948949704
 51
272.2851711005203015
  0
ARC
  5
27A51
  8
0
 10
3158.3053657766931792
 20
190.4089753887458869
 30
0.0
 40
4.1623516316452616
 50
272.2851711005203015
 51
284.7665209952476744
  0
ARC
  5
27A52
  8
0
 10
3158.7104437991929444
 20
188.8721812048256936
 30
0.0
 40
2.5730673373655479
 50
284.7665209952476744
 51
297.7930176618334031
  0
ARC
  5
27A53
  8
0
 10
3159.2486571705858296
 20
187.8315087357281925
 30
0.0
 40
1.4018744774746059
 50
298.1784391893224893
 51
313.8472497778041088
  0
ARC
  5
27A54
  8
0
 10
3159.7542873578599938
 20
187.3051121027787929
 30
0.0
 40
0.6719735927898152
 50
313.8472497778041088
 51
336.3753574273304139
  0
ARC
  5
27A55
  8
0
 10
3159.9498883877367916
 20
187.2195559109158012
 30
0.0
 40
0.4584797407589938
 50
336.3753574273304139
 51
6.7510217609910299
  0
ARC
  5
27A56
  8
0
 10
3159.7660286895461468
 20
187.1977913568699989
 30
0.0
 40
0.6436231566064848
 50
6.7510217609910299
 51
21.5767617841935184
  0
ARC
  5
27A57
  8
0
 10
3157.8221362383410451
 20
188.8424343673721069
 30
0.0
 40
2.61237213010582
 50
244.5991389052279033
 51
254.2696687855190021
  0
ARC
  5
27A58
  8
0
 10
3158.1344072573319863
 20
189.8524458818309029
 30
0.0
 40
3.6693143857341251
 50
253.8519414346548899
 51
265.8221111632931866
  0
ARC
  5
27A59
  8
0
 10
3158.2641672009231115
 20
191.6288252728085979
 30
0.0
 40
5.450426786356652
 50
265.8221111632931866
 51
273.9528434005396775
  0
ARC
  5
27A5A
  8
0
 10
3158.3896816721248797
 20
189.8124021181534999
 30
0.0
 40
3.6296722836165252
 50
273.9528434005396775
 51
282.6328328005141088
  0
ARC
  5
27A5B
  8
0
 10
3158.4090613402308918
 20
189.7259352418624019
 30
0.0
 40
3.5410602515247658
 50
282.6328328005141088
 51
292.1498643514439095
  0
ARC
  5
27A5C
  8
0
 10
3159.1517189011051414
 20
187.9015467355889939
 30
0.0
 40
1.5713055270610761
 50
292.1498643514439095
 51
308.2006607150212858
  0
ARC
  5
27A5D
  8
0
 10
3159.5169360536037857
 20
187.4374495326173928
 30
0.0
 40
0.9807381877292897
 50
308.2006607150212858
 51
321.2645516664924799
  0
ARC
  5
27A5E
  8
0
 10
3159.7427366957517734
 20
187.2563196261478993
 30
0.0
 40
0.6912663013367509
 50
321.2645516664924799
 51
339.7037850082381283
  0
ARC
  5
27A5F
  8
0
 10
3159.854198576339968
 20
187.2150969951538002
 30
0.0
 40
0.5724258362982927
 50
339.7037850082365935
 51
357.6894537945204888
  0
LINE
  5
27A60
  8
0
 10
3160.6482396768310537
 20
192.6002980736076893
 30
0.0
 11
3157.9123658066318967
 21
192.6002980736076893
 31
0.0
  0
ARC
  5
27A61
  8
0
 10
3160.6482396768310537
 20
192.5904555540076899
 30
0.0
 40
0.0098425196999941
 50
359.9999999999575948
 51
89.9999999999478888
  0
LINE
  5
27A62
  8
0
 10
3160.6580821965308132
 20
192.5904555540076899
 30
0.0
 11
3160.642511852404823
 21
191.6983452435991921
 31
0.0
  0
ARC
  5
27A63
  8
0
 10
3160.6228298104470014
 20
191.6986887952367056
 30
0.0
 40
0.0196850401164465
 50
315.0000007314638992
 51
358.9999990792773019
  0
LINE
  5
27A64
  8
0
 10
3160.6367492359790958
 20
191.6847693700601951
 30
0.0
 11
3160.5265881005361734
 21
191.574608231803694
 31
0.0
  0
ARC
  5
27A65
  8
0
 10
3160.5196283665040937
 20
191.5815679656573138
 30
0.0
 40
0.0098425501320323
 50
277.9586315403383878
 51
315.0000007314650929
  0
LINE
  5
27A66
  8
0
 10
3160.5209911470537918
 20
191.5718202160568069
 30
0.0
 11
3158.03960638319586
 21
191.5718213390983067
 31
0.0
  0
ARC
  5
27A67
  8
0
 10
3158.0409770967321492
 20
191.5815679456077021
 30
0.0
 40
0.0098425197000316
 50
225.0000000000979128
 51
261.9947120118637258
  0
LINE
  5
27A68
  8
0
 10
3158.0340173843078446
 20
191.5746082331837954
 30
0.0
 11
3157.9238562474070022
 21
191.6847693700835862
 31
0.0
  0
ARC
  5
27A69
  8
0
 10
3157.9377756721310107
 20
191.6986887948071967
 30
0.0
 40
0.0196850392244998
 50
180.9999997105782086
 51
225.0000000000956106
  0
LINE
  5
27A6A
  8
0
 10
3157.9180936310308425
 20
191.698345243601409
 30
0.0
 11
3157.9025247905019569
 21
192.5902837783856967
 31
0.0
  0
ARC
  5
27A6B
  8
0
 10
3157.9123658110579527
 20
192.5904555539887042
 30
0.0
 40
0.0098425196189195
 50
90.0000257690710157
 51
180.9999997105782086
  0
ARC
  5
27A6C
  8
0
 10
3159.8592362784002034
 20
196.2646519314533862
 30
0.0
 40
4.7392603869400229
 50
270.3784397659100023
 51
278.0265823027859255
  0
LINE
  5
27A6D
  8
0
 10
3159.8905389601309253
 20
191.5254949223077006
 30
0.0
 11
3158.6700673743439438
 21
191.5255871932990885
 31
0.0
  0
ARC
  5
27A6E
  8
0
 10
3158.6995940728370442
 20
196.2499041806800903
 30
0.0
 40
4.7244092565293627
 50
261.9696635266066096
 51
269.6419094688292262
  0
LINE
  5
27A6F
  8
0
 10
3159.8905164741481713
 20
191.5254949240076883
 30
0.0
 11
3159.9102239997318975
 21
191.5058098825076911
 31
0.0
  0
LINE
  5
27A70
  8
0
 10
3159.9102239997318975
 20
191.5058098825076911
 30
0.0
 11
3159.9102240007318869
 21
191.3741270456723953
 31
0.0
  0
ARC
  5
27A71
  8
0
 10
3159.8984129764821773
 20
191.3741270455826964
 30
0.0
 40
0.0118110242496084
 50
300.0000689202821036
 51
0.0000004351023231
  0
LINE
  5
27A72
  8
0
 10
3159.9043185009109038
 20
191.3638984056414927
 30
0.0
 11
3159.8579898561920345
 21
191.3371504758380013
 31
0.0
  0
ARC
  5
27A73
  8
0
 10
3159.8648581675229252
 20
191.3252542446977884
 30
0.0
 40
0.0137365940422336
 50
120.0000689202796025
 51
175.2433732969089988
  0
LINE
  5
27A74
  8
0
 10
3159.8511688834310007
 20
191.3263933307075888
 30
0.0
 11
3159.8511743222588848
 21
190.7959997990107013
 31
0.0
  0
LINE
  5
27A75
  8
0
 10
3158.7094365999319052
 20
190.7101102974077094
 30
0.0
 11
3158.7094367101540229
 21
191.3263933619076909
 31
0.0
  0
ARC
  5
27A76
  8
0
 10
3158.6975628350442094
 20
191.3263933640313041
 30
0.0
 40
0.0118738751105594
 50
359.9999897525877941
 51
64.1732337226756613
  0
LINE
  5
27A77
  8
0
 10
3158.7027357082620256
 20
191.3370812212912142
 30
0.0
 11
3158.6564101375388418
 21
191.3638273019518863
 31
0.0
  0
ARC
  5
27A78
  8
0
 10
3158.6624503784219087
 20
191.3742759325261886
 30
0.0
 40
0.0120689018061411
 50
180.0532655348420974
 51
239.9682553299938945
  0
LINE
  5
27A79
  8
0
 10
3158.6503814818311184
 20
191.374264712563587
 30
0.0
 11
3158.6503814818311184
 21
191.5058098807076874
 31
0.0
  0
LINE
  5
27A7A
  8
0
 10
3158.6503814818311184
 20
191.5058098807076874
 30
0.0
 11
3158.6701587874108554
 21
191.5255871863880941
 31
0.0
  0
LINE
  5
27A7B
  8
0
 10
3159.9102239997318975
 20
191.5058098825076911
 30
0.0
 11
3158.6503814818311184
 21
191.5058098825076911
 31
0.0
  0
LINE
  5
27A7C
  8
0
 10
3157.9238562473829006
 20
191.6847693700601951
 30
0.0
 11
3160.636749235984098
 21
191.6847693700601951
 31
0.0
  0
ARC
  5
27A7D
  8
0
 10
3158.697625576432074
 20
190.7101102974077094
 30
0.0
 40
0.0118110236000588
 50
322.4525554662483842
 51
0.0001477200567116
  0
ARC
  5
27A7E
  8
0
 10
3158.6974361082211544
 20
190.7102559309055039
 30
0.0
 40
0.012049994975939
 50
296.8579185668796754
 51
322.4525554662287163
  0
LINE
  5
27A7F
  8
0
 10
3158.7028800501088881
 20
190.6995057738998867
 30
0.0
 11
3158.6562869824601876
 21
190.6726052537777889
 31
0.0
  0
ARC
  5
27A80
  8
0
 10
3158.6625520911748026
 20
190.6621697427088975
 30
0.0
 40
0.01217063577855
 50
120.598396674076497
 51
179.8803545921697946
  0
LINE
  5
27A81
  8
0
 10
3158.6503814819320723
 20
190.6621951574886964
 30
0.0
 11
3158.6503814819320723
 21
190.5235264201076859
 31
0.0
  0
ARC
  5
27A82
  8
0
 10
3158.6621925055310385
 20
190.5235264201076859
 30
0.0
 40
0.0118110236000035
 50
180.0000000000015916
 51
269.9999999999739089
  0
LINE
  5
27A83
  8
0
 10
3158.6621925055310385
 20
190.5117153965076966
 30
0.0
 11
3159.5012785805320163
 21
190.5117153965074124
 31
0.0
  0
ARC
  5
27A84
  8
0
 10
3159.8344030980051684
 20
189.3448665208678108
 30
0.0
 40
2.1660063147091919
 50
80.8349710998300282
 51
88.096319073663139
  0
ARC
  5
27A85
  8
0
 10
3160.0521834131732248
 20
190.6947025526336859
 30
0.0
 40
0.798714985720125
 50
59.1328209238083602
 51
80.8349710998300282
  0
ARC
  5
27A86
  8
0
 10
3160.2526071091770064
 20
191.0300219010802039
 30
0.0
 40
0.4080633207266351
 50
20.7086574637767313
 51
59.1328209238083602
  0
ARC
  5
27A87
  8
0
 10
3160.249179888695835
 20
191.0287262705444959
 30
0.0
 40
0.411727266510717
 50
344.2415241075281074
 51
20.7086574637767313
  0
ARC
  5
27A88
  8
0
 10
3148.4908449611998549
 20
205.1464032296507014
 30
0.0
 40
18.8835841612720188
 50
303.1308926457342068
 51
307.4309572447157279
  0
ARC
  5
27A89
  8
0
 10
3157.4320188880160458
 20
193.4649193655685906
 30
0.0
 40
4.1729874209491324
 50
307.4309572447157279
 51
315.8278424851312138
  0
ARC
  5
27A8A
  8
0
 10
3159.6604658900828326
 20
191.2999553192192934
 30
0.0
 40
1.066052377693975
 50
315.8278424851312138
 51
331.031673470287501
  0
ARC
  5
27A8B
  8
0
 10
3160.1161967150128476
 20
191.0476688358855029
 30
0.0
 40
0.5451502232892356
 50
331.031673470287501
 51
346.1216263756879243
  0
ARC
  5
27A8C
  8
0
 10
3159.1350829148968842
 20
188.092366963848292
 30
0.0
 40
3.3194625852366602
 50
128.9496209285213979
 51
137.6494400041511881
  0
ARC
  5
27A8D
  8
0
 10
3158.8394293021419799
 20
188.4581258810216013
 30
0.0
 40
2.8491534908883209
 50
113.7942084461676018
 51
128.9496209285213979
  0
ARC
  5
27A8E
  8
0
 10
3159.9831918358131588
 20
185.8641589648389072
 30
0.0
 40
5.6840886040224321
 50
108.0271132049600027
 51
113.7942084461676018
  0
ARC
  5
27A8F
  8
0
 10
3160.0100419286409306
 20
185.4230514685260118
 30
0.0
 40
6.1128588744506107
 50
102.8515800529799975
 51
106.9868770489427021
  0
LINE
  5
27A90
  8
0
 10
3156.6818775253391323
 20
190.2164398059076973
 30
0.0
 11
3158.5716413232307787
 21
190.2164398059076973
 31
0.0
  0
ARC
  5
27A91
  8
0
 10
3158.5716413232307787
 20
190.2951912738417093
 30
0.0
 40
0.0787514679339836
 50
270.0
 51
359.9836872893371265
  0
LINE
  5
27A92
  8
0
 10
3158.6503927879739422
 20
190.2951688524713063
 30
0.0
 11
3158.6504432319748048
 21
190.4723453105266913
 31
0.0
  0
ARC
  5
27A93
  8
0
 10
3158.6701339995470335
 20
190.4723397043580064
 30
0.0
 40
0.0196907683703851
 50
90.196347063124847
 51
179.9836872893388033
  0
LINE
  5
27A94
  8
0
 10
3158.6700665213311368
 20
190.4920303571076943
 30
0.0
 11
3159.475408630930815
 21
190.4920303571076943
 31
0.0
  0
ARC
  5
27A95
  8
0
 10
3150.9224354768348348
 20
201.7095731246735966
 30
0.0
 40
14.1036809299305794
 50
303.8854564828967
 51
305.2170807552832912
  0
ARC
  5
27A96
  8
0
 10
3149.8346624758910366
 20
203.2506141173385004
 30
0.0
 40
15.9899623094330092
 50
305.2170807552832912
 51
307.9262230569574967
  0
ARC
  5
27A97
  8
0
 10
3157.6218296022420873
 20
193.2569968945255141
 30
0.0
 40
3.3206151656439631
 50
307.9262230569574967
 51
312.1433022033659199
  0
ARC
  5
27A98
  8
0
 10
3157.9493227486400428
 20
192.8951032522174955
 30
0.0
 40
2.832538563786922
 50
312.1433022033659199
 51
317.7288434486476945
  0
ARC
  5
27A99
  8
0
 10
3159.7958735779748167
 20
190.5518590748905865
 30
0.0
 40
0.504018755654665
 50
60.3364123639754908
 51
83.6716566253336538
  0
LINE
  5
27A9A
  8
0
 10
3158.7488066788309879
 20
190.4920303571076943
 30
0.0
 11
3158.7488070235322084
 21
190.4999043729077073
 31
0.0
  0
LINE
  5
27A9B
  8
0
 10
3158.7385555648188529
 20
190.5117153965076966
 30
0.0
 11
3158.7493412400322086
 21
190.5117153965076966
 31
0.0
  0
LINE
  5
27A9C
  8
0
 10
3158.7493412400322086
 20
190.5117153965076966
 30
0.0
 11
3158.7407785198852253
 21
190.5117153965076966
 31
0.0
  0
ARC
  5
27A9D
  8
0
 10
3158.7366144638149308
 20
190.4996761809647126
 30
0.0
 40
0.0121946949119428
 50
1.072203812909498
 51
80.8409367843090365
  0
ARC
  5
27A9E
  8
0
 10
3159.0300682155420873
 20
188.1715048769740974
 30
0.0
 40
2.6211849330284678
 50
109.1029134314851063
 51
128.7250770987477893
  0
ARC
  5
27A9F
  8
0
 10
3160.3805520867508676
 20
184.2721814064952071
 30
0.0
 40
6.7477489048846158
 50
104.3388054634518056
 51
109.1029134314851063
  0
LINE
  5
27AA0
  8
0
 10
3155.5086491984311579
 20
190.2164398059076973
 30
0.0
 11
3155.9732161276310762
 21
190.2164398059076973
 31
0.0
  0
LINE
  5
27AA1
  8
0
 10
3156.6818775242809352
 20
190.1099829377878905
 30
0.0
 11
3157.0954351539248819
 21
190.1063738750617063
 31
0.0
  0
ARC
  5
27AA2
  8
0
 10
3157.0952633717311073
 20
190.0866895852076937
 30
0.0
 40
0.0196850393999957
 50
359.9999999999789111
 51
89.5000000043598192
  0
LINE
  5
27AA3
  8
0
 10
3157.1149484111310812
 20
190.0866895852076937
 30
0.0
 11
3157.1149484111310812
 21
188.5509144361076892
 31
0.0
  0
ARC
  5
27AA4
  8
0
 10
3157.0952633716838136
 20
188.5509144361076892
 30
0.0
 40
0.0196850394464399
 50
270.5000001498401048
 51
359.9999999999820943
  0
LINE
  5
27AA5
  8
0
 10
3157.0954351539307936
 20
188.5312301462076903
 30
0.0
 11
3156.7015625843309863
 21
188.527792871336203
 31
0.0
  0
LINE
  5
27AA6
  8
0
 10
3157.5912184407789027
 20
188.5355052447795003
 30
0.0
 11
3157.1484129780319563
 21
188.5316416896077101
 31
0.0
  0
ARC
  5
27AA7
  8
0
 10
3157.1482427082278264
 20
188.5511564617646059
 30
0.0
 40
0.0195155149597191
 50
179.4992363144650085
 51
270.4999030200103221
  0
LINE
  5
27AA8
  8
0
 10
3157.1287279386310729
 20
188.5513270247076889
 30
0.0
 11
3157.1287279386310729
 21
190.0862772923076136
 31
0.0
  0
ARC
  5
27AA9
  8
0
 10
3157.1484132053401481
 20
190.08627697776069
 30
0.0
 40
0.0196853539482637
 50
90.0006616007096341
 51
180.1705777019911068
  0
LINE
  5
27AAA
  8
0
 10
3157.1484129780319563
 20
190.1059623317077012
 30
0.0
 11
3158.7591926057671117
 21
190.0919060204415985
 31
0.0
  0
ARC
  5
27AAB
  8
0
 10
3158.7590189842621839
 20
190.0722200260564136
 30
0.0
 40
0.0196870908572425
 50
7.3585989703992247
 51
89.8322443334578935
  0
ARC
  5
27AAC
  8
0
 10
3159.0599386715689434
 20
190.0833284674097001
 30
0.0
 40
0.2815257273810743
 50
181.7478745498262924
 51
189.4253200009698901
  0
LINE
  5
27AAD
  8
0
 10
3158.6839563177818491
 20
189.6733552202576902
 30
0.0
 11
3158.7570822493948981
 21
189.6735737140635081
 31
0.0
  0
ARC
  5
27AAE
  8
0
 10
3158.7336927556771116
 20
189.8239692600868125
 30
0.0
 40
0.1522034450333235
 50
278.839817461960422
 51
289.9681269267812809
  0
ARC
  5
27AAF
  8
0
 10
3158.7595278998760477
 20
189.7552944018821961
 30
0.0
 40
0.0788388642924538
 50
289.3651176783733945
 51
302.9924805768378064
  0
ARC
  5
27AB0
  8
0
 10
3158.7885928235828032
 20
189.7105254824014082
 30
0.0
 40
0.025462596704683
 50
302.9924805768359874
 51
4.2152567675743757
  0
LINE
  5
27AB1
  8
0
 10
3158.8139865424350319
 20
189.7123970790050009
 30
0.0
 11
3158.7822135728429203
 21
190.0372252710425869
 31
0.0
  0
LINE
  5
27AB2
  8
0
 10
3158.7785439316321572
 20
190.074741529214009
 30
0.0
 11
3158.7785439316321572
 21
189.759059748307692
 31
0.0
  0
ARC
  5
27AB3
  8
0
 10
3158.2705991461871236
 20
189.7244382387272879
 30
0.0
 40
0.5091233190361537
 50
359.4972664689502153
 51
3.8992486498382282
  0
LINE
  5
27AB4
  8
0
 10
3158.6533837416309325
 20
189.7068271608169994
 30
0.0
 11
3158.7628811578310888
 21
189.7067693516077043
 31
0.0
  0
ARC
  5
27AB5
  8
0
 10
3158.7628902947421921
 20
189.7240757307864101
 30
0.0
 40
0.0173063815906734
 50
269.9697506706640979
 51
346.2800565868328135
  0
LINE
  5
27AB6
  8
0
 10
3157.1287279386310729
 20
190.0469423209077036
 30
0.0
 11
3157.1247050396318627
 21
190.0469423209077036
 31
0.0
  0
ARC
  5
27AB7
  8
0
 10
3157.1247050396318627
 20
190.0568614650617008
 30
0.0
 40
0.0099191441540327
 50
190.3858666626288993
 51
269.9999999999739089
  0
LINE
  5
27AB8
  8
0
 10
3157.1287279386310729
 20
188.590661700407594
 30
0.0
 11
3157.1247050397191742
 21
188.5906265931353971
 31
0.0
  0
ARC
  5
27AB9
  8
0
 10
3157.1247919576021559
 20
188.5806667804085066
 30
0.0
 40
0.0099601919797176
 50
90.4999995058897753
 51
171.2226714420775124
  0
ARC
  5
27ABA
  8
0
 10
3160.106871566008067
 20
190.1965471693212919
 30
0.0
 40
0.0198889527850063
 50
0.5980538274900389
 51
89.9987154363977879
  0
LINE
  5
27ABB
  8
0
 10
3160.1267594353312234
 20
190.1967547666075973
 30
0.0
 11
3160.1267594353312234
 21
188.4621617241656111
 31
0.0
  0
LINE
  5
27ABC
  8
0
 10
3160.4831445384320432
 20
188.4399516466806972
 30
0.0
 11
3162.1183699171310764
 21
188.4538999601076057
 31
0.0
  0
ARC
  5
27ABD
  8
0
 10
3162.1181981346708199
 20
188.4735842504728112
 30
0.0
 40
0.0196850399134008
 50
270.5000007482964861
 51
314.9999995797278984
  0
LINE
  5
27ABE
  8
0
 10
3162.1321175597790898
 20
188.4596648251599902
 30
0.0
 11
3162.1990018597698509
 21
188.5265491241694065
 31
0.0
  0
ARC
  5
27ABF
  8
0
 10
3162.1920421487620843
 20
188.5335088352790933
 30
0.0
 40
0.009842517769305
 50
314.9999995797601855
 51
0.0000106447589803
  0
LINE
  5
27AC0
  8
0
 10
3162.2018846665318961
 20
188.5335088371076893
 30
0.0
 11
3162.2018843703499442
 21
190.1277172315076029
 31
0.0
  0
ARC
  5
27AC1
  8
0
 10
3162.1920411310989039
 20
190.1277172296788933
 30
0.0
 40
0.0098432392502143
 50
0.0000106447638657
 51
44.9958268282218512
  0
LINE
  5
27AC2
  8
0
 10
3162.1990018592550769
 20
190.1346769439313107
 30
0.0
 11
3162.1321224314901883
 21
190.2015661148114134
 31
0.0
  0
ARC
  5
27AC3
  8
0
 10
3162.1182165656268808
 20
190.1876622744842962
 30
0.0
 40
0.0196644318822262
 50
44.9958268282207001
 51
89.5531789006783328
  0
LINE
  5
27AC4
  8
0
 10
3162.1183699171310764
 20
190.2073261084076989
 30
0.0
 11
3160.4830586473322001
 21
190.2212747966077018
 31
0.0
  0
ARC
  5
27AC5
  8
0
 10
3162.1945204015250965
 20
190.086508545814695
 30
0.0
 40
0.0079400705515346
 50
4.3578667078431153
 51
21.9600775931209213
  0
ARC
  5
27AC6
  8
0
 10
3153.3203597021588394
 20
189.3306130350599972
 30
0.0
 40
8.9142356262725482
 50
355.1317881873176248
 51
4.8682118126807996
  0
ARC
  5
27AC7
  8
0
 10
3162.1945522587288906
 20
188.5747150965910066
 30
0.0
 40
0.0079081209778798
 50
338.0024316255521057
 51
355.6421332921569274
  0
LINE
  5
27AC8
  8
0
 10
3162.1321175597308866
 20
190.2015612434076957
 30
0.0
 11
3162.1321175597308866
 21
189.4553684454076858
 31
0.0
  0
ARC
  5
27AC9
  8
0
 10
3162.1644647741368317
 20
189.4548366291880939
 30
0.0
 40
0.0323515858697122
 50
179.0580926234075037
 51
251.1939759724193948
  0
LINE
  5
27ACA
  8
0
 10
3162.1321175597308866
 20
188.4596648252075966
 30
0.0
 11
3162.1321175597308866
 21
189.2058576232076064
 31
0.0
  0
ARC
  5
27ACB
  8
0
 10
3162.1661746403710822
 20
189.2058576232076064
 30
0.0
 40
0.0340570806396793
 50
113.8801418456483958
 51
180.0
  0
ARC
  5
27ACC
  8
0
 10
3160.106832524175843
 20
188.464898820431614
 30
0.0
 40
0.0201140121350137
 50
270.6890005180292178
 51
352.1789775247979151
  0
LINE
  5
27ACD
  8
0
 10
3160.0514090013571149
 20
190.2164398059076973
 30
0.0
 11
3160.1068720119151294
 21
190.2164361221012996
 31
0.0
  0
LINE
  5
27ACE
  8
0
 10
3160.1070743959307947
 20
188.4447862626076926
 30
0.0
 11
3159.0138960639828838
 21
188.4447862626076926
 31
0.0
  0
LINE
  5
27ACF
  8
0
 10
3160.1582554976312167
 20
188.4490393450076908
 30
0.0
 11
3160.1582554977308064
 21
190.2121951389077026
 31
0.0
  0
ARC
  5
27AD0
  8
0
 10
3160.1700665213320462
 20
190.212195138906992
 30
0.0
 40
0.0118110236006626
 50
89.5000000031351988
 51
179.9999999967544966
  0
LINE
  5
27AD1
  8
0
 10
3160.1701695906481291
 20
190.2240057127800981
 30
0.0
 11
3160.461508173249058
 21
190.2214632395032936
 31
0.0
  0
ARC
  5
27AD2
  8
0
 10
3160.4614051039320657
 20
190.2096526656318076
 30
0.0
 40
0.0118110235991177
 50
359.999999882805696
 51
89.5000000031351988
  0
ARC
  5
27AD3
  8
0
 10
3160.4830586473322001
 20
188.4497937916077035
 30
0.0
 40
0.0098425196999753
 50
179.999999999876195
 51
270.5000000706556875
  0
LINE
  5
27AD4
  8
0
 10
3160.4732161276310762
 20
188.4497937916077035
 30
0.0
 11
3160.473216127635169
 21
190.2114322769076864
 31
0.0
  0
ARC
  5
27AD5
  8
0
 10
3160.4830586473349285
 20
190.2114322769076011
 30
0.0
 40
0.0098425197000225
 50
90.0000000223552945
 51
179.999999999876195
  0
LINE
  5
27AD6
  8
0
 10
3160.1267594353312234
 20
190.1685085565129043
 30
0.0
 11
3160.1582554976312167
 21
190.1685085565129043
 31
0.0
  0
LINE
  5
27AD7
  8
0
 10
3160.1267594347318663
 20
188.4927175121077028
 30
0.0
 11
3160.1582554976312167
 21
188.492442650107705
 31
0.0
  0
ARC
  5
27AD8
  8
0
 10
3160.1700665286489311
 20
188.4490309400160868
 30
0.0
 40
0.0118110340083921
 50
179.9592270595057073
 51
269.9999645010673248
  0
LINE
  5
27AD9
  8
0
 10
3160.1700665213311368
 20
188.437219906007698
 30
0.0
 11
3160.461508173249058
 21
188.4397628290352884
 31
0.0
  0
ARC
  5
27ADA
  8
0
 10
3160.4614011081930585
 20
188.451591655334795
 30
0.0
 40
0.0118293108514293
 50
270.5185813112963729
 51
357.1833087918511183
  0
ARC
  5
27ADB
  8
0
 10
3160.9540369268820541
 20
189.4440017656388022
 30
0.0
 40
0.009861900283235
 50
89.4974742220394432
 51
179.770616598919986
  0
LINE
  5
27ADC
  8
0
 10
3160.9541234218318095
 20
189.4538632866077137
 30
0.0
 11
3161.7247498853630532
 21
189.4471041571086118
 31
0.0
  0
ARC
  5
27ADD
  8
0
 10
3161.7246633777631359
 20
189.4372411938468019
 30
0.0
 40
0.009863342631575
 50
0.3450362792642654
 51
89.4974742220394432
  0
LINE
  5
27ADE
  8
0
 10
3161.7345265415488029
 20
189.4373005907256129
 30
0.0
 11
3161.7345260668957962
 21
189.2238977729066107
 31
0.0
  0
ARC
  5
27ADF
  8
0
 10
3161.7246639898507965
 20
189.2239639359272871
 30
0.0
 40
0.0098622989804389
 50
270.5000231127389156
 51
359.6156179924165031
  0
LINE
  5
27AE0
  8
0
 10
3161.7247500575322192
 20
189.2141020125077091
 30
0.0
 11
3160.9541231459238588
 21
189.2073765424443934
 31
0.0
  0
ARC
  5
27AE1
  8
0
 10
3160.954037069126116
 20
189.2172395106074987
 30
0.0
 40
0.0098633437637135
 50
180.5600588712651131
 51
270.5000231127389156
  0
LINE
  5
27AE2
  8
0
 10
3160.9441741965711117
 20
189.2171430992268881
 30
0.0
 11
3160.944175105631075
 21
189.4440412476076858
 31
0.0
  0
LINE
  5
27AE3
  8
0
 10
3160.949594021547
 20
189.4368091775112077
 30
0.0
 11
3160.9495940215401788
 21
189.2244170543370956
 31
0.0
  0
ARC
  5
27AE4
  8
0
 10
3160.9614048121779888
 20
189.2244170543366124
 30
0.0
 40
0.0118107906378118
 50
179.9999999979953884
 51
270.0022172290031222
  0
LINE
  5
27AE5
  8
0
 10
3160.9614052692318182
 20
189.2126062637076984
 30
0.0
 11
3161.7195578546020442
 21
189.2192234228762118
 31
0.0
  0
ARC
  5
27AE6
  8
0
 10
3161.7192785630732033
 20
189.2310330684213966
 30
0.0
 40
0.0118129476279303
 50
271.3547606906034844
 51
0.8717774680217441
  0
LINE
  5
27AE7
  8
0
 10
3161.7310901433311301
 20
189.2312128000579889
 30
0.0
 11
3161.7310896179728843
 21
189.4303119168451985
 31
0.0
  0
ARC
  5
27AE8
  8
0
 10
3161.7192788729280437
 20
189.4301946738675042
 30
0.0
 40
0.0118113269542051
 50
0.5687454207755308
 51
89.755519225588003
  0
LINE
  5
27AE9
  8
0
 10
3161.7193292716428914
 20
189.4420058932959989
 30
0.0
 11
3160.9614052691308643
 21
189.4486198048076915
 31
0.0
  0
ARC
  5
27AEA
  8
0
 10
3160.9614052691308643
 20
189.4368085572077121
 30
0.0
 40
0.0118112476000221
 50
90.0000000000521254
 51
179.9969909379937008
  0
LINE
  5
27AEB
  8
0
 10
3160.9495940215460905
 20
189.3896681524076939
 30
0.0
 11
3160.944174887787085
 21
189.3896681524076939
 31
0.0
  0
LINE
  5
27AEC
  8
0
 10
3160.9495940215419978
 20
189.271557916207712
 30
0.0
 11
3160.9441744145819939
 21
189.271557916207712
 31
0.0
  0
ARC
  5
27AED
  8
0
 10
3160.4842241673691206
 20
189.4251865230575049
 30
0.0
 40
0.0136577807707249
 50
94.8954292216301667
 51
143.7060090801045931
  0
LINE
  5
27AEE
  8
0
 10
3160.4830586473322001
 20
189.4387944817077027
 30
0.0
 11
3160.9397751569190405
 21
189.434809151880188
 31
0.0
  0
ARC
  5
27AEF
  8
0
 10
3160.939644146324099
 20
189.4302243293649042
 30
0.0
 40
0.0045866935449518
 50
8.9452898582972509
 51
88.3634742396939572
  0
ARC
  5
27AF0
  8
0
 10
3160.4842241673691206
 20
189.2360395455577873
 30
0.0
 40
0.0136577807707249
 50
216.2939909198954069
 51
265.1045707783699186
  0
LINE
  5
27AF1
  8
0
 10
3160.4830586473322001
 20
189.2224315869077031
 30
0.0
 11
3160.9397751569190405
 21
189.2264169167351042
 31
0.0
  0
ARC
  5
27AF2
  8
0
 10
3160.939644146324099
 20
189.2310017392505017
 30
0.0
 40
0.0045866935449518
 50
271.6365257603059717
 51
351.0547101417026852
  0
ARC
  5
27AF3
  8
0
 10
3161.7390165247347795
 20
189.4232455177194083
 30
0.0
 40
0.0046144063486785
 50
95.5640975562018866
 51
166.6660018388363937
  0
LINE
  5
27AF4
  8
0
 10
3161.7385691153308471
 20
189.4278381826077009
 30
0.0
 11
3162.1957429567319195
 21
189.423848113307713
 31
0.0
  0
ARC
  5
27AF5
  8
0
 10
3162.1956591535140433
 20
189.4140104429922076
 30
0.0
 40
0.0098380272521863
 50
50.744165627360978
 51
89.5119317537085237
  0
ARC
  5
27AF6
  8
0
 10
3161.7396885577459216
 20
189.2385587381729124
 30
0.0
 40
0.0052367878847632
 50
189.6648577812952965
 51
260.7331180595226101
  0
LINE
  5
27AF7
  8
0
 10
3161.738845260132166
 20
189.233390295807709
 30
0.0
 11
3162.1957429626218072
 21
189.2373775816718933
 31
0.0
  0
ARC
  5
27AF8
  8
0
 10
3162.195657072531958
 20
189.2472197266075966
 30
0.0
 40
0.0098425196999064
 50
270.6694055514499837
 51
309.2503620122241728
  0
ARC
  5
27AF9
  8
0
 10
3155.9293519173638742
 20
185.6285020450133914
 30
0.0
 40
5.3423161554987111
 50
56.3169167581377508
 51
59.667428973960952
  0
ENDSEC
  0
EOF
