  0
SECTION
  2
HEADER
  9
$ACADVER
  1
AC1009
  9
$INSBASE
 10
3121.2379182529971331
 20
143.1269252604427891
 30
0.0
  9
$EXTMIN
 10
3115.3110278011367882
 20
114.7681218056653023
 30
-0.0015258207003583
  9
$EXTMAX
 10
3127.2401344892059569
 20
165.3914673120864904
 30
0.0000000349246037
  9
$LIMMIN
 10
0.0
 20
0.0
  9
$LIMMAX
 10
11.6929133858000007
 20
8.2677165353999982
  9
$ORTHOMODE
 70
     0
  9
$REGENMODE
 70
     1
  9
$FILLMODE
 70
     1
  9
$QTEXTMODE
 70
     0
  9
$MIRRTEXT
 70
     0
  9
$DRAGMODE
 70
     2
  9
$LTSCALE
 40
0.6431102362
  9
$OSMODE
 70
  4095
  9
$ATTMODE
 70
     1
  9
$TEXTSIZE
 40
0.2
  9
$TRACEWID
 40
0.05
  9
$TEXTSTYLE
  7
STANDARD
  9
$CLAYER
  8
0
  9
$CELTYPE
  6
BYLAYER
  9
$CECOLOR
 62
   256
  9
$DIMSCALE
 40
1.0
  9
$DIMASZ
 40
0.1875
  9
$DIMEXO
 40
0.0625
  9
$DIMDLI
 40
0.4443307087
  9
$DIMRND
 40
0.0
  9
$DIMDLE
 40
0.0
  9
$DIMEXE
 40
0.125
  9
$DIMTP
 40
0.01
  9
$DIMTM
 40
0.01
  9
$DIMTXT
 40
2.0
  9
$DIMCEN
 40
0.1052362205
  9
$DIMTSZ
 40
0.0
  9
$DIMTOL
 70
     1
  9
$DIMLIM
 70
     0
  9
$DIMTIH
 70
     1
  9
$DIMTOH
 70
     1
  9
$DIMSE1
 70
     0
  9
$DIMSE2
 70
     0
  9
$DIMTAD
 70
     0
  9
$DIMZIN
 70
     0
  9
$DIMBLK
  1

  9
$DIMASO
 70
     1
  9
$DIMSHO
 70
     1
  9
$DIMPOST
  1
\X
  9
$DIMAPOST
  1

  9
$DIMALT
 70
     1
  9
$DIMALTD
 70
     2
  9
$DIMALTF
 40
25.3999999999999986
  9
$DIMLFAC
 40
1.0
  9
$DIMTOFL
 70
     0
  9
$DIMTVP
 40
0.0
  9
$DIMTIX
 70
     0
  9
$DIMSOXD
 70
     0
  9
$DIMSAH
 70
     0
  9
$DIMBLK1
  1

  9
$DIMBLK2
  1

  9
$DIMSTYLE
  2
STANDARD
  9
$DIMCLRD
 70
     0
  9
$DIMCLRE
 70
     0
  9
$DIMCLRT
 70
     0
  9
$DIMTFAC
 40
1.0
  9
$DIMGAP
 40
0.09
  9
$LUNITS
 70
     2
  9
$LUPREC
 70
     4
  9
$SKETCHINC
 40
0.1
  9
$FILLETRAD
 40
0.0
  9
$AUNITS
 70
     0
  9
$AUPREC
 70
     0
  9
$MENU
  1
.
  9
$ELEVATION
 40
0.0
  9
$PELEVATION
 40
0.0
  9
$THICKNESS
 40
0.0
  9
$LIMCHECK
 70
     0
  9
$BLIPMODE
 70
     0
  9
$CHAMFERA
 40
0.0
  9
$CHAMFERB
 40
0.0
  9
$SKPOLY
 70
     0
  9
$TDCREATE
 40
2458060.468368056230247
  9
$TDUPDATE
 40
2460076.6844097222201526
  9
$TDINDWG
 40
0.6539769676
  9
$TDUSRTIMER
 40
0.6539769676
  9
$USRTIMER
 70
     1
  9
$ANGBASE
 50
0.0
  9
$ANGDIR
 70
     0
  9
$PDMODE
 70
     0
  9
$PDSIZE
 40
0.3125
  9
$PLINEWID
 40
0.0
  9
$COORDS
 70
     1
  9
$SPLFRAME
 70
     0
  9
$SPLINETYPE
 70
     6
  9
$SPLINESEGS
 70
     8
  9
$ATTDIA
 70
     1
  9
$ATTREQ
 70
     1
  9
$HANDLING
 70
     1
  9
$HANDSEED
  5
2A5BC
  9
$SURFTAB1
 70
     6
  9
$SURFTAB2
 70
     6
  9
$SURFTYPE
 70
     6
  9
$SURFU
 70
     6
  9
$SURFV
 70
     6
  9
$UCSNAME
  2

  9
$UCSORG
 10
0.0
 20
0.0
 30
0.0
  9
$UCSXDIR
 10
1.0
 20
0.0
 30
0.0
  9
$UCSYDIR
 10
0.0
 20
1.0
 30
0.0
  9
$PUCSNAME
  2

  9
$PUCSORG
 10
0.0
 20
0.0
 30
0.0
  9
$PUCSXDIR
 10
1.0
 20
0.0
 30
0.0
  9
$PUCSYDIR
 10
0.0
 20
1.0
 30
0.0
  9
$USERI1
 70
     0
  9
$USERI2
 70
     0
  9
$USERI3
 70
     0
  9
$USERI4
 70
     0
  9
$USERI5
 70
     0
  9
$USERR1
 40
0.0
  9
$USERR2
 40
0.0
  9
$USERR3
 40
0.0
  9
$USERR4
 40
0.0
  9
$USERR5
 40
0.0
  9
$WORLDVIEW
 70
     1
  9
$SHADEDGE
 70
     3
  9
$SHADEDIF
 70
    70
  9
$TILEMODE
 70
     1
  9
$MAXACTVP
 70
    64
  9
$PLIMCHECK
 70
     0
  9
$PEXTMIN
 10
1.0000000000000000E+20
 20
1.0000000000000000E+20
 30
1.0000000000000000E+20
  9
$PEXTMAX
 10
-1.0000000000000000E+20
 20
-1.0000000000000000E+20
 30
-1.0000000000000000E+20
  9
$PLIMMIN
 10
0.0
 20
0.0
  9
$PLIMMAX
 10
12.0
 20
9.0
  9
$UNITMODE
 70
     0
  9
$VISRETAIN
 70
     1
  9
$PLINEGEN
 70
     0
  9
$PSLTSCALE
 70
     1
  0
ENDSEC
  0
SECTION
  2
TABLES
  0
TABLE
  2
VPORT
 70
     1
  0
VPORT
  2
*ACTIVE
 70
     0
 10
0.0
 20
0.0
 11
1.0
 21
1.0
 12
-89.8992235423284001
 22
-6.405946761543106
 13
0.0
 23
0.0
 14
1.0
 24
1.0
 15
0.0
 25
0.0
 16
0.0
 26
0.0
 36
24.3507166897908292
 17
3211.1748046875
 27
146.4857413204190095
 37
0.0
 40
51.0654707946869166
 41
2.2259475218658888
 42
50.0
 43
0.0
 44
0.0
 50
0.0
 51
0.0
 71
     0
 72
   100
 73
     1
 74
     1
 75
     0
 76
     0
 77
     0
 78
     0
  0
ENDTAB
  0
TABLE
  2
LTYPE
 70
     2
  0
LTYPE
  2
CONTINUOUS
 70
     0
  3
Solid line
 72
    65
 73
     0
 40
0.0
  0
LTYPE
  2
PHANTOM2
 70
     0
  3
___ _ _ ___ _ _ ___ _ _ ___ _ _
 72
    65
 73
     6
 40
1.25
 49
0.625
 49
-0.125
 49
0.125
 49
-0.125
 49
0.125
 49
-0.125
  0
ENDTAB
  0
TABLE
  2
LAYER
 70
     2
  0
LAYER
  2
0
 70
     0
 62
   255
  6
CONTINUOUS
  0
LAYER
  2
DEFPOINTS
 70
     0
 62
     7
  6
CONTINUOUS
  0
ENDTAB
  0
TABLE
  2
STYLE
 70
     1
  0
STYLE
  2
STANDARD
 70
     0
 40
0.0
 41
0.8
 50
0.0
 71
     0
 42
0.2
  3
txt
  4

  0
ENDTAB
  0
TABLE
  2
VIEW
 70
     0
  0
ENDTAB
  0
TABLE
  2
UCS
 70
     0
  0
ENDTAB
  0
TABLE
  2
APPID
 70
     9
  0
APPID
  2
ACAD
 70
     0
  0
APPID
  2
ACAD_MLEADERVER
 70
     0
  0
APPID
  2
ACAD_EXEMPT_FROM_CAD_STANDARDS
 70
     0
  0
APPID
  2
ACAD_NAV_VCDISPLAY
 70
     0
  0
APPID
  2
ACAECLAYERSTANDARD
 70
     0
  0
APPID
  2
ACCMTRANSPARENCY
 70
     0
  0
APPID
  2
ACAD_DSTYLE_DIMJAG
 70
     0
  0
APPID
  2
ACAD_DSTYLE_DIMTALN
 70
     0
  0
APPID
  2
ACDBATTR
 70
     0
  0
ENDTAB
  0
TABLE
  2
DIMSTYLE
 70
     1
  0
DIMSTYLE
  2
STANDARD
 70
     0
  3

  4

  5

  6

  7

 40
1.0
 41
0.1875
 42
0.0625
 43
0.38
 44
0.125
 45
0.0
 46
0.0
 47
0.01
 48
0.01
140
0.15625
141
0.09
142
0.0
143
25.3999999999999986
144
1.0
145
0.0
146
1.0
147
0.09
 71
     1
 72
     0
 73
     1
 74
     1
 75
     0
 76
     0
 77
     0
 78
     4
170
     0
171
     2
172
     0
173
     0
174
     0
175
     0
176
     0
177
     0
178
     0
  0
ENDTAB
  0
ENDSEC
  0
SECTION
  2
BLOCKS
  0
BLOCK
  8
0
  2
$MODEL_SPACE
 70
     0
 10
0.0
 20
0.0
 30
0.0
  3
$MODEL_SPACE
  1

  0
ENDBLK
  5
21
  8
0
  0
BLOCK
 67
     1
  8
0
  2
$PAPER_SPACE
 70
     0
 10
0.0
 20
0.0
 30
0.0
  3
$PAPER_SPACE
  1

  0
ENDBLK
  5
1D
 67
     1
  8
0
  0
ENDSEC
  0
SECTION
  2
ENTITIES
  0
ATTDEF
  5
291DB
  8
DEFPOINTS
 10
3121.2379148217710281
 20
143.1312978385757901
 30
0.0
 40
0.001
  1
K-32404T-7
  3

  2
MODELNUMBER
 70
     0
1001
ACDBATTR
1070
     0
1070
     1
  0
ATTDEF
  5
291DC
  8
DEFPOINTS
 10
3121.2379148217710281
 20
143.1296311719090966
 30
0.0
 40
0.001
  1
ATOM
  3

  2
TRADENAME
 70
     0
1001
ACDBATTR
1070
     0
1070
     1
  0
ATTDEF
  5
291DD
  8
DEFPOINTS
 10
3121.2379148217710281
 20
143.1279645052424883
 30
0.0
 40
0.001
  1
SHOWER COLUMN
  3

  2
PRODUCT
 70
     0
1001
ACDBATTR
1070
     0
1070
     1
  0
LINE
  5
29C16
  8
0
 10
3117.2575615966229634
 20
161.0259847631083119
 30
0.0
 11
3125.2179559329902077
 21
161.0259847631083119
 31
0.0
  0
LINE
  5
29C17
  8
0
 10
3117.9435819280970463
 20
160.4944886997245987
 30
0.0
 11
3118.1074002686591484
 21
160.4944886997245987
 31
0.0
  0
LINE
  5
29C18
  8
0
 10
3118.2243890046970591
 20
160.4944886997245987
 30
0.0
 11
3118.3169986623970544
 21
160.4944886997245987
 31
0.0
  0
LINE
  5
29C19
  8
0
 10
3118.5639007455970386
 20
160.4944886997245987
 30
0.0
 11
3118.7743370764969768
 21
160.4944886997245987
 31
0.0
  0
LINE
  5
29C1A
  8
0
 10
3118.941311193897036
 20
160.4944886997245987
 30
0.0
 11
3119.1108657973968548
 21
160.4944886997245987
 31
0.0
  0
LINE
  5
29C1B
  8
0
 10
3119.2427945265972085
 20
160.4944886997245987
 30
0.0
 11
3119.4529323444971851
 21
160.4944886997245987
 31
0.0
  0
LINE
  5
29C1C
  8
0
 10
3119.5675976761967831
 20
160.4944886997245987
 30
0.0
 11
3119.6602073337980983
 21
160.4944886997245987
 31
0.0
  0
LINE
  5
29C1D
  8
0
 10
3119.698731536997002
 20
160.4944886997245987
 30
0.0
 11
3119.7913411946969973
 21
160.4944886997245987
 31
0.0
  0
LINE
  5
29C1E
  8
0
 10
3119.8924008257968126
 20
160.4944886997245987
 30
0.0
 11
3119.9850104833972182
 21
160.4944886997245987
 31
0.0
  0
LINE
  5
29C1F
  8
0
 10
3120.0664623089969609
 20
160.4944886997245987
 30
0.0
 11
3120.3098136329981571
 21
160.4944886997245987
 31
0.0
  0
LINE
  5
29C20
  8
0
 10
3120.5190914959971451
 20
160.4944886997245987
 30
0.0
 11
3120.6346167826977762
 21
160.4944886997245987
 31
0.0
  0
LINE
  5
29C21
  8
0
 10
3120.8521016832969508
 20
160.4944886997245987
 30
0.0
 11
3120.9594199322978056
 21
160.4944886997245987
 31
0.0
  0
LINE
  5
29C22
  8
0
 10
3121.1916134241969303
 20
160.4944886997245987
 30
0.0
 11
3121.2842230818969256
 21
160.4944886997245987
 31
0.0
  0
ARC
  5
29C23
  8
0
 10
3117.3081350511861274
 20
160.6125989359950097
 30
0.0
 40
0.0590551180703649
 50
181.0000000461866136
 51
270.0000000106566063
  0
LINE
  5
29C24
  8
0
 10
3117.249088927496814
 20
160.6115682820245922
 30
0.0
 11
3117.2421349411970368
 21
161.0104312740008083
 31
0.0
  0
ARC
  5
29C25
  8
0
 10
3117.2599389325678203
 20
161.0081996410011129
 30
0.0
 40
0.01794330779332
 50
97.6135909755169138
 51
172.8555478357303912
  0
LINE
  5
29C26
  8
0
 10
3117.9284374950971142
 20
160.5535438179246057
 30
0.0
 11
3117.9357845417939643
 21
160.5012668643443021
 31
0.0
  0
ARC
  5
29C27
  8
0
 10
3117.9434635085331138
 20
160.5022264892648138
 30
0.0
 40
0.0077386956368946
 50
187.1232096516179126
 51
270.8767893683158832
  0
LINE
  5
29C28
  8
0
 10
3118.1223132998979963
 20
160.5535438179246057
 30
0.0
 11
3118.1149662532179718
 21
160.5012668643445011
 31
0.0
  0
ARC
  5
29C29
  8
0
 10
3118.107164818408819
 20
160.5023632845025929
 30
0.0
 40
0.0078781039752777
 50
271.7126347589509123
 51
352.0000000135328833
  0
LINE
  5
29C2A
  8
0
 10
3117.3081350511861274
 20
160.5535438179246057
 30
0.0
 11
3125.1677014547981344
 21
160.5535438179246057
 31
0.0
  0
ARC
  5
29C2B
  8
0
 10
3125.1677014547981344
 20
160.6125989361079007
 30
0.0
 40
0.0590551181833057
 50
270.0
 51
358.9999998461324822
  0
LINE
  5
29C2C
  8
0
 10
3125.2267475785970419
 20
160.6115682820245922
 30
0.0
 11
3125.2337015647967746
 21
161.0103130945146859
 31
0.0
  0
ARC
  5
29C2D
  8
0
 10
3125.2179575453928919
 20
161.0102405767777043
 30
0.0
 40
0.0157441864133098
 50
0.2639053459217933
 51
90.0058717869650451
  0
LINE
  5
29C2E
  8
0
 10
3120.4387056545970154
 20
161.0259847631083119
 30
0.0
 11
3120.450516678196891
 21
161.0377957868082888
 31
0.0
  0
LINE
  5
29C2F
  8
0
 10
3120.450516678196891
 20
161.0377957868082888
 30
0.0
 11
3122.0253198277969204
 21
161.0377957868082888
 31
0.0
  0
LINE
  5
29C30
  8
0
 10
3122.0253198277969204
 20
161.0377957868082888
 30
0.0
 11
3122.0371308514968405
 21
161.0259847631083119
 31
0.0
  0
ARC
  5
29C31
  8
0
 10
3132.5191543580881444
 20
160.8455030759031104
 30
0.0
 40
12.0308044417787894
 50
175.5329394379284054
 51
179.0841812266712054
  0
ARC
  5
29C32
  8
0
 10
3120.583792547397934
 20
161.777932573604005
 30
0.0
 40
0.0590758147067482
 50
90.0185688149150138
 51
175.5329394379284054
  0
LINE
  5
29C33
  8
0
 10
3120.5837734016981813
 20
161.8370083852082928
 30
0.0
 11
3121.8920630355910362
 21
161.8370083852082928
 31
0.0
  0
ARC
  5
29C34
  8
0
 10
3121.8920631042969944
 20
161.7779532671083018
 30
0.0
 40
0.0590551181001162
 50
4.4481703898627503
 51
90.0000666594039984
  0
ARC
  5
29C35
  8
0
 10
3109.8455381427370412
 20
160.8402782911346947
 30
0.0
 40
12.1420182484156207
 50
0.9320876045638748
 51
4.4507902541994779
  0
ARC
  5
29C36
  8
0
 10
3121.2379182529971331
 20
161.6981413921083117
 30
0.0
 40
0.8915305920999994
 50
122.0001269722545061
 51
213.4186993541034951
  0
ARC
  5
29C37
  8
0
 10
3121.2379182529971331
 20
161.6981413921083117
 30
0.0
 40
0.8915305920999994
 50
326.5771514270340958
 51
57.9998714048913229
  0
ARC
  5
29C38
  8
0
 10
3121.2379182529971331
 20
161.6981413921083117
 30
0.0
 40
0.8213219516999997
 50
125.1150487293594011
 51
205.8115074237585134
  0
ARC
  5
29C39
  8
0
 10
3121.2379182529971331
 20
161.6981413921083117
 30
0.0
 40
0.8213219516999997
 50
334.1809472073335883
 51
54.8849491351341001
  0
LINE
  5
29C3A
  8
0
 10
3120.7103591978971053
 20
161.8370083852082928
 30
0.0
 11
3120.7103591978971053
 21
161.8448824009082898
 31
0.0
  0
LINE
  5
29C3B
  8
0
 10
3120.7103591978971053
 20
161.8448824009082898
 30
0.0
 11
3121.7654773080971609
 21
161.8448824009082898
 31
0.0
  0
LINE
  5
29C3C
  8
0
 10
3121.7654773080971609
 20
161.8448824009082898
 30
0.0
 11
3121.7654773080971609
 21
161.8370083852082928
 31
0.0
  0
ARC
  5
29C3D
  8
0
 10
3121.2379172947171355
 20
161.6086625322284931
 30
0.0
 40
0.4960618619503334
 50
136.48469805571969
 51
151.5569794382541033
  0
ARC
  5
29C3E
  8
0
 10
3120.8639025579359441
 20
161.9637791532375104
 30
0.0
 40
0.0196850118614711
 50
316.4846980557185248
 51
0.0000365890603445
  0
LINE
  5
29C3F
  8
0
 10
3120.8835875697977826
 20
161.9637791658082904
 30
0.0
 11
3120.8835874883461656
 21
162.0913257133082936
 31
0.0
  0
ARC
  5
29C40
  8
0
 10
3120.8639029945711627
 20
162.0913261253039082
 30
0.0
 40
0.0196844937789832
 50
359.998800801925313
 51
70.0008566377210997
  0
LINE
  5
29C41
  8
0
 10
3120.8706352113981666
 20
162.109823599508303
 30
0.0
 11
3120.776288549921901
 21
162.1441613785383993
 31
0.0
  0
ARC
  5
29C42
  8
0
 10
3120.7856167747268046
 20
162.1620106822751097
 30
0.0
 40
0.0201398466206793
 50
180.367371591083014
 51
242.4079811877014095
  0
LINE
  5
29C43
  8
0
 10
3120.7654773420968013
 20
162.1618815496082959
 30
0.0
 11
3120.7654773420968013
 21
162.9492831244083106
 31
0.0
  0
LINE
  5
29C44
  8
0
 10
3120.7654773420968013
 20
162.9492831244083106
 30
0.0
 11
3121.7103591639970546
 21
162.9492831244083106
 31
0.0
  0
LINE
  5
29C45
  8
0
 10
3121.7103591639970546
 20
162.9492831244083106
 30
0.0
 11
3121.7103591978971053
 21
162.1618815504558029
 31
0.0
  0
ARC
  5
29C46
  8
0
 10
3121.6906741584448355
 20
162.1618815496082959
 30
0.0
 40
0.019685039452904
 50
290.0000001172468842
 51
0.0000024667555674
  0
LINE
  5
29C47
  8
0
 10
3121.6974068384970451
 20
162.143383663308299
 30
0.0
 11
3121.611934004295108
 21
162.112274095622297
 31
0.0
  0
ARC
  5
29C48
  8
0
 10
2190.7671291911351545
 20
2719.5873400539871909
 30
0.0
 40
2721.6081208811801844
 50
289.9998492826487109
 51
290.0000001172468842
  0
ARC
  5
29C49
  8
0
 10
3121.6119338992498342
 20
162.0913257672766008
 30
0.0
 40
0.0196849630531062
 50
109.9998492826492935
 51
180.0001570820529082
  0
ARC
  5
29C4A
  8
0
 10
2992.9792192553582026
 20
162.0868413671398969
 30
0.0
 40
128.6130297590169107
 50
359.9825055680237824
 51
0.0019977300107129
  0
ARC
  5
29C4B
  8
0
 10
3121.9505104339291393
 20
162.0240177392936971
 30
0.0
 40
0.3590408172983978
 50
176.2386262972428881
 51
183.7613737027571119
  0
LINE
  5
29C4C
  8
0
 10
3121.5922430190958039
 20
162.0004642267082886
 30
0.0
 11
3121.5922510516052171
 21
161.9637791658082904
 31
0.0
  0
ARC
  5
29C4D
  8
0
 10
3121.611890858919196
 20
161.9637588904855079
 30
0.0
 40
0.0196398177796304
 50
179.9408502337182085
 51
223.5589861084347945
  0
ARC
  5
29C4E
  8
0
 10
3121.2402391941991482
 20
161.6103467433974004
 30
0.0
 40
0.4932199150900557
 50
28.3931760609508714
 51
43.5589861084347731
  0
LINE
  5
29C4F
  8
0
 10
3121.6119340010968699
 20
161.9345517019746978
 30
0.0
 11
3121.6119340010968699
 21
162.1122741044117106
 31
0.0
  0
LINE
  5
29C50
  8
0
 10
3120.863902504996986
 20
161.9345310930195012
 30
0.0
 11
3120.863902504996986
 21
162.1122741044090105
 31
0.0
  0
CIRCLE
  5
29C51
  8
0
 10
3121.2380523693977921
 20
162.0240862740083116
 30
0.0
 40
0.0236220472
  0
LINE
  5
29C52
  8
0
 10
3120.8781779151768205
 20
161.9502250727082924
 30
0.0
 11
3121.5976585908179004
 21
161.9502250727082924
 31
0.0
  0
LINE
  5
29C53
  8
0
 10
3121.6052012946970535
 20
162.109823599508303
 30
0.0
 11
3120.8706352113981666
 21
162.109823599508303
 31
0.0
  0
LINE
  5
29C54
  8
0
 10
3120.7784297004968721
 20
162.143383663308299
 30
0.0
 11
3121.6974068054969393
 21
162.143383663308299
 31
0.0
  0
LINE
  5
29C55
  8
0
 10
3121.0845265795969681
 20
162.143383663308299
 30
0.0
 11
3121.0492701219968694
 21
162.1618815496082959
 31
0.0
  0
LINE
  5
29C56
  8
0
 10
3121.0492701219968694
 20
162.1618815496082959
 30
0.0
 11
3121.0492701219968694
 21
162.634322494408309
 31
0.0
  0
LINE
  5
29C57
  8
0
 10
3121.0492701219968694
 20
162.634322494408309
 30
0.0
 11
3121.4268946242978018
 21
162.634322494408309
 31
0.0
  0
LINE
  5
29C58
  8
0
 10
3121.4268946242978018
 20
162.634322494408309
 30
0.0
 11
3121.4268946242978018
 21
162.1618815496082959
 31
0.0
  0
LINE
  5
29C59
  8
0
 10
3121.4268946242978018
 20
162.1618815496082959
 30
0.0
 11
3121.391638166597204
 21
162.143383663308299
 31
0.0
  0
LINE
  5
29C5A
  8
0
 10
3120.7457922687981409
 20
162.9973539905082873
 30
0.0
 11
3121.7300442372970792
 21
162.9973539905082873
 31
0.0
  0
LINE
  5
29C5B
  8
0
 10
3121.7300442372970792
 20
162.9973539905082873
 30
0.0
 11
3121.7300442372970792
 21
163.0170390299082896
 31
0.0
  0
LINE
  5
29C5C
  8
0
 10
3121.7300442372970792
 20
163.0170390299082896
 30
0.0
 11
3121.6119340009981897
 21
163.1351492661083
 31
0.0
  0
LINE
  5
29C5D
  8
0
 10
3121.6119340009981897
 20
163.1351492661083
 30
0.0
 11
3121.6119340009981897
 21
165.0052280062083128
 31
0.0
  0
ARC
  5
29C5E
  8
0
 10
3121.2379182529971331
 20
165.0052280063044066
 30
0.0
 40
0.3740157479999961
 50
359.9999999852853989
 51
180.0000000147146011
  0
LINE
  5
29C5F
  8
0
 10
3120.863902504996986
 20
165.0052280062083128
 30
0.0
 11
3120.863902504996986
 21
163.1351492661083
 31
0.0
  0
LINE
  5
29C60
  8
0
 10
3120.863902504996986
 20
163.1351492661083
 30
0.0
 11
3120.7457922687981409
 21
163.0170390299082896
 31
0.0
  0
LINE
  5
29C61
  8
0
 10
3120.7457922687981409
 20
163.0170390299082896
 30
0.0
 11
3120.7457922687981409
 21
162.9973539905082873
 31
0.0
  0
LINE
  5
29C62
  8
0
 10
3120.7457922687981409
 20
163.0170390299082896
 30
0.0
 11
3121.7300442372970792
 21
163.0170390299082896
 31
0.0
  0
LINE
  5
29C63
  8
0
 10
3121.6119340009981897
 20
163.1351492661083
 30
0.0
 11
3120.863902504996986
 21
163.1351492661083
 31
0.0
  0
LINE
  5
29C64
  8
0
 10
3120.863902504996986
 20
162.9973539905082873
 30
0.0
 11
3120.863902504996986
 21
162.9492831244083106
 31
0.0
  0
LINE
  5
29C65
  8
0
 10
3120.8835875443969599
 20
162.9492831244083106
 30
0.0
 11
3120.8835875443969599
 21
162.9973539905082873
 31
0.0
  0
LINE
  5
29C66
  8
0
 10
3121.6119340010968699
 20
162.9973539905082873
 30
0.0
 11
3121.6119340010968699
 21
162.9492831244083106
 31
0.0
  0
LINE
  5
29C67
  8
0
 10
3121.5922489616978055
 20
162.9492831244083106
 30
0.0
 11
3121.5922489616978055
 21
162.9973539905082873
 31
0.0
  0
ARC
  5
29C68
  8
0
 10
3118.2243890050081063
 20
160.5023627157557087
 30
0.0
 40
0.0078740160396216
 50
188.0000014828569874
 51
270.0026740608533942
  0
LINE
  5
29C69
  8
0
 10
3118.2165916183789705
 20
160.5012668643246059
 30
0.0
 11
3118.2092445703301564
 21
160.5535438177464869
 31
0.0
  0
ARC
  5
29C6A
  8
0
 10
3118.3169986621010139
 20
160.502362715728907
 30
0.0
 40
0.0078740160042301
 50
270.0000021572844275
 51
351.9999986779972119
  0
LINE
  5
29C6B
  8
0
 10
3118.3247960486969532
 20
160.5012668643246059
 30
0.0
 11
3118.3321430965979744
 21
160.5535438177558092
 31
0.0
  0
ARC
  5
29C6C
  8
0
 10
3118.5639007458507876
 20
160.5023627157945896
 30
0.0
 40
0.0078740160705561
 50
188.0000015865497005
 51
270.0006690494470263
  0
LINE
  5
29C6D
  8
0
 10
3118.5561033591948217
 20
160.5012668643452116
 30
0.0
 11
3118.5487563110268638
 21
160.5535438179246057
 31
0.0
  0
ARC
  5
29C6E
  8
0
 10
3118.7743370761832011
 20
160.502362715864308
 30
0.0
 40
0.007874016139688
 50
270.0000022863874847
 51
351.9999978211619123
  0
LINE
  5
29C6F
  8
0
 10
3118.78213446289692
 20
160.5012668643246059
 30
0.0
 11
3118.7894815116192149
 21
160.5535438179246057
 31
0.0
  0
ARC
  5
29C70
  8
0
 10
3118.6817274188970259
 20
160.5023627155246118
 30
0.0
 40
0.0078740157000112
 50
188.0000001324939092
 51
269.9999999999739089
  0
LINE
  5
29C71
  8
0
 10
3118.6739300325798467
 20
160.5012668643246059
 30
0.0
 11
3118.669118911077021
 21
160.5354997720216943
 31
0.0
  0
ARC
  5
29C72
  8
0
 10
3118.6564254395648277
 20
160.5024352435358139
 30
0.0
 40
0.007968472475686
 50
274.2516335904609264
 51
351.5685952565661978
  0
LINE
  5
29C73
  8
0
 10
3118.6643077896969771
 20
160.5012668643246059
 30
0.0
 11
3118.6716548363260699
 21
160.5535438179246057
 31
0.0
  0
ARC
  5
29C74
  8
0
 10
3118.9413111942581054
 20
160.5023627159177977
 30
0.0
 40
0.0078740161932412
 50
188.0000024738849049
 51
270.000120348733617
  0
LINE
  5
29C75
  8
0
 10
3118.9335138074961833
 20
160.5012668643304892
 30
0.0
 11
3118.92616675850104
 21
160.5535438179246057
 31
0.0
  0
ARC
  5
29C76
  8
0
 10
3119.1108657973968548
 20
160.5023627155246118
 30
0.0
 40
0.0078740157000077
 50
270.0
 51
351.999999999957879
  0
LINE
  5
29C77
  8
0
 10
3119.1186631837181267
 20
160.5012668643425968
 30
0.0
 11
3119.1260102304099746
 21
160.5535438179246057
 31
0.0
  0
ARC
  5
29C78
  8
0
 10
3119.0182561400620216
 20
160.5023627158070099
 30
0.0
 40
0.0078740160824076
 50
188.0000017856046952
 51
269.9999980759088203
  0
LINE
  5
29C79
  8
0
 10
3119.0104587533969607
 20
160.5012668643288123
 30
0.0
 11
3119.0031117050411922
 21
160.5535438179246057
 31
0.0
  0
ARC
  5
29C7A
  8
0
 10
3119.2427945268559597
 20
160.502362715706397
 30
0.0
 40
0.0078740159817627
 50
188.0000011798931894
 51
269.9999981154863917
  0
LINE
  5
29C7B
  8
0
 10
3119.2349971402791198
 20
160.5012668643246059
 30
0.0
 11
3119.2276500924867833
 21
160.5535438179246057
 31
0.0
  0
ARC
  5
29C7C
  8
0
 10
3119.4529323444871807
 20
160.5023627156305963
 30
0.0
 40
0.0078740158060029
 50
270.0000000733973025
 51
351.9999991970601059
  0
LINE
  5
29C7D
  8
0
 10
3119.4607297308980378
 20
160.5012668643246059
 30
0.0
 11
3119.4680767783388546
 21
160.5535438179246057
 31
0.0
  0
ARC
  5
29C7E
  8
0
 10
3119.3354041839438651
 20
160.5023627157941064
 30
0.0
 40
0.0078740160694757
 50
270.0000018422782091
 51
351.9999982652865924
  0
LINE
  5
29C7F
  8
0
 10
3119.3432015705948288
 20
160.5012668643119866
 30
0.0
 11
3119.3448267656622193
 21
160.5128307278683906
 31
0.0
  0
LINE
  5
29C80
  8
0
 10
3119.3464519606968679
 20
160.5012668643246059
 30
0.0
 11
3119.3391049139981988
 21
160.5535438179246057
 31
0.0
  0
ARC
  5
29C81
  8
0
 10
3119.3542493473478316
 20
160.5023627156971031
 30
0.0
 40
0.007874015972444
 50
188.000001120944205
 51
270.0000025403465997
  0
ARC
  5
29C82
  8
0
 10
3119.5675976764450752
 20
160.5023627156930104
 30
0.0
 40
0.007874015968407
 50
188.0000010951845013
 51
270.0001604672883104
  0
LINE
  5
29C83
  8
0
 10
3119.5598002898791492
 20
160.5012668643246059
 30
0.0
 11
3119.5524532421659387
 21
160.5535438179246057
 31
0.0
  0
ARC
  5
29C84
  8
0
 10
3119.6602073337980983
 20
160.5023627155246118
 30
0.0
 40
0.0078740157000041
 50
270.0000000000521254
 51
351.9999999999902229
  0
LINE
  5
29C85
  8
0
 10
3119.6680047201180059
 20
160.5012668643425968
 30
0.0
 11
3119.6753517668098539
 21
160.5535438179246057
 31
0.0
  0
ARC
  5
29C86
  8
0
 10
3119.698731537383992
 20
160.5023627159474984
 30
0.0
 40
0.0078740162228499
 50
188.0000025935297003
 51
269.9999979152269134
  0
LINE
  5
29C87
  8
0
 10
3119.690934150594785
 20
160.5012668643398115
 30
0.0
 11
3119.6835871014900476
 21
160.5535438179246057
 31
0.0
  0
ARC
  5
29C88
  8
0
 10
3119.7913411943382016
 20
160.5023627158213912
 30
0.0
 40
0.0078740160968209
 50
270.0000026123368002
 51
351.9999980923150815
  0
LINE
  5
29C89
  8
0
 10
3119.7991385810150859
 20
160.5012668643246059
 30
0.0
 11
3119.806485629484996
 21
160.5535438179246057
 31
0.0
  0
ARC
  5
29C8A
  8
0
 10
3119.8924008260719347
 20
160.5023627158188049
 30
0.0
 40
0.0078740160942021
 50
188.0000018474993908
 51
270.0000744052215964
  0
LINE
  5
29C8B
  8
0
 10
3119.8846034393968694
 20
160.5012668643304892
 30
0.0
 11
3119.8772563909838027
 21
160.5535438179246057
 31
0.0
  0
ARC
  5
29C8C
  8
0
 10
3119.9850104831061799
 20
160.5023627158379895
 30
0.0
 40
0.0078740161133979
 50
270.0000021201037725
 51
351.99999803102952
  0
LINE
  5
29C8D
  8
0
 10
3119.9928078697980709
 20
160.5012668643246059
 30
0.0
 11
3120.0001549164971948
 21
160.5535438179246057
 31
0.0
  0
ARC
  5
29C8E
  8
0
 10
3120.0664623093011869
 20
160.5023627157376893
 30
0.0
 40
0.0078740160131081
 50
188.000001378033005
 51
270.0001207605084232
  0
LINE
  5
29C8F
  8
0
 10
3120.0513178759970288
 20
160.5535438179246057
 30
0.0
 11
3120.0586649226970621
 21
160.5012668643246059
 31
0.0
  0
ARC
  5
29C90
  8
0
 10
3120.1590719663990967
 20
160.5023627158456918
 30
0.0
 40
0.0078740161211286
 50
270.0000021690092922
 51
351.999997938557101
  0
LINE
  5
29C91
  8
0
 10
3120.1668693530968994
 20
160.5012668643246059
 30
0.0
 11
3120.1734942318889807
 21
160.5484053139855973
 31
0.0
  0
LINE
  5
29C92
  8
0
 10
3120.1727720605990726
 20
160.5535438179246057
 30
0.0
 11
3120.1801191072790971
 21
160.5012668643246059
 31
0.0
  0
ARC
  5
29C93
  8
0
 10
3120.1879164935771769
 20
160.5023627155011923
 30
0.0
 40
0.0078740156765947
 50
187.9999999843614091
 51
270.0000001480451033
  0
ARC
  5
29C94
  8
0
 10
3120.3098136326889289
 20
160.5023627157632973
 30
0.0
 40
0.0078740160386417
 50
270.0000022442824275
 51
351.9999984603206258
  0
LINE
  5
29C95
  8
0
 10
3120.3176110193148816
 20
160.5012668643246059
 30
0.0
 11
3120.3249580674419121
 21
160.5535438179246057
 31
0.0
  0
ARC
  5
29C96
  8
0
 10
3120.2805261512971811
 20
160.5023627155246118
 30
0.0
 40
0.0078740157000041
 50
270.0000000000259774
 51
351.9999999999885176
  0
LINE
  5
29C97
  8
0
 10
3120.2883235376179982
 20
160.5012668643425968
 30
0.0
 11
3120.2956705843098462
 21
160.5535438179246057
 31
0.0
  0
ARC
  5
29C98
  8
0
 10
3120.5190914962890929
 20
160.5023627157430894
 30
0.0
 40
0.0078740160184879
 50
188.0000014121075083
 51
270.000097572065215
  0
LINE
  5
29C99
  8
0
 10
3120.5112941096790564
 20
160.5012668643246059
 30
0.0
 11
3120.5039470616711696
 21
160.5535438179246057
 31
0.0
  0
ARC
  5
29C9A
  8
0
 10
3120.6346167824108306
 20
160.5023627157167994
 30
0.0
 40
0.0078740159921829
 50
270.0000020810472279
 51
351.9999987541958717
  0
LINE
  5
29C9B
  8
0
 10
3120.6424141689972203
 20
160.5012668643246059
 30
0.0
 11
3120.6497612168509477
 21
160.5535438179246057
 31
0.0
  0
ARC
  5
29C9C
  8
0
 10
3120.6117011533401637
 20
160.5023627157038106
 30
0.0
 40
0.0078740159792083
 50
270.0000018683334133
 51
351.9999988362575891
  0
LINE
  5
29C9D
  8
0
 10
3120.6194985399160942
 20
160.5012668643246059
 30
0.0
 11
3120.6268455876929693
 21
160.5535438179246057
 31
0.0
  0
ARC
  5
29C9E
  8
0
 10
3120.8521016835438786
 20
160.5023627156924135
 30
0.0
 40
0.0078740159678361
 50
188.0000010918004989
 51
269.9999982035527069
  0
LINE
  5
29C9F
  8
0
 10
3120.8443042969802264
 20
160.5012668643246059
 30
0.0
 11
3120.8369572492688349
 21
160.5535438179246057
 31
0.0
  0
ARC
  5
29CA0
  8
0
 10
3120.9594199320208645
 20
160.5023627157056012
 30
0.0
 40
0.0078740159809954
 50
270.0000020102816052
 51
351.9999988249629723
  0
LINE
  5
29CA1
  8
0
 10
3120.9672173185967949
 20
160.5012668643246059
 30
0.0
 11
3120.9745643663850387
 21
160.5535438179246057
 31
0.0
  0
ARC
  5
29CA2
  8
0
 10
3120.945814231676195
 20
160.5023627156438124
 30
0.0
 40
0.0078740158192012
 50
270.0000001569038091
 51
351.9999992646257851
  0
LINE
  5
29CA3
  8
0
 10
3120.9536116180997851
 20
160.5012668643452116
 30
0.0
 11
3120.9609586654760278
 21
160.5535438179246057
 31
0.0
  0
ARC
  5
29CA4
  8
0
 10
3121.2842230817059317
 20
160.5023627156284931
 30
0.0
 40
0.0078740159038482
 50
269.9999992087064129
 51
351.9999993129458744
  0
LINE
  5
29CA5
  8
0
 10
3121.2920204682150143
 20
160.5012668643246059
 30
0.0
 11
3121.2993675155489655
 21
160.5535438179246057
 31
0.0
  0
ARC
  5
29CA6
  8
0
 10
3121.1916134243351735
 20
160.5023627155665054
 30
0.0
 40
0.0078740158418924
 50
188.0000002951599072
 51
270.0000004555735131
  0
LINE
  5
29CA7
  8
0
 10
3121.1838160378788416
 20
160.5012668643246059
 30
0.0
 11
3121.1764689909100525
 21
160.5535438179246057
 31
0.0
  0
LINE
  5
29CA8
  8
0
 10
3120.863902504996986
 20
160.4944886997245987
 30
0.0
 11
3120.863902504996986
 21
155.2414484784245872
 31
0.0
  0
LINE
  5
29CA9
  8
0
 10
3120.863902504996986
 20
155.0052280059246073
 30
0.0
 11
3120.863902504996986
 21
144.5305626322177943
 31
0.0
  0
LINE
  5
29CAA
  8
0
 10
3121.6119340009981897
 20
153.4793903480369011
 30
0.0
 11
3121.6119340010968699
 21
155.0052280059246073
 31
0.0
  0
LINE
  5
29CAB
  8
0
 10
3121.6119340010968699
 20
155.2414484784245872
 30
0.0
 11
3121.6119340009981897
 21
160.4944886997245987
 31
0.0
  0
LINE
  5
29CAC
  8
0
 10
3120.8065623492971099
 20
144.5430729179178115
 30
0.0
 11
3120.4703735049979514
 21
144.5460068824264113
 31
0.0
  0
ARC
  5
29CAD
  8
0
 10
3120.4702006627130686
 20
144.5262017185573029
 30
0.0
 40
0.0198059180634282
 50
89.4999848481801052
 51
173.6390086395591084
  0
LINE
  5
29CAE
  8
0
 10
3120.450516678196891
 20
144.5314528189178134
 30
0.0
 11
3120.4190206151970415
 21
144.5314528195177957
 31
0.0
  0
LINE
  5
29CAF
  8
0
 10
3120.4190206151970415
 20
144.5314528195177957
 30
0.0
 11
3120.4190206151970415
 21
142.958618173817797
 31
0.0
  0
LINE
  5
29CB0
  8
0
 10
3120.4190206151970415
 20
142.958618173817797
 30
0.0
 11
3120.450516678196891
 21
142.958618173817797
 31
0.0
  0
LINE
  5
29CB1
  8
0
 10
3120.450516678196891
 20
142.958618173817797
 30
0.0
 11
3120.450516678196891
 21
144.5314528195177957
 31
0.0
  0
ARC
  5
29CB2
  8
0
 10
3120.3991068922910017
 20
144.5237538957796914
 30
0.0
 40
0.0203210293800577
 50
11.4908860337692396
 51
89.8302130268447314
  0
LINE
  5
29CB3
  8
0
 10
3120.3991671103572116
 20
144.5440748359364136
 30
0.0
 11
3119.4689936771969769
 21
144.5359573356178089
 31
0.0
  0
ARC
  5
29CB4
  8
0
 10
3119.4693372425567759
 20
144.4965887521985906
 30
0.0
 40
0.0393700825194226
 50
90.5000013637676233
 51
172.6907481564016109
  0
ARC
  5
29CB5
  8
0
 10
3125.3286210184610354
 20
143.7450355146822858
 30
0.0
 40
5.9466569923788342
 50
172.6907481564016109
 51
187.309383469365514
  0
ARC
  5
29CB6
  8
0
 10
3119.4693235785312027
 20
142.9934668424760957
 30
0.0
 40
0.0393545658380961
 50
187.309383469365514
 51
269.5124935449852046
  0
LINE
  5
29CB7
  8
0
 10
3119.4689887305971752
 20
142.954113701188902
 30
0.0
 11
3120.3991637715839715
 21
142.9459961863107083
 31
0.0
  0
ARC
  5
29CB8
  8
0
 10
3120.3989719439391592
 20
142.9660769353482976
 30
0.0
 40
0.0200816652634888
 50
270.5473192305842076
 51
356.7151558575928902
  0
LINE
  5
29CB9
  8
0
 10
3119.4302869229718453
 20
144.501596343814299
 30
0.0
 11
3119.4302869229718453
 21
142.9884746487437042
 31
0.0
  0
ARC
  5
29CBA
  8
0
 10
3120.4703867483999602
 20
142.9641051868848081
 30
0.0
 40
0.0200410804461729
 50
187.4902692833514095
 51
269.962123347632712
  0
LINE
  5
29CBB
  8
0
 10
3120.4703734997970059
 20
142.9440641108176919
 30
0.0
 11
3120.8065291658840579
 21
142.9469976969020877
 31
0.0
  0
ARC
  5
29CBC
  8
0
 10
3121.2437721923538447
 20
142.2796823941419859
 30
0.0
 40
0.7978039718469605
 50
57.7661270836547232
 51
123.2339006208565024
  0
LINE
  5
29CBD
  8
0
 10
3121.6693020403968148
 20
142.9545272103177922
 30
0.0
 11
3122.005806570697132
 21
142.9574636321638081
 31
0.0
  0
ARC
  5
29CBE
  8
0
 10
3122.0056347885101786
 20
142.9771479219066066
 30
0.0
 40
0.0196850392887483
 50
270.4999999657799208
 51
0.0007096429618484
  0
LINE
  5
29CBF
  8
0
 10
3122.0253198277969204
 20
142.9771481657178072
 30
0.0
 11
3122.0253008062941262
 21
144.5129230711000048
 31
0.0
  0
ARC
  5
29CC0
  8
0
 10
3122.005634788496991
 20
144.5129230712178128
 30
0.0
 40
0.0196850393999992
 50
359.9992906633956977
 51
89.4999999999042188
  0
LINE
  5
29CC1
  8
0
 10
3122.0058065706930392
 20
144.532607361071797
 30
0.0
 11
3121.6692996341507751
 21
144.5355440126182032
 31
0.0
  0
ARC
  5
29CC2
  8
0
 10
3121.244303881354881
 20
145.2695749971167061
 30
0.0
 40
0.8481879957284127
 50
238.9296839465476125
 51
300.070362701164072
  0
ARC
  5
29CC3
  8
0
 10
3121.6507214278572064
 20
144.5237273709844033
 30
0.0
 40
0.0087547945382318
 50
36.7723721080561035
 51
86.3834846489523898
  0
LINE
  5
29CC4
  8
0
 10
3121.6512736644967845
 20
144.5324647311178126
 30
0.0
 11
3121.6158705751968228
 21
144.5324369583177884
 31
0.0
  0
ARC
  5
29CC5
  8
0
 10
3121.2379181243009043
 20
145.2232012663145042
 30
0.0
 40
0.7874029364568412
 50
241.3146603522797022
 51
298.6853225023285177
  0
LINE
  5
29CC6
  8
0
 10
3120.8247200940209041
 20
144.5324370714178031
 30
0.0
 11
3120.8599654667968935
 21
144.5324370714178031
 31
0.0
  0
LINE
  5
29CC7
  8
0
 10
3121.6119340009981897
 20
150.7577901690860074
 30
0.0
 11
3121.6119340009981897
 21
144.5302975873520097
 31
0.0
  0
LINE
  5
29CC8
  8
0
 10
3122.0390993553969565
 20
144.5125104825177971
 30
0.0
 11
3122.0390993553969565
 21
142.9775605108177956
 31
0.0
  0
ARC
  5
29CC9
  8
0
 10
3122.0587846906000777
 20
142.9775605108177956
 30
0.0
 40
0.0196853352022215
 50
180.0
 51
269.9991390434306027
  0
LINE
  5
29CCA
  8
0
 10
3122.0587843947969304
 20
142.9578751756178008
 30
0.0
 11
3122.783595400997001
 21
142.9641997559178037
 31
0.0
  0
ARC
  5
29CCB
  8
0
 10
3122.7833140937859753
 20
142.9843870567812019
 30
0.0
 40
0.0201892481563819
 50
270.7983572088825213
 51
293.7700365799564111
  0
ARC
  5
29CCC
  8
0
 10
3123.1788831492222016
 20
142.3437793110061023
 30
0.0
 40
0.7329053665963619
 50
78.8220891492427427
 51
121.9125379488157961
  0
ARC
  5
29CCD
  8
0
 10
3123.3339659207431396
 20
143.1106221472072093
 30
0.0
 40
0.04957672896016
 50
254.7927227482030901
 51
264.5287819988682259
  0
LINE
  5
29CCE
  8
0
 10
3123.3292389921971335
 20
143.0612712789177863
 30
0.0
 11
3123.6675538015010716
 21
143.0646304925178072
 31
0.0
  0
ARC
  5
29CCF
  8
0
 10
3123.6681501002899495
 20
143.0823029978118939
 30
0.0
 40
0.017682562473091
 50
268.0674812953974993
 51
315.5577799154053764
  0
ARC
  5
29CD0
  8
0
 10
3123.6619770800689366
 20
143.0883569831983095
 30
0.0
 40
0.0263287707576778
 50
315.5577799154053764
 51
342.8040728252506142
  0
ARC
  5
29CD1
  8
0
 10
3123.6421833121207783
 20
143.0944826360891966
 30
0.0
 40
0.0470487339071256
 50
342.8040728252506142
 51
353.0501049705670766
  0
ARC
  5
29CD2
  8
0
 10
3118.4245843838330075
 20
143.7304921638707924
 30
0.0
 40
5.303268544370062
 50
353.0501049705670766
 51
6.8511551947446216
  0
ARC
  5
29CD3
  8
0
 10
3123.6695493274601176
 20
144.3601858832377047
 30
0.0
 40
0.0206448603632184
 50
8.1750663483515691
 51
88.7429946859118957
  0
LINE
  5
29CD4
  8
0
 10
3123.6700022162722234
 20
144.3808257754645865
 30
0.0
 11
3123.3864369800157874
 21
144.3837907508865044
 31
0.0
  0
ARC
  5
29CD5
  8
0
 10
3122.0587843948019326
 20
144.5125107783103999
 30
0.0
 40
0.0196850394073352
 50
90.0000000148774575
 51
180.0008609417016885
  0
LINE
  5
29CD6
  8
0
 10
3122.0587843947969304
 20
144.5321958177177919
 30
0.0
 11
3122.685259478496846
 21
144.526730053717813
 31
0.0
  0
ARC
  5
29CD7
  8
0
 10
3122.6850556315421272
 20
144.4875349409352054
 30
0.0
 40
0.0391489844062642
 50
57.234567190995989
 51
89.6044076710004873
  0
ARC
  5
29CD8
  8
0
 10
3123.6848216643711567
 20
146.040925540328999
 30
0.0
 40
1.8081610801700141
 50
237.234567190995989
 51
242.6095579158262865
  0
ARC
  5
29CD9
  8
0
 10
3123.2607595204649442
 20
145.2224926005970929
 30
0.0
 40
0.886390404387561
 50
242.6095579158262865
 51
256.7907609461495895
  0
ARC
  5
29CDA
  8
0
 10
3123.1795029901718408
 20
144.909011451273301
 30
0.0
 40
0.5626851985839221
 50
257.5518021198590191
 51
272.1763679598794283
  0
ARC
  5
29CDB
  8
0
 10
3123.1672165628028779
 20
145.0026115962706115
 30
0.0
 40
0.6567423450854414
 50
272.9374091335649268
 51
282.0889143395643828
  0
ARC
  5
29CDC
  8
0
 10
3123.1661780101298973
 20
144.9995286086738986
 30
0.0
 40
0.6539473398733744
 50
282.2344600943029036
 51
289.6829167798953222
  0
LINE
  5
29CDD
  8
0
 10
3122.6426427894889457
 20
144.5278915318178008
 30
0.0
 11
3123.7032724954437981
 21
144.5278915318178008
 31
0.0
  0
ARC
  5
29CDE
  8
0
 10
3123.7032724954929108
 20
144.5475782470194019
 30
0.0
 40
0.0196867152016562
 50
269.999999858025717
 51
359.9871180807082851
  0
LINE
  5
29CDF
  8
0
 10
3123.7229592101971321
 20
144.5475738208178029
 30
0.0
 11
3123.7200380314970971
 21
147.5545307349177904
 31
0.0
  0
ARC
  5
29CE0
  8
0
 10
3141.7362404015539141
 20
147.6471987879010896
 30
0.0
 40
18.0164406919590299
 50
176.0441429233763131
 51
180.2947037005752122
  0
ARC
  5
29CE1
  8
0
 10
3128.3317583988819024
 20
148.5741541984525043
 30
0.0
 40
4.5799462051847648
 50
167.8505519548160123
 51
176.0441429233763131
  0
ARC
  5
29CE2
  8
0
 10
3125.3541380682490853
 20
149.2151890686124034
 30
0.0
 40
1.53410501790077
 50
142.6949531959490969
 51
167.8505519548160123
  0
ARC
  5
29CE3
  8
0
 10
3129.6937198702280511
 20
145.2935065397026051
 30
0.0
 40
7.3789082524978902
 50
132.3262431085287005
 51
138.8924957392823956
  0
ARC
  5
29CE4
  8
0
 10
3123.2988761536907987
 20
152.2130966583443978
 30
0.0
 40
2.0440274166176668
 50
314.2478104640258039
 51
350.7142582795465842
  0
ARC
  5
29CE5
  8
0
 10
3123.0518596155711748
 20
152.2410085236722921
 30
0.0
 40
2.0672016018975681
 50
216.5014087571944117
 51
225.848507625458609
  0
ARC
  5
29CE6
  8
0
 10
3122.9511547762708688
 20
152.1664870306217097
 30
0.0
 40
1.94192224372152
 50
193.6129070343233991
 51
216.5014087571944117
  0
ARC
  5
29CE7
  8
0
 10
3122.8566886152289044
 20
152.1436107339243904
 30
0.0
 40
1.8447256361032349
 50
170.5268663197165893
 51
193.6129070343233991
  0
ARC
  5
29CE8
  8
0
 10
3122.703582906920019
 20
152.169158045823508
 30
0.0
 40
1.6895031407550529
 50
145.0833423107930003
 51
170.5268663197165893
  0
ARC
  5
29CE9
  8
0
 10
3123.2019680835060171
 20
151.8212642758194875
 30
0.0
 40
2.2973006888314051
 50
133.7990702133025991
 51
145.0833423107930003
  0
ARC
  5
29CEA
  8
0
 10
3123.1056284845722075
 20
151.857102645214411
 30
0.0
 40
2.205207609498419
 50
107.4078245353107945
 51
132.6368060600364061
  0
ARC
  5
29CEB
  8
0
 10
3123.1030782749021455
 20
151.3457335760585067
 30
0.0
 40
2.7311887070433318
 50
69.4597043176058122
 51
87.1903617494130998
  0
ARC
  5
29CEC
  8
0
 10
3123.3268141962957998
 20
150.5991734358993028
 30
0.0
 40
3.4756275064666622
 50
91.4814937917991386
 51
104.6821400622803964
  0
ARC
  5
29CED
  8
0
 10
3123.3240525248379527
 20
151.9887716076985953
 30
0.0
 40
2.0515842060145411
 50
25.6690271844226388
 51
68.9376117918149021
  0
ARC
  5
29CEE
  8
0
 10
3122.334869924854047
 20
152.2286814661244136
 30
0.0
 40
3.00119103102148
 50
353.3912149106992047
 51
359.0875006705040846
  0
ARC
  5
29CEF
  8
0
 10
3123.2361982045549667
 20
152.058318061730489
 30
0.0
 40
2.1030568759129031
 50
3.3411443983460081
 51
22.9234376871358094
  0
ARC
  5
29CF0
  8
0
 10
3125.4101345919521009
 20
154.5082276364925065
 30
0.0
 40
5.3378000080610528
 50
224.637472501067009
 51
226.1575477176060076
  0
ARC
  5
29CF1
  8
0
 10
3094.9135196317620284
 20
122.7537821863195973
 30
0.0
 40
38.689331739056982
 50
45.479297238823321
 51
46.1575477187991225
  0
ARC
  5
29CF2
  8
0
 10
3120.84477739035583
 20
149.1225563878566902
 30
0.0
 40
1.7063304839630891
 50
35.8010634921984092
 51
45.479297238823321
  0
ARC
  5
29CF3
  8
0
 10
3120.9310346745792231
 20
149.184769537178596
 30
0.0
 40
1.5999782624060379
 50
12.7582933079320604
 51
35.8010634921984092
  0
ARC
  5
29CF4
  8
0
 10
3118.436801852312783
 20
148.6200027440141014
 30
0.0
 40
4.1573517005903309
 50
2.1293484204757629
 51
12.7582933079320604
  0
ARC
  5
29CF5
  8
0
 10
3072.615472367358052
 20
146.9163079624829891
 30
0.0
 40
50.010343006256079
 50
359.8086033569742881
 51
2.1293484204757629
  0
LINE
  5
29CF6
  8
0
 10
3122.6255363423920244
 20
146.7492486424523861
 30
0.0
 11
3122.6229578659199433
 21
144.5475298513050006
 31
0.0
  0
ARC
  5
29CF7
  8
0
 10
3122.6426449804471304
 20
144.5475787068425859
 30
0.0
 40
0.0196871751467223
 50
180.1421848976303863
 51
269.993623632546587
  0
LINE
  5
29CF8
  8
0
 10
3122.7209012679982152
 20
144.5111023219178037
 30
0.0
 11
3122.7205366337980195
 21
144.5200175160177878
 31
0.0
  0
ARC
  5
29CF9
  8
0
 10
3122.7285356807960852
 20
144.5199681050700917
 30
0.0
 40
0.007999199605944
 50
97.8925005046794325
 51
179.6460824951080895
  0
LINE
  5
29CFA
  8
0
 10
3123.6196087742960117
 20
144.3813774274993023
 30
0.0
 11
3123.6253717862969097
 21
144.5196897164177869
 31
0.0
  0
ARC
  5
29CFB
  8
0
 10
3123.6172999723407884
 20
144.519975148615714
 30
0.0
 40
0.0080768590487854
 50
357.9747738398706929
 51
78.5595549807177491
  0
ARC
  5
29CFC
  8
0
 10
3340.3172744715411682
 20
146.1141827510899986
 30
0.0
 40
217.4509584229645895
 50
180.8161906782275139
 51
181.3555535884447067
  0
LINE
  5
29CFD
  8
0
 10
3120.823209588671034
 20
142.9576339218176884
 30
0.0
 11
3120.8601359500480612
 21
142.9576339218176884
 31
0.0
  0
ARC
  5
29CFE
  8
0
 10
3121.2379976843590157
 20
142.1872938350053062
 30
0.0
 40
0.8580229248729908
 50
63.8706292624353935
 51
116.1285455543041962
  0
LINE
  5
29CFF
  8
0
 10
3121.6158705131970237
 20
142.9576284797107917
 30
0.0
 11
3121.6513041727448581
 21
142.9576476266639133
 31
0.0
  0
ARC
  5
29D00
  8
0
 10
3121.6507786356919496
 20
142.9661781812781953
 30
0.0
 40
0.0085467275152773
 50
273.5253332210735948
 51
327.1840136425506103
  0
LINE
  5
29D01
  8
0
 10
3120.863902504996986
 20
142.9594700690255138
 30
0.0
 11
3120.863902504996986
 21
135.3201886358245929
 31
0.0
  0
LINE
  5
29D02
  8
0
 10
3120.863902504996986
 20
135.083968163324613
 30
0.0
 11
3120.863902504996986
 21
124.4458950135029056
 31
0.0
  0
LINE
  5
29D03
  8
0
 10
3121.6119340010968699
 20
124.4459597804974038
 30
0.0
 11
3121.6119340010968699
 21
135.083968163324613
 31
0.0
  0
LINE
  5
29D04
  8
0
 10
3121.6119340009981897
 20
135.3201886358245929
 30
0.0
 11
3121.6119340009981897
 21
142.9595470128600994
 31
0.0
  0
ARC
  5
29D05
  8
0
 10
3122.0351623474980443
 20
144.4830530591177933
 30
0.0
 40
0.0098425197000008
 50
180.0013638756041132
 51
269.4999999857557214
  0
LINE
  5
29D06
  8
0
 10
3122.0350764563968369
 20
144.473210914190787
 30
0.0
 11
3122.0390993553969565
 21
144.4731758068820966
 31
0.0
  0
ARC
  5
29D07
  8
0
 10
3122.0351623474621192
 20
143.0070179342258996
 30
0.0
 40
0.0098425196645908
 50
90.4999998098862761
 51
179.9986361716223939
  0
LINE
  5
29D08
  8
0
 10
3122.0350764563968369
 20
143.0168600791178051
 30
0.0
 11
3122.0390993553969565
 21
143.0168951864121141
 31
0.0
  0
LINE
  5
29D09
  8
0
 10
3123.6889153483971313
 20
144.3673390288718963
 30
0.0
 11
3123.6889153483971313
 21
143.0889634388126126
 31
0.0
  0
LINE
  5
29D0A
  8
0
 10
3117.1237450246972003
 20
124.4356528761083069
 30
0.0
 11
3117.1237450246972003
 21
122.6929133726083023
 31
0.0
  0
ARC
  5
29D0B
  8
0
 10
3117.1355560482970759
 20
122.6929133726083023
 30
0.0
 40
0.0118110235999995
 50
179.9999999999984084
 51
269.5000000000085265
  0
LINE
  5
29D0C
  8
0
 10
3117.1354529789809931
 20
122.6811027987359068
 30
0.0
 11
3117.4268946270731249
 21
122.6785594260042984
 31
0.0
  0
ARC
  5
29D0D
  8
0
 10
3117.4269968086568952
 20
122.6902682758091032
 30
0.0
 40
0.011709295658906
 50
269.5000000000085265
 51
0.5021624556066684
  0
LINE
  5
29D0E
  8
0
 10
3117.4387056545970154
 20
122.6903708993083058
 30
0.0
 11
3117.4387056545970154
 21
124.4381953494083035
 31
0.0
  0
ARC
  5
29D0F
  8
0
 10
3117.4268946309971398
 20
124.4381953494083035
 30
0.0
 40
0.0118110235999995
 50
0.0000000000081422
 51
90.0
  0
LINE
  5
29D10
  8
0
 10
3117.4268946309971398
 20
124.450006373008307
 30
0.0
 11
3117.1354529789809931
 21
124.4474634499807024
 31
0.0
  0
ARC
  5
29D11
  8
0
 10
3117.1355560482970759
 20
124.4356528761083069
 30
0.0
 40
0.0118110236000007
 50
90.4999999188789133
 51
179.9999999999917861
  0
LINE
  5
29D12
  8
0
 10
3117.080437937996976
 20
124.6403206222342988
 30
0.0
 11
3117.0804379380970204
 21
122.6850960104083015
 31
0.0
  0
ARC
  5
29D13
  8
0
 10
3117.0686269142720448
 20
122.6850960104077046
 30
0.0
 40
0.0118110238257301
 50
269.5000006176682064
 51
0.0000000029295708
  0
LINE
  5
29D14
  8
0
 10
3117.068523845080108
 20
122.6732854363085039
 30
0.0
 11
3115.4316692227430394
 21
122.6875700325433058
 31
0.0
  0
ARC
  5
29D15
  8
0
 10
3115.4318410043388212
 20
122.7072542780623934
 30
0.0
 40
0.0196849950615401
 50
224.9998740677343108
 51
269.5000006176682064
  0
LINE
  5
29D16
  8
0
 10
3115.4179215802500948
 20
122.6933349151607047
 30
0.0
 11
3115.3510374277570918
 21
122.7602193616676942
 31
0.0
  0
ARC
  5
29D17
  8
0
 10
3115.3579975472939623
 20
122.7671794506090066
 30
0.0
 40
0.0098430738106493
 50
180.0030472576682996
 51
224.9998740677297064
  0
LINE
  5
29D18
  8
0
 10
3115.3481544734968338
 20
122.7671789271083043
 30
0.0
 11
3115.3480555403230028
 21
124.6273607462774038
 31
0.0
  0
ARC
  5
29D19
  8
0
 10
3115.3578971952410939
 20
124.6273612697027033
 30
0.0
 40
0.0098416549312465
 50
89.9190375404028259
 51
180.0030472576682996
  0
LINE
  5
29D1A
  8
0
 10
3115.3579111020999335
 20
124.6372029148082987
 30
0.0
 11
3117.0685238447968004
 21
124.6521312061082938
 31
0.0
  0
ARC
  5
29D1B
  8
0
 10
3117.0686292076647987
 20
124.6403229456051065
 30
0.0
 40
0.0118087305602786
 50
359.988727040214826
 51
90.5112258037350443
  0
ARC
  5
29D1C
  8
0
 10
3125.2955858403552156
 20
123.5650894858456041
 30
0.0
 40
9.9767680714290172
 50
175.6050409439554016
 51
184.3533304939614936
  0
ARC
  5
29D1D
  8
0
 10
3115.355588384244129
 20
122.8083869131433943
 30
0.0
 40
0.008009463893713
 50
184.3150193689068885
 51
201.8140500408792946
  0
ARC
  5
29D1E
  8
0
 10
3117.0678611563598679
 20
124.4311164065827029
 30
0.0
 40
0.0135074665789332
 50
21.3932989937002382
 51
87.1878874603156362
  0
LINE
  5
29D1F
  8
0
 10
3117.0685238450969337
 20
124.4446076073082992
 30
0.0
 11
3115.4316753716971107
 21
124.432098567108298
 31
0.0
  0
ARC
  5
29D20
  8
0
 10
3115.431317981256143
 20
124.4138431502900062
 30
0.0
 40
0.0182589148400814
 50
88.8784507809435667
 51
137.1967202994256922
  0
LINE
  5
29D21
  8
0
 10
3115.4179215802969338
 20
124.426249778054796
 30
0.0
 11
3115.3506580571879567
 21
124.3583460188289962
 31
0.0
  0
ARC
  5
29D22
  8
0
 10
3115.359018840320914
 20
124.3511718137001054
 30
0.0
 40
0.011016892203687
 50
139.3678282975400862
 51
173.6206571024310108
  0
LINE
  5
29D23
  8
0
 10
3115.4179215802500948
 20
122.6933349151607047
 30
0.0
 11
3115.4179215802969338
 21
124.426249778054796
 31
0.0
  0
ARC
  5
29D24
  8
0
 10
3118.2851623474971348
 20
123.5642831244083055
 30
0.0
 40
1.3777779556999989
 50
219.9117068926125
 51
319.9886981503989887
  0
ARC
  5
29D25
  8
0
 10
3118.2851623474971348
 20
123.5642831244083055
 30
0.0
 40
1.3777779556999989
 50
40.0113018441707027
 51
140.0882931128413986
  0
ARC
  5
29D26
  8
0
 10
3118.2851623474971348
 20
123.5642831244083055
 30
0.0
 40
1.3564464943000001
 50
220.6833102597362029
 51
319.228078618164318
  0
ARC
  5
29D27
  8
0
 10
3118.2851623474971348
 20
123.5642831244083055
 30
0.0
 40
1.3564464943000001
 50
40.7719213762545465
 51
139.316689745886606
  0
ARC
  5
29D28
  8
0
 10
3118.2851623474971348
 20
123.5642831244083055
 30
0.0
 40
1.246285357399999
 50
225.2805161352891048
 51
314.7021048268489949
  0
ARC
  5
29D29
  8
0
 10
3118.2851623474971348
 20
123.5642831244083055
 30
0.0
 40
1.246285357399999
 50
45.2978951666197389
 51
134.7194838713078013
  0
LINE
  5
29D2A
  8
0
 10
3117.4583906939969893
 20
124.4501098960082999
 30
0.0
 11
3120.8540599852981359
 21
124.4501098960082999
 31
0.0
  0
LINE
  5
29D2B
  8
0
 10
3121.6206751809381785
 20
124.4501098960082999
 30
0.0
 11
3125.0174458120977761
 21
124.4501098960082999
 31
0.0
  0
LINE
  5
29D2C
  8
0
 10
3117.4583906939969893
 20
122.6784563527082952
 30
0.0
 11
3120.733981245196901
 21
122.6784563527082952
 31
0.0
  0
LINE
  5
29D2D
  8
0
 10
3121.7418552608969549
 20
122.6784563527082952
 30
0.0
 11
3125.0174458120977761
 21
122.6784563527082952
 31
0.0
  0
LINE
  5
29D2E
  8
0
 10
3117.0804379380101636
 20
124.3906768427076059
 30
0.0
 11
3117.1120346640482239
 21
124.3909525831084011
 31
0.0
  0
ARC
  5
29D2F
  8
0
 10
3117.1119340006271159
 20
124.4027631782017949
 30
0.0
 40
0.0118110240701149
 50
270.488328441353417
 51
359.9999990612004126
  0
LINE
  5
29D30
  8
0
 10
3117.0804379380938371
 20
122.7378894060084065
 30
0.0
 11
3117.1123515917511213
 21
122.7376067098305015
 31
0.0
  0
ARC
  5
29D31
  8
0
 10
3117.1119308692868799
 20
122.7257811925701958
 30
0.0
 40
0.0118329990224707
 50
3.2339249757696811
 51
87.9624182092602922
  0
ARC
  5
29D32
  8
0
 10
3117.4585797684858335
 20
124.430107403714004
 30
0.0
 40
0.0200033858921017
 50
90.5415748903545676
 51
173.4826315004144988
  0
ARC
  5
29D33
  8
0
 10
3117.4585367337690514
 20
122.698530256514303
 30
0.0
 40
0.020074435026304
 50
188.9305164709753058
 51
269.5831744999035209
  0
ARC
  5
29D34
  8
0
 10
3121.2373675831181572
 20
125.2461708240105054
 30
0.0
 40
0.8835370482546512
 50
244.2889359140546048
 51
295.7110640859453952
  0
ARC
  5
29D35
  8
0
 10
3121.2379182530480648
 20
121.8094774201878039
 30
0.0
 40
1.0045281942510711
 50
59.88975873412776
 51
120.1102412658722045
  0
ARC
  5
29D36
  8
0
 10
3124.1906741584971314
 20
123.5642831244083055
 30
0.0
 40
1.3777779556999989
 50
220.0113018496010113
 51
304.0684142690128056
  0
ARC
  5
29D37
  8
0
 10
3124.1906741584971314
 20
123.5642831244083055
 30
0.0
 40
1.3777779556999989
 50
59.7371408921613494
 51
139.9886981558292973
  0
ARC
  5
29D38
  8
0
 10
3124.1906741584971314
 20
123.5642831244083055
 30
0.0
 40
1.3564464943000001
 50
220.7719213818357105
 51
304.7047903574589895
  0
ARC
  5
29D39
  8
0
 10
3124.1906741584971314
 20
123.5642831244083055
 30
0.0
 40
1.3564464943000001
 50
59.1083563677384234
 51
139.2280786237454038
  0
ARC
  5
29D3A
  8
0
 10
3124.1906741584971314
 20
123.5642831244083055
 30
0.0
 40
1.246285357399999
 50
225.2978951731498967
 51
308.4090556924202247
  0
ARC
  5
29D3B
  8
0
 10
3124.1906741584971314
 20
123.5642831244083055
 30
0.0
 40
1.246285357399999
 50
55.4205056410469297
 51
134.70210483338019
  0
ARC
  5
29D3C
  8
0
 10
3125.0174458120977761
 20
122.6981413921082975
 30
0.0
 40
0.019685039399997
 50
270.0
 51
0.0000002910729653
  0
LINE
  5
29D3D
  8
0
 10
3125.0371308514968405
 20
122.6981413922082993
 30
0.0
 11
3125.0371308426970245
 21
124.4304248565082958
 31
0.0
  0
ARC
  5
29D3E
  8
0
 10
3125.0174458030969618
 20
124.430424856408294
 30
0.0
 40
0.0196850396000059
 50
0.0000002910729653
 51
89.9999738034428844
  0
LINE
  5
29D3F
  8
0
 10
3125.0686269143971003
 20
124.4024535086083034
 30
0.0
 11
3125.0371308514968405
 21
124.4021786466083057
 31
0.0
  0
LINE
  5
29D40
  8
0
 10
3125.0686269143971003
 20
124.4458652290083052
 30
0.0
 11
3125.0686269144971448
 21
122.6827010197083041
 31
0.0
  0
ARC
  5
29D41
  8
0
 10
3125.0804379380979299
 20
122.6827010197090004
 30
0.0
 40
0.0118110236006697
 50
180.0000000032503067
 51
269.9999999967430995
  0
LINE
  5
29D42
  8
0
 10
3125.0804379380970204
 20
122.6708899961083006
 30
0.0
 11
3125.3718795900967962
 21
122.6734329191366015
 31
0.0
  0
ARC
  5
29D43
  8
0
 10
3125.3717765206970398
 20
122.6852434930083007
 30
0.0
 40
0.0118110235999969
 50
270.5000022116329887
 51
0.0000000000179129
  0
LINE
  5
29D44
  8
0
 10
3125.3835875442969154
 20
122.6834638817083061
 30
0.0
 11
3125.3835875442969154
 21
124.6429369718082967
 31
0.0
  0
ARC
  5
29D45
  8
0
 10
3125.3934301048971065
 20
124.6429369718082967
 30
0.0
 40
0.0098425606000792
 50
90.0002375030853727
 51
180.0000000000179057
  0
LINE
  5
29D46
  8
0
 10
3125.3934300640971742
 20
124.652779532408303
 30
0.0
 11
3125.8501588730068761
 21
124.6487940952273021
 31
0.0
  0
ARC
  5
29D47
  8
0
 10
3125.8501245197721801
 20
124.6448572371927952
 30
0.0
 40
0.0039370079254524
 50
0.0000002256323149
 51
89.499998747960916
  0
LINE
  5
29D48
  8
0
 10
3125.8540615276970129
 20
124.6448572372082992
 30
0.0
 11
3125.8545456745719093
 21
124.4467250157374991
 31
0.0
  0
ARC
  5
29D49
  8
0
 10
3125.8610594005072016
 20
124.4465596895476978
 30
0.0
 40
0.0065158236854235
 50
178.5460764358344079
 51
186.5380149708269926
  0
ARC
  5
29D4A
  8
0
 10
3125.8579100966999249
 20
124.4461987548972957
 30
0.0
 40
0.0033459043970716
 50
186.5380149708431929
 51
212.3152961977430095
  0
ARC
  5
29D4B
  8
0
 10
3125.8573272134281069
 20
124.4462936794129035
 30
0.0
 40
0.0029303564225776
 50
219.9993506568409884
 51
244.1471568839552049
  0
ARC
  5
29D4C
  8
0
 10
3125.8605295712468433
 20
124.4525319838643043
 30
0.0
 40
0.0099420497249347
 50
243.2159734000792071
 51
261.165056385898481
  0
ARC
  5
29D4D
  8
0
 10
3125.8659218729389977
 20
124.4872241719476023
 30
0.0
 40
0.0450508069166407
 50
261.165056385898481
 51
268.2661015070272015
  0
LINE
  5
29D4E
  8
0
 10
3125.8645587427981809
 20
124.4421939922893046
 30
0.0
 11
3126.6351854871968499
 21
124.4364071080082965
 31
0.0
  0
ARC
  5
29D4F
  8
0
 10
3126.6358013864628447
 20
124.4616937189742032
 30
0.0
 40
0.0252950079586697
 50
268.6048967393020916
 51
285.9291424532030987
  0
ARC
  5
29D50
  8
0
 10
3126.641928893480781
 20
124.4402243900043032
 30
0.0
 40
0.0029683774769674
 50
285.9291424532290193
 51
359.0740055377610815
  0
LINE
  5
29D51
  8
0
 10
3126.6448968832969513
 20
124.4401764182082957
 30
0.0
 11
3126.6453799954970236
 21
124.6378923704082951
 31
0.0
  0
ARC
  5
29D52
  8
0
 10
3126.6493169916661827
 20
124.6378827902832001
 30
0.0
 40
0.0039370078251745
 50
89.9999995524775329
 51
179.8605790728398972
  0
LINE
  5
29D53
  8
0
 10
3126.6493169916971055
 20
124.6418197981083011
 30
0.0
 11
3127.105910893750206
 21
124.637835313409397
 31
0.0
  0
ARC
  5
29D54
  8
0
 10
3127.106023327361072
 20
124.6279882732577988
 30
0.0
 40
0.0098476820148431
 50
0.0178691491710774
 51
90.6541754091307155
  0
LINE
  5
29D55
  8
0
 10
3127.115871008897102
 20
124.6279913445083025
 30
0.0
 11
3127.1158710089971464
 21
122.7711159350082966
 31
0.0
  0
ARC
  5
29D56
  8
0
 10
3127.1060284892969321
 20
122.7711159350082966
 30
0.0
 40
0.0098425196999976
 50
315.0000000015901946
 51
0.0
  0
LINE
  5
29D57
  8
0
 10
3127.1129882017221462
 20
122.7641562225847025
 30
0.0
 11
3127.042488976525874
 21
122.693656997384906
 31
0.0
  0
ARC
  5
29D58
  8
0
 10
3127.0285695519978617
 20
122.7075764219116962
 30
0.0
 40
0.0196850389467555
 50
270.4999991508755102
 51
315.0000000015901946
  0
LINE
  5
29D59
  8
0
 10
3127.02874133389696
 20
122.6878921325082956
 30
0.0
 11
3125.3934300640971742
 21
122.6736213620083049
 31
0.0
  0
ARC
  5
29D5A
  8
0
 10
3125.3934300640971742
 20
122.6834638817083061
 30
0.0
 40
0.0098425197000029
 50
180.0000000000212026
 51
269.9999999995831104
  0
LINE
  5
29D5B
  8
0
 10
3125.0686269143971003
 20
122.7261127402082934
 30
0.0
 11
3125.0371308514968405
 21
122.7261127402082934
 31
0.0
  0
ARC
  5
29D5C
  8
0
 10
3125.0804379380970204
 20
124.4458652290083052
 30
0.0
 40
0.0118110236000018
 50
90.0
 51
179.9999999999820943
  0
LINE
  5
29D5D
  8
0
 10
3125.0804379380970204
 20
124.4576762526082945
 30
0.0
 11
3125.3727716954608695
 21
124.4550917788482991
 31
0.0
  0
ARC
  5
29D5E
  8
0
 10
3125.3717730316561756
 20
124.4433095634852009
 30
0.0
 40
0.0118244631277365
 50
2.350700732761184
 51
85.1551741047174886
  0
LINE
  5
29D5F
  8
0
 10
3125.8602836219802157
 20
124.4425275800197994
 30
0.0
 11
3125.8616281482982231
 21
124.6351136582082972
 31
0.0
  0
ARC
  5
29D60
  8
0
 10
3125.8734389175510842
 20
124.6350312021437929
 30
0.0
 40
0.0118110570805423
 50
89.5128895752632729
 51
179.5999999968871066
  0
LINE
  5
29D61
  8
0
 10
3125.8735393301772092
 20
124.6468418323837
 30
0.0
 11
3126.6281372129060401
 21
124.6402565567139931
 31
0.0
  0
ARC
  5
29D62
  8
0
 10
3126.6280341473839144
 20
124.6284459827764977
 30
0.0
 40
0.011811023631945
 50
0.3998554425526733
 51
89.5000184059304758
  0
LINE
  5
29D63
  8
0
 10
3126.6398448833970178
 20
124.6285284088082932
 30
0.0
 11
3126.6411821817641794
 21
124.4369776418267008
 31
0.0
  0
ARC
  5
29D64
  8
0
 10
3123.0868000803529867
 20
152.0541298959768142
 30
0.0
 40
0.0261133975330208
 50
73.9931594745391834
 51
176.1688810656532951
  0
ARC
  5
29D65
  8
0
 10
3123.0851900936731909
 20
152.0485177340785015
 30
0.0
 40
0.0319519263102044
 50
18.1065649356723206
 51
73.9931594745391834
  0
ARC
  5
29D66
  8
0
 10
3123.0883033974118916
 20
152.0570229220438137
 30
0.0
 40
0.0272935924429128
 50
237.464665342174186
 51
2.9927812910434581
  0
ARC
  5
29D67
  8
0
 10
3123.0849766931751219
 20
152.0554253938009879
 30
0.0
 40
0.0242358203166128
 50
178.9377743106431922
 51
242.0687975564860039
  0
ARC
  5
29D68
  8
0
 10
3123.0773339099828263
 20
152.0635268485181086
 30
0.0
 40
0.0418631235766218
 50
135.6174065901726067
 51
190.7882814084709082
  0
ARC
  5
29D69
  8
0
 10
3123.0868094109250706
 20
152.0542533900170952
 30
0.0
 40
0.0551214096907729
 50
91.1444848203653351
 51
135.6174065901726067
  0
ARC
  5
29D6A
  8
0
 10
3123.0868129672730902
 20
152.0540753739988133
 30
0.0
 40
0.0552994612293243
 50
36.8086540841386025
 51
91.1444848203653351
  0
ARC
  5
29D6B
  8
0
 10
3123.0798359700079345
 20
152.0556551748142908
 30
0.0
 40
0.0601858191268471
 50
355.5672184774754783
 51
31.61793898467905
  0
ARC
  5
29D6C
  8
0
 10
3123.1128373941469363
 20
152.0736444685769868
 30
0.0
 40
0.0787018557738275
 50
193.1864951392533101
 51
227.6226751292533947
  0
ARC
  5
29D6D
  8
0
 10
3123.2247252297311206
 20
152.1793614150915914
 30
0.0
 40
0.2324904851278182
 50
224.8121574857559892
 51
238.6010369673037985
  0
ARC
  5
29D6E
  8
0
 10
3123.1104020952730025
 20
151.9920624325004894
 30
0.0
 40
0.0130578349775874
 50
238.601036967304708
 51
333.627579535039672
  0
ARC
  5
29D6F
  8
0
 10
3122.9675781769669811
 20
152.0634067340662057
 30
0.0
 40
0.1727095304223382
 50
333.4695883560175957
 51
355.8817070630933017
  0
ARC
  5
29D70
  8
0
 10
3123.1335896993941788
 20
152.1137375626717869
 30
0.0
 40
0.1226860757512485
 50
201.1695725593750979
 51
232.2494939655852875
  0
ARC
  5
29D71
  8
0
 10
3123.0746512808941588
 20
152.0874211626160957
 30
0.0
 40
0.0583124258491405
 50
141.6113068961047077
 51
197.9686145461174078
  0
ARC
  5
29D72
  8
0
 10
3123.0854161024171844
 20
152.0786073490965009
 30
0.0
 40
0.0722237288126872
 50
89.8306584491610352
 51
141.4339795205997063
  0
ARC
  5
29D73
  8
0
 10
3123.0853914125068513
 20
152.0702536786481005
 30
0.0
 40
0.0805774357474033
 50
51.1265902639447134
 51
89.8306584491610352
  0
ARC
  5
29D74
  8
0
 10
3123.099062021357895
 20
152.0872119478310935
 30
0.0
 40
0.0587951392655453
 50
8.6776122690415374
 51
51.1265902639447134
  0
ARC
  5
29D75
  8
0
 10
3123.0345271574919934
 20
152.0773625312091042
 30
0.0
 40
0.1240772935030101
 50
351.3223877309567911
 51
8.6776122690415374
  0
ARC
  5
29D76
  8
0
 10
3122.9374107352568899
 20
152.0994193439329081
 30
0.0
 40
0.2235242744027206
 50
334.8806332769560754
 51
349.4888272674007226
  0
ARC
  5
29D77
  8
0
 10
3123.1127494905158528
 20
152.0172015244361887
 30
0.0
 40
0.0298662040448998
 50
291.3456140958141987
 51
334.8994996113709135
  0
ARC
  5
29D78
  8
0
 10
3122.9410376102950977
 20
151.973438073049806
 30
0.0
 40
0.022885574152775
 50
150.7759033297425049
 51
232.0731215049808043
  0
ARC
  5
29D79
  8
0
 10
3122.9463393280539094
 20
151.9802418422437995
 30
0.0
 40
0.0315110878446429
 50
232.0731215049808043
 51
279.9602385711636998
  0
ARC
  5
29D7A
  8
0
 10
3122.9471547532748446
 20
151.9755984953733901
 30
0.0
 40
0.0267966856080487
 50
279.960238571163984
 51
332.7608745417255136
  0
ARC
  5
29D7B
  8
0
 10
3122.9515344227997957
 20
151.973343868985296
 30
0.0
 40
0.0218707496260079
 50
332.7608745417239788
 51
40.8935979379381394
  0
ARC
  5
29D7C
  8
0
 10
3122.9456853562801371
 20
151.9688889103013878
 30
0.0
 40
0.0292123274842114
 50
39.9883812923229982
 51
147.4377935284373962
  0
ARC
  5
29D7D
  8
0
 10
3122.937611310093871
 20
151.9787289748738033
 30
0.0
 40
0.0466877671956167
 50
124.0216372553008028
 51
182.8239973564340914
  0
ARC
  5
29D7E
  8
0
 10
3122.9422265990720007
 20
151.9699399362700092
 30
0.0
 40
0.0565651818511531
 50
68.5779411509670922
 51
122.9152147448369021
  0
ARC
  5
29D7F
  8
0
 10
3122.9218370846651851
 20
151.9434224844985124
 30
0.0
 40
0.0891834362123599
 50
17.3856428390043796
 51
62.5949977906863282
  0
ARC
  5
29D80
  8
0
 10
3122.0088302067811128
 20
151.6575547017436918
 30
0.0
 40
1.0458975775732471
 50
15.2658886481896392
 51
17.3856428390043796
  0
ARC
  5
29D81
  8
0
 10
3123.0056510900490139
 20
151.9310567631004858
 30
0.0
 40
0.0123160729533819
 50
268.5252602049391726
 51
8.7871836653097812
  0
ARC
  5
29D82
  8
0
 10
3123.01750725462216
 20
152.2267021412592101
 30
0.0
 40
0.308197871397925
 50
258.400515714689277
 51
267.7363546874595954
  0
ARC
  5
29D83
  8
0
 10
3122.9815351378970263
 20
152.0514516447242954
 30
0.0
 40
0.1292936240546092
 50
235.8731695160234949
 51
258.400515714689277
  0
ARC
  5
29D84
  8
0
 10
3122.9372866546841578
 20
151.9814222592852104
 30
0.0
 40
0.0465748753072972
 50
186.1547683796700028
 51
232.5996319308547129
  0
ARC
  5
29D85
  8
0
 10
3122.9375074218278314
 20
152.0093447232050039
 30
0.0
 40
0.0670079741101326
 50
206.5014199237780019
 51
235.4966780145157941
  0
ARC
  5
29D86
  8
0
 10
3122.9282717682071961
 20
152.0047397103907088
 30
0.0
 40
0.0566879236831699
 50
161.9911213671211101
 51
206.5014199237793946
  0
ARC
  5
29D87
  8
0
 10
3122.9334552265918319
 20
152.0030546145866879
 30
0.0
 40
0.0621384088624931
 50
126.263763708859301
 51
161.9911213671196037
  0
ARC
  5
29D88
  8
0
 10
3122.9415690822029319
 20
151.9919942845434946
 30
0.0
 40
0.0758557538511336
 50
82.9768239038184703
 51
126.2637637088583062
  0
ARC
  5
29D89
  8
0
 10
3122.94127179119414
 20
151.9895811137411101
 30
0.0
 40
0.0782871681031681
 50
50.7647031920005389
 51
82.9768239038184703
  0
ARC
  5
29D8A
  8
0
 10
3122.9317047007421024
 20
151.9778654450491899
 30
0.0
 40
0.0934128453644631
 50
30.1073564111485403
 51
50.7647031920005389
  0
ARC
  5
29D8B
  8
0
 10
3122.838425226480922
 20
151.9237772229840004
 30
0.0
 40
0.2012395400402896
 50
10.4027272648864901
 51
30.1073564111485403
  0
ARC
  5
29D8C
  8
0
 10
3123.0092647563687933
 20
151.9551405500469059
 30
0.0
 40
0.0275449711642999
 50
288.018371808243387
 51
10.4027272648864901
  0
ARC
  5
29D8D
  8
0
 10
3123.2354376341418174
 20
151.9915048600232979
 30
0.0
 40
0.0126869859949352
 50
204.4558752807029975
 51
303.1310127734275284
  0
ARC
  5
29D8E
  8
0
 10
3123.074947288615931
 20
152.2374055086974067
 30
0.0
 40
0.3063266972493341
 50
303.1310127734275284
 51
314.1457057353794085
  0
ARC
  5
29D8F
  8
0
 10
3123.2330215143001624
 20
152.0745457227652082
 30
0.0
 40
0.0793668534453889
 50
314.1457057353782716
 51
345.0378376745604783
  0
ARC
  5
29D90
  8
0
 10
3123.4193723403491276
 20
152.0759983191578897
 30
0.0
 40
0.2150980274046524
 50
188.53413596175929
 51
204.6596958087289977
  0
ARC
  5
29D91
  8
0
 10
3123.2743002640841041
 20
152.0542287819517924
 30
0.0
 40
0.0684016741375282
 50
157.4467376372460876
 51
188.53413596176091
  0
ARC
  5
29D92
  8
0
 10
3123.2489137408019815
 20
152.0647718832759949
 30
0.0
 40
0.0409129027954198
 50
123.1576494746290962
 51
157.4467376372460876
  0
ARC
  5
29D93
  8
0
 10
3123.2590254183128309
 20
152.0531915300659023
 30
0.0
 40
0.0561785863509874
 50
81.1391440613988522
 51
125.3319264536873021
  0
ARC
  5
29D94
  8
0
 10
3123.2618873530618657
 20
152.0592986205386978
 30
0.0
 40
0.0497393526068961
 50
36.4254080208496802
 51
83.3134210404300148
  0
ARC
  5
29D95
  8
0
 10
3123.2663819167460133
 20
152.0626153761913883
 30
0.0
 40
0.0441534801803206
 50
348.8204341749978994
 51
36.4254080208496802
  0
ARC
  5
29D96
  8
0
 10
3123.4089590716462226
 20
152.1035674027206994
 30
0.0
 40
0.2162170531482733
 50
192.7358497301910063
 51
206.7063196305605004
  0
ARC
  5
29D97
  8
0
 10
3123.276302088670036
 20
152.0791601785109037
 30
0.0
 40
0.0816244965045889
 50
150.6274342750789117
 51
196.556109527554014
  0
ARC
  5
29D98
  8
0
 10
3123.2575571636448331
 20
152.0816927541937957
 30
0.0
 40
0.064427058347285
 50
103.8073486649127943
 51
144.4014535968105122
  0
ARC
  5
29D99
  8
0
 10
3123.2586921181941761
 20
152.0758857924429037
 30
0.0
 40
0.0703376584761375
 50
54.5518943326549035
 51
103.5762353587034994
  0
ARC
  5
29D9A
  8
0
 10
3123.2689376097309832
 20
152.0902769951507878
 30
0.0
 40
0.0526719625594678
 50
16.9506496169134593
 51
54.5518943326558414
  0
ARC
  5
29D9B
  8
0
 10
3123.2696987842109593
 20
152.0905089928307063
 30
0.0
 40
0.0518762179308312
 50
342.6007865572295827
 51
16.9506496169134593
  0
ARC
  5
29D9C
  8
0
 10
3123.2496384540590952
 20
152.0967952168030877
 30
0.0
 40
0.0728984313647674
 50
325.941485848296395
 51
342.6007865572279911
  0
ARC
  5
29D9D
  8
0
 10
3123.2570015147048252
 20
152.0528162248322985
 30
0.0
 40
0.0271667282565102
 50
77.2708041347483032
 51
165.8893635807174007
  0
ARC
  5
29D9E
  8
0
 10
3123.2599407377852003
 20
152.0542290564802101
 30
0.0
 40
0.025270545821191
 50
355.6922507291939155
 51
83.0751986001375116
  0
ARC
  5
29D9F
  8
0
 10
3123.2573567517729316
 20
152.0584316886811962
 30
0.0
 40
0.0284450816637951
 50
223.8806178057172929
 51
347.6151995413699183
  0
ARC
  5
29DA0
  8
0
 10
3123.2532595374741504
 20
152.054911770139995
 30
0.0
 40
0.0230539986966163
 50
168.6740804882772125
 51
224.6334581853066084
  0
ARC
  5
29DA1
  8
0
 10
3123.3995236801411011
 20
151.9719828597962135
 30
0.0
 40
0.026697508005223
 50
66.105420984111916
 51
182.847990048095312
  0
ARC
  5
29DA2
  8
0
 10
3123.4042056094867803
 20
151.9736309305210966
 30
0.0
 40
0.0235727923169032
 50
307.6644398413238832
 51
74.9221194374150485
  0
ARC
  5
29DA3
  8
0
 10
3123.400440243769026
 20
151.9765392814520055
 30
0.0
 40
0.0282015191532317
 50
192.040500222121608
 51
310.1104182003314804
  0
ARC
  5
29DA4
  8
0
 10
3123.3396181718048865
 20
151.9303711381930952
 30
0.0
 40
0.0117459112072904
 50
166.6988632616092048
 51
277.3201756261017863
  0
ARC
  5
29DA5
  8
0
 10
3123.5436945279338943
 20
151.8895557417424982
 30
0.0
 40
0.2198570867313004
 50
156.4261531531745106
 51
168.5836763695185994
  0
ARC
  5
29DA6
  8
0
 10
3123.4428944450291965
 20
151.9319780174768937
 30
0.0
 40
0.1105125325602746
 50
130.5262541527422115
 51
155.684167288866405
  0
ARC
  5
29DA7
  8
0
 10
3123.4037283066249984
 20
151.970632249916406
 30
0.0
 40
0.0558752000358682
 50
50.3628631587485174
 51
125.7492950409598933
  0
ARC
  5
29DA8
  8
0
 10
3123.4116333095621485
 20
151.9801751565049983
 30
0.0
 40
0.0434834230208181
 50
345.0781917832385943
 51
50.3628631587485174
  0
ARC
  5
29DA9
  8
0
 10
3123.4094481344941414
 20
151.9807574773427064
 30
0.0
 40
0.0457448578835899
 50
303.3294089847453847
 51
345.0781917832385943
  0
ARC
  5
29DAA
  8
0
 10
3123.3432482513730974
 20
152.1056707370227059
 30
0.0
 40
0.1869619499829526
 50
269.3461638524041746
 51
299.243289858482683
  0
LINE
  5
29DAB
  8
0
 10
3123.3279103999020663
 20
151.9313169220874897
 30
0.0
 11
3123.3225758913981736
 21
151.9830066091178082
 31
0.0
  0
ARC
  5
29DAC
  8
0
 10
3123.3371299096129405
 20
151.9587313897727938
 30
0.0
 40
0.0202559125379499
 50
210.3179299519374013
 51
239.6156188954352899
  0
ARC
  5
29DAD
  8
0
 10
3123.3366708885678236
 20
151.9584629668011075
 30
0.0
 40
0.0197241689795794
 50
169.8223232426790901
 51
210.3179299519374013
  0
ARC
  5
29DAE
  8
0
 10
3123.5052226665748094
 20
151.928203506606792
 30
0.0
 40
0.1909705902574277
 50
150.9401161579966129
 51
169.8223232426790901
  0
ARC
  5
29DAF
  8
0
 10
3123.4195739303841037
 20
151.9757964667265924
 30
0.0
 40
0.0929869392536135
 50
124.1223355965916966
 51
150.9401161579966129
  0
ARC
  5
29DB0
  8
0
 10
3123.4040529814151341
 20
151.9941979441763067
 30
0.0
 40
0.0690929731059394
 50
95.2818799245723085
 51
122.0268653737011988
  0
ARC
  5
29DB1
  8
0
 10
3123.4041935772579563
 20
151.9955490480365938
 30
0.0
 40
0.0677610646104239
 50
50.7293600874260591
 51
95.5054249173241345
  0
ARC
  5
29DB2
  8
0
 10
3123.4142073515040465
 20
152.0077387988831106
 30
0.0
 40
0.0519856415016547
 50
359.8955644598526078
 51
50.7694671351988802
  0
ARC
  5
29DB3
  8
0
 10
3123.4094503862847887
 20
152.010005734420389
 30
0.0
 40
0.0567916473282422
 50
323.1792073220378256
 51
357.6166562919963212
  0
ARC
  5
29DB4
  8
0
 10
3123.5360634189660232
 20
151.6865129657211071
 30
0.0
 40
0.2142695024293632
 50
117.1326588630412004
 51
135.4497166817932055
  0
ARC
  5
29DB5
  8
0
 10
3123.4773146438201366
 20
151.8011569512123913
 30
0.0
 40
0.0854492323224627
 50
86.4596329402048838
 51
117.1326588630412004
  0
ARC
  5
29DB6
  8
0
 10
3123.4797671301189439
 20
151.8407964090893074
 30
0.0
 40
0.0457339794612597
 50
316.9590555025159233
 51
86.4596329402048838
  0
ARC
  5
29DB7
  8
0
 10
3123.4775267913860262
 20
151.8428885539246096
 30
0.0
 40
0.0487992996160675
 50
275.4374820712826022
 51
316.9590555025159233
  0
ARC
  5
29DB8
  8
0
 10
3123.4706353772608054
 20
151.9152865572378062
 30
0.0
 40
0.1215245529493839
 50
252.7150599262417927
 51
275.4374820712826022
  0
ARC
  5
29DB9
  8
0
 10
3123.5237725617071192
 20
152.0860484876567114
 30
0.0
 40
0.3003630198723227
 50
242.8245786989762962
 51
252.7150599262417927
  0
ARC
  5
29DBA
  8
0
 10
3123.3918408325748715
 20
151.8290660066780049
 30
0.0
 40
0.0114928471615883
 50
137.4996711055451044
 51
242.8245786989739941
  0
LINE
  5
29DBB
  8
0
 10
3123.3805282799821725
 20
151.8270382764874
 30
0.0
 11
3123.3749718608969488
 21
151.8706928667176896
 31
0.0
  0
ARC
  5
29DBC
  8
0
 10
3123.3901389914540232
 20
151.8583113559450055
 30
0.0
 40
0.0216519484908548
 50
201.8481984321446134
 51
238.7409489452529954
  0
ARC
  5
29DBD
  8
0
 10
3123.3868829950188228
 20
151.8570058720210056
 30
0.0
 40
0.0181439859695604
 50
131.0317595999233049
 51
201.848198432141487
  0
ARC
  5
29DBE
  8
0
 10
3123.5520947048948983
 20
151.6883155242734063
 30
0.0
 40
0.2542320463186071
 50
119.3670067774511949
 51
134.1626386933222932
  0
ARC
  5
29DBF
  8
0
 10
3123.4801569737091995
 20
151.8158473227238119
 30
0.0
 40
0.1078102495392466
 50
92.0516403872933466
 51
119.2864271823591054
  0
ARC
  5
29DC0
  8
0
 10
3123.4779702688269936
 20
151.8622394950442072
 30
0.0
 40
0.0613717725255783
 50
20.5764444171532297
 51
91.5620130683216047
  0
ARC
  5
29DC1
  8
0
 10
3123.497114579764002
 20
151.8673105498637881
 30
0.0
 40
0.0417135924340553
 50
312.5167713350164718
 51
23.2982757866605787
  0
ARC
  5
29DC2
  8
0
 10
3123.4664720978798869
 20
151.8355812813038028
 30
0.0
 40
0.0233403597813256
 50
121.6996007640583031
 51
186.1601269531819014
  0
ARC
  5
29DC3
  8
0
 10
3123.4720735959608646
 20
151.8267507020420908
 30
0.0
 40
0.0337971759353042
 50
56.6430923861176581
 51
121.9126484810722957
  0
ARC
  5
29DC4
  8
0
 10
3123.4724337890947936
 20
151.8369593216010003
 30
0.0
 40
0.0256288770137708
 50
327.5748264105392877
 51
44.6800280973966721
  0
ARC
  5
29DC5
  8
0
 10
3123.4710795876499105
 20
151.8405790652103065
 30
0.0
 40
0.0288071707691292
 50
195.0958414301593962
 51
322.9369646151670281
  0
ARC
  5
29DC6
  8
0
 10
3122.8697461219871911
 20
151.8361498013763082
 30
0.0
 40
0.0219803475969674
 50
121.1429593053560012
 51
204.8255666908638091
  0
ARC
  5
29DC7
  8
0
 10
3122.8755893593061046
 20
151.8264797564864068
 30
0.0
 40
0.0332787187425207
 50
58.8570406946431319
 51
121.1429593053560012
  0
ARC
  5
29DC8
  8
0
 10
3122.8816225392711203
 20
151.8364641397820947
 30
0.0
 40
0.0216130781566366
 50
331.758300738052526
 51
58.8570406946431319
  0
ARC
  5
29DC9
  8
0
 10
3122.8754077421190232
 20
151.8398023105206107
 30
0.0
 40
0.0286676573447911
 50
206.7004279976578118
 51
331.7583007380538902
  0
ARC
  5
29DCA
  8
0
 10
3122.8616677180998522
 20
151.8412844466103024
 30
0.0
 40
0.0422942911274079
 50
133.2097526601060906
 51
190.983242683870202
  0
ARC
  5
29DCB
  8
0
 10
3122.870269385940901
 20
151.8321277246176066
 30
0.0
 40
0.05485750119897
 50
94.1962867829981718
 51
133.2097526601060906
  0
ARC
  5
29DCC
  8
0
 10
3122.8711962736138048
 20
151.8194947072697119
 30
0.0
 40
0.0675244758997102
 50
65.7853178435058652
 51
94.1962867829981718
  0
ARC
  5
29DCD
  8
0
 10
3122.8096523524959593
 20
151.6826470717304005
 30
0.0
 40
0.2175742329115647
 50
45.3134062942684892
 51
65.7853178435058652
  0
ARC
  5
29DCE
  8
0
 10
3122.9547352047038657
 20
151.8293258678237123
 30
0.0
 40
0.0112645064610742
 50
291.5842692273062084
 51
45.3134062942684892
  0
ARC
  5
29DCF
  8
0
 10
3122.835456398738188
 20
152.0505368942550035
 30
0.0
 40
0.2625097915030025
 50
290.2437717448153194
 51
298.0449471234645102
  0
ARC
  5
29DD0
  8
0
 10
3122.876203665848152
 20
151.9230336345970045
 30
0.0
 40
0.1289178930804774
 50
262.3769119712166003
 51
292.8614264618340144
  0
ARC
  5
29DD1
  8
0
 10
3122.8689183807960035
 20
151.8442920418737003
 30
0.0
 40
0.0500098404190292
 50
192.7835269216712959
 51
258.6799202042607249
  0
ARC
  5
29DD2
  8
0
 10
3122.8626048446649293
 20
151.8705919723877003
 30
0.0
 40
0.0545040069567964
 50
190.50411728368789
 51
217.8671391643190134
  0
ARC
  5
29DD3
  8
0
 10
3122.8538092559761026
 20
151.8694578844313128
 30
0.0
 40
0.0456516778780411
 50
151.9395428075156076
 51
191.1171116664845044
  0
ARC
  5
29DD4
  8
0
 10
3122.866621749962178
 20
151.8632912252325866
 30
0.0
 40
0.0598617611258853
 50
100.4787255461410069
 51
152.4997207942909085
  0
ARC
  5
29DD5
  8
0
 10
3122.8704019244410119
 20
151.8428528789951031
 30
0.0
 40
0.0806467488818698
 50
75.2579640332898947
 51
100.4787255461666007
  0
ARC
  5
29DD6
  8
0
 10
3122.8576693211280144
 20
151.7944637469275051
 30
0.0
 40
0.130683008628212
 50
55.6012474745552581
 51
75.2579640332898947
  0
ARC
  5
29DD7
  8
0
 10
3122.7379755839201607
 20
151.6196472877352051
 30
0.0
 40
0.3425494409180588
 50
47.1439024580481316
 51
55.6012474745552581
  0
ARC
  5
29DD8
  8
0
 10
3122.9579899173140802
 20
151.8567750223554924
 30
0.0
 40
0.0190747596444071
 50
299.4108895681379181
 51
47.143902458049233
  0
LINE
  5
29DD9
  8
0
 10
3122.9659547093519905
 20
151.8283199745546028
 30
0.0
 11
3122.9709811099969556
 21
151.8707562403178031
 31
0.0
  0
ARC
  5
29DDA
  8
0
 10
3122.8973511639710523
 20
151.6861475919465931
 30
0.0
 40
0.02516606928337
 50
94.9021125868010529
 51
141.1283447760210947
  0
ARC
  5
29DDB
  8
0
 10
3122.8979151956409623
 20
151.6795712963856033
 30
0.0
 40
0.0317665082862214
 50
39.8005292527013594
 51
94.9021125868010529
  0
ARC
  5
29DDC
  8
0
 10
3122.9060815230918706
 20
151.6863753517054931
 30
0.0
 40
0.0211371116513765
 50
319.9664255886149249
 51
39.8005292527026029
  0
ARC
  5
29DDD
  8
0
 10
3122.8943237297989981
 20
151.6867903420225048
 30
0.0
 40
0.0224493407308887
 50
137.5540966868566954
 51
206.8639597496029978
  0
ARC
  5
29DDE
  8
0
 10
3122.8992490952568915
 20
151.6901640422807134
 30
0.0
 40
0.0283790778332787
 50
208.4499161698174987
 51
278.5753817865958126
  0
ARC
  5
29DDF
  8
0
 10
3122.8989932562431022
 20
151.6918606289515026
 30
0.0
 40
0.0300948458633792
 50
278.5753817865958126
 51
320.6509330118885259
  0
ARC
  5
29DE0
  8
0
 10
3122.8872404330941208
 20
151.6894175962480062
 30
0.0
 40
0.0434359114008133
 50
116.6301727272001045
 51
183.2846108774400875
  0
ARC
  5
29DE1
  8
0
 10
3122.914292421664868
 20
151.6285832555410025
 30
0.0
 40
0.1099856413419328
 50
83.3805374215819768
 51
115.0226041807745929
  0
ARC
  5
29DE2
  8
0
 10
3122.8610163149478467
 20
151.1694977494165926
 30
0.0
 40
0.5721521107879874
 50
78.584324648946648
 51
83.3805312076513729
  0
ARC
  5
29DE3
  8
0
 10
3122.9719607242491293
 20
151.7189448435707106
 30
0.0
 40
0.0116159645589161
 50
332.2959274084489039
 51
78.5843246489463212
  0
ARC
  5
29DE4
  8
0
 10
3122.8231922483792005
 20
151.7970635292633119
 30
0.0
 40
0.1796474748985882
 50
311.5670203261421989
 51
332.2959274084489039
  0
ARC
  5
29DE5
  8
0
 10
3122.8826560664401768
 20
151.7300101195189939
 30
0.0
 40
0.090025460768836
 50
288.5894740952575717
 51
311.5670203261421989
  0
ARC
  5
29DE6
  8
0
 10
3122.8959376259681449
 20
151.6984540612565979
 30
0.0
 40
0.05593901056324
 50
230.7815977225529025
 51
285.9982343468827821
  0
ARC
  5
29DE7
  8
0
 10
3122.8895325766038695
 20
151.6905995420781892
 30
0.0
 40
0.0458040162619004
 50
184.5965009281653124
 51
230.7766145072540098
  0
LINE
  5
29DE8
  8
0
 10
3122.9835556934431224
 20
151.7182467590332919
 30
0.0
 11
3122.9886817151868854
 21
151.7604790369294108
 31
0.0
  0
ARC
  5
29DE9
  8
0
 10
3122.8546873910759132
 20
151.8144068105370081
 30
0.0
 40
0.1576908240689511
 50
325.2994709713404973
 51
330.7927301040343195
  0
ARC
  5
29DEA
  8
0
 10
3122.9754860580728746
 20
151.7468746012127951
 30
0.0
 40
0.0192967590061139
 50
330.7927301040356838
 51
19.5678276013678882
  0
ARC
  5
29DEB
  8
0
 10
3122.978173550853171
 20
151.7478298742765048
 30
0.0
 40
0.0164445381048584
 50
19.5678276013648187
 51
50.2822343539229095
  0
ARC
  5
29DEC
  8
0
 10
3122.9687220180180702
 20
151.7364526277511061
 30
0.0
 40
0.0312355222318159
 50
50.2822343539229095
 51
74.187094867100484
  0
ARC
  5
29DED
  8
0
 10
3122.9217952090871222
 20
151.5707592575519982
 30
0.0
 40
0.2034459119426345
 50
74.187094867100484
 51
104.0146744516056003
  0
ARC
  5
29DEE
  8
0
 10
3122.8894228339640904
 20
151.7130222351115094
 30
0.0
 40
0.0576583023016636
 50
107.0400581747605031
 51
162.5888768349904865
  0
ARC
  5
29DEF
  8
0
 10
3122.8833197155340713
 20
151.7177292472379122
 30
0.0
 40
0.0504967342002408
 50
165.6142605581337079
 51
218.7702905211060909
  0
ARC
  5
29DF0
  8
0
 10
3123.0317104362111422
 20
151.5508408310647042
 30
0.0
 40
0.0818909981813383
 50
115.0623875333428998
 51
145.0113284229414887
  0
ARC
  5
29DF1
  8
0
 10
3123.1231922535798731
 20
151.3862667531257102
 30
0.0
 40
0.2700426567039011
 50
105.9577881554037049
 51
117.8544503846126048
  0
ARC
  5
29DF2
  8
0
 10
3123.0530682611411066
 20
151.6337701097731099
 30
0.0
 40
0.012813049282757
 50
11.6293988316300005
 51
108.7498510066536994
  0
ARC
  5
29DF3
  8
0
 10
3122.8295694835078393
 20
151.6094743283942989
 30
0.0
 40
0.2375741934279311
 50
358.9621895830157996
 51
6.4962329177583582
  0
ARC
  5
29DF4
  8
0
 10
3122.9632658740451916
 20
151.60297827820159
 30
0.0
 40
0.1038619871419827
 50
328.0849095698461042
 51
1.209895082593794
  0
ARC
  5
29DF5
  8
0
 10
3123.0068485611191136
 20
151.5861184567123985
 30
0.0
 40
0.0586081793723853
 50
257.8108254674418163
 51
319.5191687230328057
  0
ARC
  5
29DF6
  8
0
 10
3123.0095735764971323
 20
151.582637758107694
 30
0.0
 40
0.0558847418550073
 50
205.975174329117209
 51
254.3243681840619956
  0
ARC
  5
29DF7
  8
0
 10
3122.9961731775038061
 20
151.5734194935886023
 30
0.0
 40
0.0398739471043181
 50
142.3094004420707961
 51
202.4986452718783028
  0
ARC
  5
29DF8
  8
0
 10
3123.0074441134051995
 20
151.5714088917343929
 30
0.0
 40
0.0248583853529901
 50
104.1334589615738935
 51
168.1488979842665969
  0
ARC
  5
29DF9
  8
0
 10
3123.0094102344100975
 20
151.5636007370854941
 30
0.0
 40
0.0329102740024715
 50
49.701419188565751
 51
104.1334589615738935
  0
ARC
  5
29DFA
  8
0
 10
3123.0170757350920212
 20
151.572640039119392
 30
0.0
 40
0.0210583171183026
 50
329.8151376601433071
 51
49.7014191885668097
  0
ARC
  5
29DFB
  8
0
 10
3123.0104774853130039
 20
151.5764779787670022
 30
0.0
 40
0.0286915786025523
 50
238.3313791072220909
 51
329.8151376601433071
  0
ARC
  5
29DFC
  8
0
 10
3123.0091147510602241
 20
151.574268818672607
 30
0.0
 40
0.0260959220441828
 50
175.0643399264415052
 51
238.3313791072220909
  0
ARC
  5
29DFD
  8
0
 10
3122.9975478192109222
 20
151.6023452526752067
 30
0.0
 40
0.0522821646153364
 50
184.074633839108003
 51
218.1670718154616964
  0
ARC
  5
29DFE
  8
0
 10
3122.9917827033209505
 20
151.6019345694124922
 30
0.0
 40
0.046502439538478
 50
148.9681828673977861
 51
184.074633839108003
  0
ARC
  5
29DFF
  8
0
 10
3123.0185810928128376
 20
151.5858122115130016
 30
0.0
 40
0.0777767757199303
 50
121.8939107384323961
 51
148.9681828673977861
  0
ARC
  5
29E00
  8
0
 10
3123.1184462938840625
 20
151.425334042755992
 30
0.0
 40
0.266790799095227
 50
105.9698951166614052
 51
121.8939107384323961
  0
ARC
  5
29E01
  8
0
 10
3123.0520982959569665
 20
151.6571766963982952
 30
0.0
 40
0.0256413166640835
 50
16.8594587048740507
 51
105.9698951166614052
  0
ARC
  5
29E02
  8
0
 10
3122.9746007251951596
 20
151.6336910187303886
 30
0.0
 40
0.1066194033882857
 50
326.0531597660141756
 51
16.8594587048665012
  0
ARC
  5
29E03
  8
0
 10
3123.1729156701721877
 20
151.6016235580542002
 30
0.0
 40
0.0135425942806795
 50
42.9631318043446981
 51
137.0172250720289071
  0
ARC
  5
29E04
  8
0
 10
3123.0242553475800378
 20
151.4631742992521879
 30
0.0
 40
0.2166880810034383
 50
31.2083548798712407
 51
42.9631318043446981
  0
ARC
  5
29E05
  8
0
 10
3123.1036342751240227
 20
151.5112637084739902
 30
0.0
 40
0.123878569544457
 50
16.5022925492792893
 51
31.2083548798712407
  0
ARC
  5
29E06
  8
0
 10
3123.162504646331854
 20
151.5311876418863051
 30
0.0
 40
0.0618195628386258
 50
349.9920742247663838
 51
14.2950865183023996
  0
ARC
  5
29E07
  8
0
 10
3123.1764641292920714
 20
151.5332022498137974
 30
0.0
 40
0.0486229906977638
 50
286.2624650096828987
 51
344.7884458221196269
  0
ARC
  5
29E08
  8
0
 10
3123.1730999560340933
 20
151.5396843672664886
 30
0.0
 40
0.0558057729078861
 50
223.4379236035514111
 51
287.7147137353031781
  0
ARC
  5
29E09
  8
0
 10
3123.1638619472992104
 20
151.5309368268522974
 30
0.0
 40
0.0430833411952327
 50
162.6661884374173894
 51
223.4379236035514111
  0
ARC
  5
29E0A
  8
0
 10
3123.2836442861921569
 20
151.492802920678713
 30
0.0
 40
0.1687888433337793
 50
135.6197989704353972
 51
162.4237100338619086
  0
ARC
  5
29E0B
  8
0
 10
3123.1616685949120438
 20
151.5588661449492065
 30
0.0
 40
0.0515974572884981
 50
181.1678779590124861
 51
217.8789671216750037
  0
ARC
  5
29E0C
  8
0
 10
3123.1765612860131114
 20
151.5591697494209882
 30
0.0
 40
0.0664932427286491
 50
156.7561780227433985
 51
181.1678779590124861
  0
ARC
  5
29E0D
  8
0
 10
3123.2949599273438253
 20
151.5083168010527004
 30
0.0
 40
0.1953507633744313
 50
136.1840422195427891
 51
156.7561780227449049
  0
ARC
  5
29E0E
  8
0
 10
3123.1729060002571714
 20
151.6254275816735912
 30
0.0
 40
0.0261996591656622
 50
43.8159577804560172
 51
136.1840422195463134
  0
ARC
  5
29E0F
  8
0
 10
3123.0532824080041792
 20
151.5106487080740862
 30
0.0
 40
0.1919826306927761
 50
31.497055193935541
 51
43.8159577804560172
  0
ARC
  5
29E10
  8
0
 10
3123.0844286021310836
 20
151.5297329185019066
 30
0.0
 40
0.1554546620077107
 50
14.7793203141506595
 51
31.497055193935541
  0
ARC
  5
29E11
  8
0
 10
3123.1901181386501776
 20
151.5576164931729011
 30
0.0
 40
0.0461487981846822
 50
317.4978755772849013
 51
14.7793203141490892
  0
ARC
  5
29E12
  8
0
 10
3123.1709225960548793
 20
151.5275803137132016
 30
0.0
 40
0.0261970934363059
 50
108.4880631885399964
 51
153.3111570746829955
  0
ARC
  5
29E13
  8
0
 10
3123.1728446957131382
 20
151.5218317835883113
 30
0.0
 40
0.0322584518393888
 50
67.6757846677004977
 51
108.4880631885393996
  0
ARC
  5
29E14
  8
0
 10
3123.1753996606930741
 20
151.5280539401838951
 30
0.0
 40
0.0255321542880072
 50
32.0320805685839076
 51
67.6757846677245851
  0
ARC
  5
29E15
  8
0
 10
3123.178282536856841
 20
151.5298576063512996
 30
0.0
 40
0.0221315386645323
 50
342.9545266949597249
 51
32.0320805685839076
  0
ARC
  5
29E16
  8
0
 10
3123.1775908105951203
 20
151.5300696887483127
 30
0.0
 40
0.0228550468977351
 50
305.4026313375018731
 51
342.9545266949629081
  0
ARC
  5
29E17
  8
0
 10
3123.1726880868582157
 20
151.5369678202953878
 30
0.0
 40
0.0313179612235669
 50
257.5299699765171795
 51
305.4026313375028963
  0
ARC
  5
29E18
  8
0
 10
3123.1719748452342174
 20
151.5337426124810065
 30
0.0
 40
0.0280148295186657
 50
218.5707907889108981
 51
257.5299699765427022
  0
ARC
  5
29E19
  8
0
 10
3123.1670760855749904
 20
151.5298360712230021
 30
0.0
 40
0.0217491363570298
 50
154.0693193937061096
 51
218.5707907889095907
  0
ARC
  5
29E1A
  8
0
 10
3123.448564082133089
 20
151.6861475919465931
 30
0.0
 40
0.02516606928337
 50
38.8716552239788626
 51
85.0978874131989613
  0
ARC
  5
29E1B
  8
0
 10
3123.4480000504631789
 20
151.6795712963856033
 30
0.0
 40
0.0317665082862214
 50
85.0978874131989613
 51
140.1994707472985908
  0
ARC
  5
29E1C
  8
0
 10
3123.4398337230131801
 20
151.6863753517054931
 30
0.0
 40
0.0211371116513765
 50
140.1994707472973971
 51
220.0335744113837961
  0
ARC
  5
29E1D
  8
0
 10
3123.4515915163051432
 20
151.6867903420225048
 30
0.0
 40
0.0224493407308887
 50
333.1360402503970022
 51
42.445903313143269
  0
ARC
  5
29E1E
  8
0
 10
3123.4466661508467951
 20
151.6901640422807134
 30
0.0
 40
0.0283790778332787
 50
261.4246182134043011
 51
331.5500838301824729
  0
ARC
  5
29E1F
  8
0
 10
3123.4469219898619485
 20
151.6918606289515026
 30
0.0
 40
0.0300948458633792
 50
219.3490669881115025
 51
261.4246182134043011
  0
ARC
  5
29E20
  8
0
 10
3123.4586748130109299
 20
151.6894175962480062
 30
0.0
 40
0.0434359114008133
 50
356.7153891225598841
 51
63.3698272727998315
  0
ARC
  5
29E21
  8
0
 10
3123.4316228244388185
 20
151.6285832555410025
 30
0.0
 40
0.1099856413419328
 50
64.9773958192254071
 51
96.6194625784180516
  0
ARC
  5
29E22
  8
0
 10
3123.4848989311558398
 20
151.1694977494165926
 30
0.0
 40
0.5721521107879874
 50
96.6194687923486413
 51
101.4156753510532951
  0
ARC
  5
29E23
  8
0
 10
3123.373954521855012
 20
151.7189448435707106
 30
0.0
 40
0.0116159645589161
 50
101.415675351053693
 51
207.7040725915510961
  0
ARC
  5
29E24
  8
0
 10
3123.5227229977249408
 20
151.7970635292633119
 30
0.0
 40
0.1796474748985882
 50
207.7040725915510961
 51
228.4329796738578011
  0
ARC
  5
29E25
  8
0
 10
3123.4632591796639645
 20
151.7300101195189939
 30
0.0
 40
0.090025460768836
 50
228.4329796738578011
 51
251.4105259047423999
  0
ARC
  5
29E26
  8
0
 10
3123.4499776201369059
 20
151.6984540612565979
 30
0.0
 40
0.05593901056324
 50
254.0017656531171895
 51
309.2184022774471259
  0
ARC
  5
29E27
  8
0
 10
3123.456382669499817
 20
151.6905995420781892
 30
0.0
 40
0.0458040162619004
 50
309.2233854927459902
 51
355.4034990718346876
  0
LINE
  5
29E28
  8
0
 10
3123.3623595526610188
 20
151.7182467590332919
 30
0.0
 11
3123.3572335309181653
 21
151.7604790369294108
 31
0.0
  0
ARC
  5
29E29
  8
0
 10
3123.4912278550291376
 20
151.8144068105370081
 30
0.0
 40
0.1576908240689511
 50
209.2072698959642025
 51
214.700529028659389
  0
ARC
  5
29E2A
  8
0
 10
3123.3704291880308119
 20
151.7468746012127951
 30
0.0
 40
0.0192967590061139
 50
160.4321723986321047
 51
209.2072698959628099
  0
ARC
  5
29E2B
  8
0
 10
3123.3677416952509702
 20
151.7478298742765048
 30
0.0
 40
0.0164445381048584
 50
129.7177656460771118
 51
160.4321723986352026
  0
ARC
  5
29E2C
  8
0
 10
3123.3771932280869805
 20
151.7364526277511061
 30
0.0
 40
0.0312355222318159
 50
105.8129051328995018
 51
129.7177656460771118
  0
ARC
  5
29E2D
  8
0
 10
3123.4241200370179286
 20
151.5707592575519982
 30
0.0
 40
0.2034459119426345
 50
75.9853255483943286
 51
105.8129051328995018
  0
ARC
  5
29E2E
  8
0
 10
3123.4564924121400509
 20
151.7130222351115094
 30
0.0
 40
0.0576583023016636
 50
17.4111231650094282
 51
72.95994182523944
  0
ARC
  5
29E2F
  8
0
 10
3123.46259553057007
 20
151.7177292472379122
 30
0.0
 40
0.0504967342002408
 50
321.2297094788938807
 51
14.3857394418662992
  0
ARC
  5
29E30
  8
0
 10
3123.3142048098939085
 20
151.5508408310647042
 30
0.0
 40
0.0818909981813383
 50
34.9886715770584331
 51
64.9376124666571002
  0
ARC
  5
29E31
  8
0
 10
3123.2227229925251777
 20
151.3862667531257102
 30
0.0
 40
0.2700426567039011
 50
62.145549615387381
 51
74.0422118445963235
  0
ARC
  5
29E32
  8
0
 10
3123.2928469849630346
 20
151.6337701097731099
 30
0.0
 40
0.012813049282757
 50
71.2501489933462864
 51
168.3706011683700012
  0
ARC
  5
29E33
  8
0
 10
3123.5163457625958472
 20
151.6094743283942989
 30
0.0
 40
0.2375741934279311
 50
173.5037670822416089
 51
181.0378104169824951
  0
ARC
  5
29E34
  8
0
 10
3123.3826493720598592
 20
151.60297827820159
 30
0.0
 40
0.1038619871419827
 50
178.7901049174062109
 51
211.9150904301538958
  0
ARC
  5
29E35
  8
0
 10
3123.3390666849850277
 20
151.5861184567123985
 30
0.0
 40
0.0586081793723853
 50
220.4808312769671943
 51
282.1891745325581837
  0
ARC
  5
29E36
  8
0
 10
3123.3363416696079184
 20
151.582637758107694
 30
0.0
 40
0.0558847418550073
 50
285.6756318159380044
 51
334.0248256708828762
  0
ARC
  5
29E37
  8
0
 10
3123.3497420685998804
 20
151.5734194935886023
 30
0.0
 40
0.0398739471043181
 50
337.5013547281217257
 51
37.690599557929211
  0
ARC
  5
29E38
  8
0
 10
3123.3384711326989418
 20
151.5714088917343929
 30
0.0
 40
0.0248583853529901
 50
11.8511020157334102
 51
75.8665410384260781
  0
ARC
  5
29E39
  8
0
 10
3123.3365050116949533
 20
151.5636007370854941
 30
0.0
 40
0.0329102740024715
 50
75.8665410384260781
 51
130.2985808114341921
  0
ARC
  5
29E3A
  8
0
 10
3123.3288395110121201
 20
151.572640039119392
 30
0.0
 40
0.0210583171183026
 50
130.2985808114331974
 51
210.1848623398566929
  0
ARC
  5
29E3B
  8
0
 10
3123.3354377607911374
 20
151.5764779787670022
 30
0.0
 40
0.0286915786025523
 50
210.1848623398566929
 51
301.6686208927778239
  0
ARC
  5
29E3C
  8
0
 10
3123.3368004950448267
 20
151.574268818672607
 30
0.0
 40
0.0260959220441828
 50
301.6686208927778239
 51
4.9356600735585099
  0
ARC
  5
29E3D
  8
0
 10
3123.3483674268932191
 20
151.6023452526752067
 30
0.0
 40
0.0522821646153364
 50
321.8329281845382752
 51
355.925366160891997
  0
ARC
  5
29E3E
  8
0
 10
3123.3541325427831907
 20
151.6019345694124922
 30
0.0
 40
0.046502439538478
 50
355.925366160891997
 51
31.0318171326021606
  0
ARC
  5
29E3F
  8
0
 10
3123.3273341532908489
 20
151.5858122115130016
 30
0.0
 40
0.0777767757199303
 50
31.0318171326021606
 51
58.106089261567611
  0
ARC
  5
29E40
  8
0
 10
3123.2274689522209883
 20
151.425334042755992
 30
0.0
 40
0.266790799095227
 50
58.106089261567611
 51
74.0301048833385948
  0
ARC
  5
29E41
  8
0
 10
3123.2938169501471748
 20
151.6571766963982952
 30
0.0
 40
0.0256413166640835
 50
74.0301048833385948
 51
163.1405412951258995
  0
ARC
  5
29E42
  8
0
 10
3123.3713145209089816
 20
151.6336910187303886
 30
0.0
 40
0.1066194033882857
 50
163.1405412951334881
 51
213.946840233985796
  0
ARC
  5
29E43
  8
0
 10
3123.1739120000370349
 20
153.4411457587827101
 30
0.0
 40
0.0268421309250733
 50
92.0375915231333579
 51
171.4251233024789087
  0
ARC
  5
29E44
  8
0
 10
3123.1738112255879969
 20
153.4439782775899914
 30
0.0
 40
0.0240078200240748
 50
20.9872574083818009
 51
92.0375915231333579
  0
ARC
  5
29E45
  8
0
 10
3123.1660867099858478
 20
153.4410150847683099
 30
0.0
 40
0.0322811901337913
 50
317.4619143162075829
 51
20.9872574083833108
  0
ARC
  5
29E46
  8
0
 10
3123.1729089835412196
 20
153.4376474297426967
 30
0.0
 40
0.0250682844449278
 50
213.6926887514972861
 51
312.5853924600659752
  0
ARC
  5
29E47
  8
0
 10
3123.1858914285448918
 20
153.4423571621385065
 30
0.0
 40
0.0386224760254502
 50
175.8562759546497887
 51
208.8161668953476067
  0
ARC
  5
29E48
  8
0
 10
3123.1783426549218348
 20
153.446774781551909
 30
0.0
 40
0.0700290240786877
 50
200.769266874039289
 51
233.0793657169054995
  0
ARC
  5
29E49
  8
0
 10
3123.1726352977561874
 20
153.4389912896457133
 30
0.0
 40
0.0603780176036005
 50
232.9723660026037066
 51
286.9836896163652114
  0
ARC
  5
29E4A
  8
0
 10
3123.171012737701858
 20
153.444303852940493
 30
0.0
 40
0.0659328380229237
 50
286.9836896163652114
 51
332.813952308042019
  0
ARC
  5
29E4B
  8
0
 10
3123.1680048426101166
 20
153.4458487752318092
 30
0.0
 40
0.0693142900439592
 50
332.813952308042019
 51
12.6898317034054102
  0
ARC
  5
29E4C
  8
0
 10
3123.1682324863882059
 20
153.4459000345227082
 30
0.0
 40
0.0690809465105997
 50
12.6898317034054102
 51
44.0047337430290213
  0
ARC
  5
29E4D
  8
0
 10
3123.1729752642431777
 20
153.4504808391820916
 30
0.0
 40
0.0624871833127678
 50
44.0047337430290213
 51
127.7880216857844999
  0
ARC
  5
29E4E
  8
0
 10
3123.1757962841938934
 20
153.446842431787303
 30
0.0
 40
0.0670911122797793
 50
127.7880216857844999
 51
174.335132718495089
  0
ARC
  5
29E4F
  8
0
 10
3123.181489469142889
 20
153.4462777019041937
 30
0.0
 40
0.0728122375803954
 50
174.335132718495089
 51
199.5253554437692003
  0
ARC
  5
29E50
  8
0
 10
3123.1705843995550822
 20
153.4659337533952055
 30
0.0
 40
0.0725731623058452
 50
204.2717111539637926
 51
217.3130549473206941
  0
ARC
  5
29E51
  8
0
 10
3123.1872458592788462
 20
153.4734467897249885
 30
0.0
 40
0.0908501958464673
 50
165.9043330749350105
 51
204.2717111539637926
  0
ARC
  5
29E52
  8
0
 10
3123.183708093290079
 20
153.4743351306968862
 30
0.0
 40
0.087202602410119
 50
133.5394258261734137
 51
165.9043330749350105
  0
ARC
  5
29E53
  8
0
 10
3123.1737580712429008
 20
153.484805826978203
 30
0.0
 40
0.0727582810569489
 50
92.37063746691868
 51
133.5394258261734137
  0
ARC
  5
29E54
  8
0
 10
3123.1736090666868222
 20
153.4884050529319097
 30
0.0
 40
0.0691559720997063
 50
47.6287149124060534
 51
92.37063746691868
  0
ARC
  5
29E55
  8
0
 10
3123.1570721515381592
 20
153.4702765823641926
 30
0.0
 40
0.093693922457152
 50
25.7207321549836507
 51
47.6287149124060534
  0
ARC
  5
29E56
  8
0
 10
3123.1672027415288539
 20
153.4751566215998082
 30
0.0
 40
0.0824492065209747
 50
356.1304072945197277
 51
25.7207321549836507
  0
ARC
  5
29E57
  8
0
 10
3123.1527592798352089
 20
153.4761335774358031
 30
0.0
 40
0.0969256711585577
 50
325.9296385379860794
 51
356.1304072945197277
  0
LINE
  5
29E58
  8
0
 10
3123.1090943189151403
 20
153.4384954037327873
 30
0.0
 11
3123.0991311236771253
 21
153.4955725994269926
 31
0.0
  0
ARC
  5
29E59
  8
0
 10
3123.2309300855508809
 20
153.5313845126885894
 30
0.0
 40
0.1442342873926253
 50
201.3158272985679957
 51
209.3627287961168975
  0
LINE
  5
29E5A
  8
0
 10
3123.2369353621470509
 20
153.4385649382861061
 30
0.0
 11
3123.246988569675068
 21
153.4959434752082927
 31
0.0
  0
ARC
  5
29E5B
  8
0
 10
3123.1575786910439092
 20
153.5126203182236111
 30
0.0
 40
0.0976097502695255
 50
328.7690640241992241
 51
340.3759285453405141
  0
ARC
  5
29E5C
  8
0
 10
3122.2365989057129809
 20
153.1961990054786042
 30
0.0
 40
0.0268421309250733
 50
92.0375915231333579
 51
171.4251233024789087
  0
ARC
  5
29E5D
  8
0
 10
3122.2364981312630334
 20
153.199031524285914
 30
0.0
 40
0.0240078200240748
 50
20.9872574083818009
 51
92.0375915231333579
  0
ARC
  5
29E5E
  8
0
 10
3122.2287736156617939
 20
153.196068331464204
 30
0.0
 40
0.0322811901337913
 50
317.4619143162075829
 51
20.9872574083833108
  0
ARC
  5
29E5F
  8
0
 10
3122.2355958892171657
 20
153.1927006764385908
 30
0.0
 40
0.0250682844449278
 50
213.6926887514972861
 51
312.5853924600659752
  0
ARC
  5
29E60
  8
0
 10
3122.2485783342199284
 20
153.1974104088344006
 30
0.0
 40
0.0386224760254502
 50
175.8562759546497887
 51
208.8161668953476067
  0
ARC
  5
29E61
  8
0
 10
3122.2410295605977808
 20
153.2018280282476894
 30
0.0
 40
0.0700290240786877
 50
200.769266874039289
 51
233.0793657169054995
  0
ARC
  5
29E62
  8
0
 10
3122.2353222034321334
 20
153.1940445363416075
 30
0.0
 40
0.0603780176036005
 50
232.9723660026037066
 51
286.9836896163652114
  0
ARC
  5
29E63
  8
0
 10
3122.233699643377804
 20
153.1993570996363019
 30
0.0
 40
0.0659328380229237
 50
286.9836896163652114
 51
332.813952308042019
  0
ARC
  5
29E64
  8
0
 10
3122.2306917482860626
 20
153.2009020219277033
 30
0.0
 40
0.0693142900439592
 50
332.813952308042019
 51
12.6898317034054102
  0
ARC
  5
29E65
  8
0
 10
3122.2309193920641519
 20
153.2009532812186023
 30
0.0
 40
0.0690809465105997
 50
12.6898317034054102
 51
44.0047337430290213
  0
ARC
  5
29E66
  8
0
 10
3122.2356621699191237
 20
153.2055340858779005
 30
0.0
 40
0.0624871833127678
 50
44.0047337430290213
 51
127.7880216857844999
  0
ARC
  5
29E67
  8
0
 10
3122.2384831898698394
 20
153.2018956784831971
 30
0.0
 40
0.0670911122797793
 50
127.7880216857844999
 51
174.335132718495089
  0
ARC
  5
29E68
  8
0
 10
3122.244176374818835
 20
153.2013309486000026
 30
0.0
 40
0.0728122375803954
 50
174.335132718495089
 51
199.5253554437692003
  0
ARC
  5
29E69
  8
0
 10
3122.2332713052310282
 20
153.2209870000910996
 30
0.0
 40
0.0725731623058452
 50
204.2717111539637926
 51
217.3130549473206941
  0
ARC
  5
29E6A
  8
0
 10
3122.2499327649547922
 20
153.2285000364209111
 30
0.0
 40
0.0908501958464673
 50
165.9043330749350105
 51
204.2717111539637926
  0
ARC
  5
29E6B
  8
0
 10
3122.246394998966025
 20
153.2293883773928087
 30
0.0
 40
0.087202602410119
 50
133.5394258261734137
 51
165.9043330749350105
  0
ARC
  5
29E6C
  8
0
 10
3122.2364449769188468
 20
153.2398590736740971
 30
0.0
 40
0.0727582810569489
 50
92.37063746691868
 51
133.5394258261734137
  0
ARC
  5
29E6D
  8
0
 10
3122.236295972363223
 20
153.2434582996278039
 30
0.0
 40
0.0691559720997063
 50
47.6287149124060534
 51
92.37063746691868
  0
ARC
  5
29E6E
  8
0
 10
3122.2197590572141053
 20
153.2253298290600867
 30
0.0
 40
0.093693922457152
 50
25.7207321549836507
 51
47.6287149124060534
  0
ARC
  5
29E6F
  8
0
 10
3122.2298896472048
 20
153.2302098682957023
 30
0.0
 40
0.0824492065209747
 50
356.1304072945197277
 51
25.7207321549836507
  0
ARC
  5
29E70
  8
0
 10
3122.2154461855097907
 20
153.2311868241316972
 30
0.0
 40
0.0969256711585577
 50
325.9296385379860794
 51
356.1304072945197277
  0
LINE
  5
29E71
  8
0
 10
3122.1717812245910864
 20
153.1935486504287951
 30
0.0
 11
3122.1618180293530713
 21
153.2506258461228867
 31
0.0
  0
ARC
  5
29E72
  8
0
 10
3122.2936169912259174
 20
153.286437759384512
 30
0.0
 40
0.1442342873926253
 50
201.3158272985679957
 51
209.3627287961168975
  0
LINE
  5
29E73
  8
0
 10
3122.2996222678229969
 20
153.1936181849820002
 30
0.0
 11
3122.309675475351014
 21
153.2509967219041869
 31
0.0
  0
ARC
  5
29E74
  8
0
 10
3122.2202655967198552
 20
153.2676735649195052
 30
0.0
 40
0.0976097502695255
 50
328.7690640241992241
 51
340.3759285453405141
  0
ARC
  5
29E75
  8
0
 10
3122.7646958139707749
 20
153.0894323697760058
 30
0.0
 40
0.0268421309250733
 50
92.0375915231333579
 51
171.4251233024789087
  0
ARC
  5
29E76
  8
0
 10
3122.7645950395221917
 20
153.0922648885834008
 30
0.0
 40
0.0240078200240748
 50
20.9872574083818009
 51
92.0375915231333579
  0
ARC
  5
29E77
  8
0
 10
3122.7568705239209521
 20
153.0893016957616908
 30
0.0
 40
0.0322811901337913
 50
317.4619143162075829
 51
20.9872574083833108
  0
ARC
  5
29E78
  8
0
 10
3122.7636927974767787
 20
153.0859340407359923
 30
0.0
 40
0.0250682844449278
 50
213.6926887514972861
 51
312.5853924600659752
  0
ARC
  5
29E79
  8
0
 10
3122.7766752424799961
 20
153.0906437731318874
 30
0.0
 40
0.0386224760254502
 50
175.8562759546497887
 51
208.8161668953476067
  0
ARC
  5
29E7A
  8
0
 10
3122.769126468856939
 20
153.0950613925452046
 30
0.0
 40
0.0700290240786877
 50
200.769266874039289
 51
233.0793657169054995
  0
ARC
  5
29E7B
  8
0
 10
3122.7634191116908369
 20
153.087277900639009
 30
0.0
 40
0.0603780176036005
 50
232.9723660026037066
 51
286.9836896163652114
  0
ARC
  5
29E7C
  8
0
 10
3122.7617965516369622
 20
153.0925904639337887
 30
0.0
 40
0.0659328380229237
 50
286.9836896163652114
 51
332.813952308042019
  0
ARC
  5
29E7D
  8
0
 10
3122.7587886565452209
 20
153.0941353862251901
 30
0.0
 40
0.0693142900439592
 50
332.813952308042019
 51
12.6898317034054102
  0
ARC
  5
29E7E
  8
0
 10
3122.7590163003228554
 20
153.0941866455160891
 30
0.0
 40
0.0690809465105997
 50
12.6898317034054102
 51
44.0047337430290213
  0
ARC
  5
29E7F
  8
0
 10
3122.7637590781778272
 20
153.0987674501753872
 30
0.0
 40
0.0624871833127678
 50
44.0047337430290213
 51
127.7880216857844999
  0
ARC
  5
29E80
  8
0
 10
3122.7665800981289976
 20
153.0951290427807123
 30
0.0
 40
0.0670911122797793
 50
127.7880216857844999
 51
174.335132718495089
  0
ARC
  5
29E81
  8
0
 10
3122.7722732830779933
 20
153.0945643128974893
 30
0.0
 40
0.0728122375803954
 50
174.335132718495089
 51
199.5253554437692003
  0
ARC
  5
29E82
  8
0
 10
3122.7613682134901865
 20
153.1142203643885011
 30
0.0
 40
0.0725731623058452
 50
204.2717111539637926
 51
217.3130549473206941
  0
ARC
  5
29E83
  8
0
 10
3122.7780296732148599
 20
153.1217334007183126
 30
0.0
 40
0.0908501958464673
 50
165.9043330749350105
 51
204.2717111539637926
  0
ARC
  5
29E84
  8
0
 10
3122.7744919072260927
 20
153.1226217416902955
 30
0.0
 40
0.087202602410119
 50
133.5394258261734137
 51
165.9043330749350105
  0
ARC
  5
29E85
  8
0
 10
3122.7645418851789145
 20
153.1330924379716123
 30
0.0
 40
0.0727582810569489
 50
92.37063746691868
 51
133.5394258261734137
  0
ARC
  5
29E86
  8
0
 10
3122.7643928806219265
 20
153.1366916639252054
 30
0.0
 40
0.0691559720997063
 50
47.6287149124060534
 51
92.37063746691868
  0
ARC
  5
29E87
  8
0
 10
3122.7478559654728087
 20
153.1185631933574882
 30
0.0
 40
0.093693922457152
 50
25.7207321549836507
 51
47.6287149124060534
  0
ARC
  5
29E88
  8
0
 10
3122.7579865554630487
 20
153.1234432325931891
 30
0.0
 40
0.0824492065209747
 50
356.1304072945197277
 51
25.7207321549836507
  0
ARC
  5
29E89
  8
0
 10
3122.7435430937698584
 20
153.1244201884290987
 30
0.0
 40
0.0969256711585577
 50
325.9296385379860794
 51
356.1304072945197277
  0
LINE
  5
29E8A
  8
0
 10
3122.6998781328488803
 20
153.0867820147261966
 30
0.0
 11
3122.6899149376108653
 21
153.1438592104202883
 31
0.0
  0
ARC
  5
29E8B
  8
0
 10
3122.8217138994850757
 20
153.1796711236819988
 30
0.0
 40
0.1442342873926253
 50
201.3158272985679957
 51
209.3627287961168975
  0
LINE
  5
29E8C
  8
0
 10
3122.8277191760821552
 20
153.0868515492794018
 30
0.0
 11
3122.8377723836101723
 21
153.1442300862015884
 31
0.0
  0
ARC
  5
29E8D
  8
0
 10
3122.7483625049790135
 20
153.160906929216992
 30
0.0
 40
0.0976097502695255
 50
328.7690640241992241
 51
340.3759285453405141
  0
ARC
  5
29E8E
  8
0
 10
3122.0814627858280801
 20
152.6947058302390019
 30
0.0
 40
0.0268421309250733
 50
92.0375915231333579
 51
171.4251233024789087
  0
ARC
  5
29E8F
  8
0
 10
3122.0813620113781326
 20
152.6975383490463116
 30
0.0
 40
0.0240078200240748
 50
20.9872574083818009
 51
92.0375915231333579
  0
ARC
  5
29E90
  8
0
 10
3122.073637495776893
 20
152.6945751562246016
 30
0.0
 40
0.0322811901337913
 50
317.4619143162075829
 51
20.9872574083833108
  0
ARC
  5
29E91
  8
0
 10
3122.0804597693331743
 20
152.6912075011989032
 30
0.0
 40
0.0250682844449278
 50
213.6926887514972861
 51
312.5853924600659752
  0
ARC
  5
29E92
  8
0
 10
3122.093442214335937
 20
152.6959172335947983
 30
0.0
 40
0.0386224760254502
 50
175.8562759546497887
 51
208.8161668953476067
  0
ARC
  5
29E93
  8
0
 10
3122.08589344071288
 20
152.7003348530080871
 30
0.0
 40
0.0700290240786877
 50
200.769266874039289
 51
233.0793657169054995
  0
ARC
  5
29E94
  8
0
 10
3122.0801860835481421
 20
152.6925513611018914
 30
0.0
 40
0.0603780176036005
 50
232.9723660026037066
 51
286.9836896163652114
  0
ARC
  5
29E95
  8
0
 10
3122.0785635234938127
 20
152.6978639243966995
 30
0.0
 40
0.0659328380229237
 50
286.9836896163652114
 51
332.813952308042019
  0
ARC
  5
29E96
  8
0
 10
3122.0755556284011618
 20
152.699408846688101
 30
0.0
 40
0.0693142900439592
 50
332.813952308042019
 51
12.6898317034054102
  0
ARC
  5
29E97
  8
0
 10
3122.0757832721801606
 20
152.699460105979
 30
0.0
 40
0.0690809465105997
 50
12.6898317034054102
 51
44.0047337430290213
  0
ARC
  5
29E98
  8
0
 10
3122.0805260500342229
 20
152.7040409106382981
 30
0.0
 40
0.0624871833127678
 50
44.0047337430290213
 51
127.7880216857844999
  0
ARC
  5
29E99
  8
0
 10
3122.0833470699858481
 20
152.7004025032435948
 30
0.0
 40
0.0670911122797793
 50
127.7880216857844999
 51
174.335132718495089
  0
ARC
  5
29E9A
  8
0
 10
3122.0890402549339342
 20
152.6998377733604002
 30
0.0
 40
0.0728122375803954
 50
174.335132718495089
 51
199.5253554437692003
  0
ARC
  5
29E9B
  8
0
 10
3122.0781351853461274
 20
152.719493824851412
 30
0.0
 40
0.0725731623058452
 50
204.2717111539637926
 51
217.3130549473206941
  0
ARC
  5
29E9C
  8
0
 10
3122.0947966450708009
 20
152.7270068611811951
 30
0.0
 40
0.0908501958464673
 50
165.9043330749350105
 51
204.2717111539637926
  0
ARC
  5
29E9D
  8
0
 10
3122.0912588790820337
 20
152.7278952021532064
 30
0.0
 40
0.087202602410119
 50
133.5394258261734137
 51
165.9043330749350105
  0
ARC
  5
29E9E
  8
0
 10
3122.0813088570348555
 20
152.7383658984344947
 30
0.0
 40
0.0727582810569489
 50
92.37063746691868
 51
133.5394258261734137
  0
ARC
  5
29E9F
  8
0
 10
3122.0811598524778674
 20
152.7419651243882015
 30
0.0
 40
0.0691559720997063
 50
47.6287149124060534
 51
92.37063746691868
  0
ARC
  5
29EA0
  8
0
 10
3122.0646229373301139
 20
152.7238366538203991
 30
0.0
 40
0.093693922457152
 50
25.7207321549836507
 51
47.6287149124060534
  0
ARC
  5
29EA1
  8
0
 10
3122.0747535273198991
 20
152.7287166930561
 30
0.0
 40
0.0824492065209747
 50
356.1304072945197277
 51
25.7207321549836507
  0
ARC
  5
29EA2
  8
0
 10
3122.0603100656257993
 20
152.7296936488920949
 30
0.0
 40
0.0969256711585577
 50
325.9296385379860794
 51
356.1304072945197277
  0
LINE
  5
29EA3
  8
0
 10
3122.0166451047061855
 20
152.6920554751891075
 30
0.0
 11
3122.0066819094681705
 21
152.7491326708831991
 31
0.0
  0
ARC
  5
29EA4
  8
0
 10
3122.1384808713419261
 20
152.7849445841449096
 30
0.0
 40
0.1442342873926253
 50
201.3158272985679957
 51
209.3627287961168975
  0
LINE
  5
29EA5
  8
0
 10
3122.1444861479380961
 20
152.6921250097423126
 30
0.0
 11
3122.1545393554661132
 21
152.7495035466644993
 31
0.0
  0
ARC
  5
29EA6
  8
0
 10
3122.0651294768349544
 20
152.7661803896799029
 30
0.0
 40
0.0976097502695255
 50
328.7690640241992241
 51
340.3759285453405141
  0
ARC
  5
29EA7
  8
0
 10
3121.59388888541298
 20
152.5422991667890074
 30
0.0
 40
0.0268421309250733
 50
92.0375915231333579
 51
171.4251233024789087
  0
ARC
  5
29EA8
  8
0
 10
3121.593788110963942
 20
152.5451316855962887
 30
0.0
 40
0.0240078200240748
 50
20.9872574083818009
 51
92.0375915231333579
  0
ARC
  5
29EA9
  8
0
 10
3121.586063595361793
 20
152.5421684927746071
 30
0.0
 40
0.0322811901337913
 50
317.4619143162075829
 51
20.9872574083833108
  0
ARC
  5
29EAA
  8
0
 10
3121.5928858689180743
 20
152.5388008377489939
 30
0.0
 40
0.0250682844449278
 50
213.6926887514972861
 51
312.5853924600659752
  0
ARC
  5
29EAB
  8
0
 10
3121.605868313920837
 20
152.5435105701448038
 30
0.0
 40
0.0386224760254502
 50
175.8562759546497887
 51
208.8161668953476067
  0
ARC
  5
29EAC
  8
0
 10
3121.5983195402991441
 20
152.5479281895582062
 30
0.0
 40
0.0700290240786877
 50
200.769266874039289
 51
233.0793657169054995
  0
ARC
  5
29EAD
  8
0
 10
3121.592612183133042
 20
152.5401446976520106
 30
0.0
 40
0.0603780176036005
 50
232.9723660026037066
 51
286.9836896163652114
  0
ARC
  5
29EAE
  8
0
 10
3121.5909896230791674
 20
152.545457260946705
 30
0.0
 40
0.0659328380229237
 50
286.9836896163652114
 51
332.813952308042019
  0
ARC
  5
29EAF
  8
0
 10
3121.5879817279869712
 20
152.5470021832381065
 30
0.0
 40
0.0693142900439592
 50
332.813952308042019
 51
12.6898317034054102
  0
ARC
  5
29EB0
  8
0
 10
3121.5882093717650605
 20
152.5470534425290055
 30
0.0
 40
0.0690809465105997
 50
12.6898317034054102
 51
44.0047337430290213
  0
ARC
  5
29EB1
  8
0
 10
3121.5929521496200323
 20
152.5516342471883036
 30
0.0
 40
0.0624871833127678
 50
44.0047337430290213
 51
127.7880216857844999
  0
ARC
  5
29EB2
  8
0
 10
3121.5957731695698385
 20
152.5479958397936002
 30
0.0
 40
0.0670911122797793
 50
127.7880216857844999
 51
174.335132718495089
  0
ARC
  5
29EB3
  8
0
 10
3121.6014663545201984
 20
152.5474311099104057
 30
0.0
 40
0.0728122375803954
 50
174.335132718495089
 51
199.5253554437692003
  0
ARC
  5
29EB4
  8
0
 10
3121.5905612849319368
 20
152.5670871614015027
 30
0.0
 40
0.0725731623058452
 50
204.2717111539637926
 51
217.3130549473206941
  0
ARC
  5
29EB5
  8
0
 10
3121.6072227446561556
 20
152.5746001977313142
 30
0.0
 40
0.0908501958464673
 50
165.9043330749350105
 51
204.2717111539637926
  0
ARC
  5
29EB6
  8
0
 10
3121.6036849786669336
 20
152.5754885387032118
 30
0.0
 40
0.087202602410119
 50
133.5394258261734137
 51
165.9043330749350105
  0
ARC
  5
29EB7
  8
0
 10
3121.5937349566202101
 20
152.5859592349845002
 30
0.0
 40
0.0727582810569489
 50
92.37063746691868
 51
133.5394258261734137
  0
ARC
  5
29EB8
  8
0
 10
3121.5935859520641316
 20
152.589558460938207
 30
0.0
 40
0.0691559720997063
 50
47.6287149124060534
 51
92.37063746691868
  0
ARC
  5
29EB9
  8
0
 10
3121.5770490369150139
 20
152.5714299903704898
 30
0.0
 40
0.093693922457152
 50
25.7207321549836507
 51
47.6287149124060534
  0
ARC
  5
29EBA
  8
0
 10
3121.5871796269047991
 20
152.5763100296061054
 30
0.0
 40
0.0824492065209747
 50
356.1304072945197277
 51
25.7207321549836507
  0
ARC
  5
29EBB
  8
0
 10
3121.572736165211154
 20
152.5772869854421003
 30
0.0
 40
0.0969256711585577
 50
325.9296385379860794
 51
356.1304072945197277
  0
LINE
  5
29EBC
  8
0
 10
3121.5290712042910855
 20
152.5396488117391982
 30
0.0
 11
3121.5191080090530704
 21
152.5967260074332899
 31
0.0
  0
ARC
  5
29EBD
  8
0
 10
3121.650906970926826
 20
152.6325379206948867
 30
0.0
 40
0.1442342873926253
 50
201.3158272985679957
 51
209.3627287961168975
  0
LINE
  5
29EBE
  8
0
 10
3121.656912247522996
 20
152.5397183462924033
 30
0.0
 11
3121.6669654550510131
 21
152.59709688321459
 31
0.0
  0
ARC
  5
29EBF
  8
0
 10
3121.5775555764212186
 20
152.6137737262299083
 30
0.0
 40
0.0976097502695255
 50
328.7690640241992241
 51
340.3759285453405141
  0
ARC
  5
29EC0
  8
0
 10
3122.6830232939819325
 20
150.4027520421105066
 30
0.0
 40
0.032544057421958
 50
35.6442331952169909
 51
111.4767111221960931
  0
ARC
  5
29EC1
  8
0
 10
3122.7000449170891443
 20
150.4149582147518061
 30
0.0
 40
0.0115982630045883
 50
303.5716341622260757
 51
35.6442331952169909
  0
ARC
  5
29EC2
  8
0
 10
3122.6769215450331103
 20
150.4157158638105045
 30
0.0
 40
0.0182701423768342
 50
108.5535081828778061
 51
164.6941788954769095
  0
ARC
  5
29EC3
  8
0
 10
3122.6714662541089638
 20
150.4172088582681113
 30
0.0
 40
0.0126142400159476
 50
164.6941788954783874
 51
244.2679808004388065
  0
ARC
  5
29EC4
  8
0
 10
3122.6865906875250403
 20
150.4325009150998937
 30
0.0
 40
0.0336884875590938
 50
232.3007668171022999
 51
306.1393564434553127
  0
ARC
  5
29EC5
  8
0
 10
3122.6551437232069475
 20
150.4256628262031086
 30
0.0
 40
0.0343546845451782
 50
143.9555696210285873
 51
197.9321222346675029
  0
ARC
  5
29EC6
  8
0
 10
3122.6711817903678821
 20
150.413991475855596
 30
0.0
 40
0.0541900070074988
 50
99.9711838223797145
 51
143.9555696210273084
  0
ARC
  5
29EC7
  8
0
 10
3122.6782704288780224
 20
150.3736712386505019
 30
0.0
 40
0.0951286235473024
 50
55.4953429302537131
 51
99.9711838223797145
  0
ARC
  5
29EC8
  8
0
 10
3122.709732566006096
 20
150.4194409620023123
 30
0.0
 40
0.0395882450071387
 50
351.1985423256498962
 51
55.4953429302537131
  0
ARC
  5
29EC9
  8
0
 10
3122.7119758313970124
 20
150.4190936277323942
 30
0.0
 40
0.0373182492555917
 50
308.6784390679566741
 51
351.1985423256514878
  0
ARC
  5
29ECA
  8
0
 10
3122.6909511623648541
 20
150.445356952424504
 30
0.0
 40
0.0709604687390558
 50
262.4213458959823129
 51
308.6784390679566741
  0
ARC
  5
29ECB
  8
0
 10
3122.6938897125228323
 20
150.4674431247890141
 30
0.0
 40
0.0932412695941094
 50
230.6420082552656083
 51
262.4213458959823129
  0
ARC
  5
29ECC
  8
0
 10
3122.6577513689398984
 20
150.4233817604932995
 30
0.0
 40
0.0362554494236015
 50
193.2283059482992087
 51
230.6420082552656083
  0
LINE
  5
29ECD
  8
0
 10
3122.6145312962980825
 20
150.4764277710177964
 30
0.0
 11
3122.6208729454110653
 21
150.4232632138370036
 31
0.0
  0
ARC
  5
29ECE
  8
0
 10
3122.6525351288400998
 20
150.4620120335337958
 30
0.0
 40
0.0442075529010529
 50
204.7354115731641002
 51
222.2155920541057981
  0
ARC
  5
29ECF
  8
0
 10
3122.6446301008668343
 20
150.4583702059462951
 30
0.0
 40
0.0355039688448612
 50
172.1969684997540924
 51
204.7354115731641002
  0
ARC
  5
29ED0
  8
0
 10
3122.6402594126570875
 20
150.4589691513500043
 30
0.0
 40
0.0310924327147971
 50
145.839916628540692
 51
172.1969684997525007
  0
ARC
  5
29ED1
  8
0
 10
3122.6570455398759805
 20
150.4475783986528086
 30
0.0
 40
0.0513784701304842
 50
122.7834724129301947
 51
145.839916628540692
  0
ARC
  5
29ED2
  8
0
 10
3122.6741751868180472
 20
150.420981543492104
 30
0.0
 40
0.0830141700403471
 50
93.3822760047068385
 51
122.7834724129301947
  0
ARC
  5
29ED3
  8
0
 10
3122.6769426012829172
 20
150.3741559906854945
 30
0.0
 40
0.1299214293767807
 50
74.584530156534143
 51
93.3822760047068385
  0
ARC
  5
29ED4
  8
0
 10
3122.6893738099161055
 20
150.4192396603089037
 30
0.0
 40
0.0831552854819973
 50
47.8608135702782675
 51
74.584530156534143
  0
ARC
  5
29ED5
  8
0
 10
3122.7071886229659867
 20
150.4389286174233007
 30
0.0
 40
0.0566030238783478
 50
17.5060978863048291
 51
47.8608135702782675
  0
ARC
  5
29ED6
  8
0
 10
3122.7308917988520989
 20
150.4464049736407105
 30
0.0
 40
0.0317487194343671
 50
307.4010939112325218
 51
17.5060978863048291
  0
LINE
  5
29ED7
  8
0
 10
3122.7490634419991693
 20
150.4149341520063103
 30
0.0
 11
3122.7501756855158419
 21
150.42118369490899
 31
0.0
  0
LINE
  5
29ED8
  8
0
 10
3122.7501756855158419
 20
150.42118369490899
 30
0.0
 11
3122.7575490627700674
 21
150.4647690588849116
 31
0.0
  0
ARC
  5
29ED9
  8
0
 10
3122.3914966353909222
 20
150.7593433209484033
 30
0.0
 40
0.032544057421958
 50
35.6442331952169909
 51
111.4767111221960931
  0
ARC
  5
29EDA
  8
0
 10
3122.4085182584990434
 20
150.7715494935897027
 30
0.0
 40
0.0115982630045883
 50
303.5716341622260757
 51
35.6442331952169909
  0
ARC
  5
29EDB
  8
0
 10
3122.3853948864430095
 20
150.7723071426484864
 30
0.0
 40
0.0182701423768342
 50
108.5535081828778061
 51
164.6941788954769095
  0
ARC
  5
29EDC
  8
0
 10
3122.3799395955188629
 20
150.7738001371060079
 30
0.0
 40
0.0126142400159476
 50
164.6941788954783874
 51
244.2679808004388065
  0
ARC
  5
29EDD
  8
0
 10
3122.3950640289358489
 20
150.7890921939377904
 30
0.0
 40
0.0336884875590938
 50
232.3007668171022999
 51
306.1393564434553127
  0
ARC
  5
29EDE
  8
0
 10
3122.3636170646159371
 20
150.7822541050410905
 30
0.0
 40
0.0343546845451782
 50
143.9555696210285873
 51
197.9321222346675029
  0
ARC
  5
29EDF
  8
0
 10
3122.3796551317777812
 20
150.7705827546934927
 30
0.0
 40
0.0541900070074988
 50
99.9711838223797145
 51
143.9555696210273084
  0
ARC
  5
29EE0
  8
0
 10
3122.386743770287012
 20
150.7302625174883985
 30
0.0
 40
0.0951286235473024
 50
55.4953429302537131
 51
99.9711838223797145
  0
ARC
  5
29EE1
  8
0
 10
3122.4182059074150857
 20
150.7760322408402089
 30
0.0
 40
0.0395882450071387
 50
351.1985423256498962
 51
55.4953429302537131
  0
ARC
  5
29EE2
  8
0
 10
3122.4204491728069115
 20
150.7756849065702909
 30
0.0
 40
0.0373182492555917
 50
308.6784390679566741
 51
351.1985423256514878
  0
ARC
  5
29EE3
  8
0
 10
3122.399424503775208
 20
150.8019482312624007
 30
0.0
 40
0.0709604687390558
 50
262.4213458959823129
 51
308.6784390679566741
  0
ARC
  5
29EE4
  8
0
 10
3122.4023630539331862
 20
150.8240344036269107
 30
0.0
 40
0.0932412695941094
 50
230.6420082552656083
 51
262.4213458959823129
  0
ARC
  5
29EE5
  8
0
 10
3122.366224710348888
 20
150.7799730393311961
 30
0.0
 40
0.0362554494236015
 50
193.2283059482992087
 51
230.6420082552656083
  0
LINE
  5
29EE6
  8
0
 10
3122.3230046377070721
 20
150.8330190498556931
 30
0.0
 11
3122.3293462868218739
 21
150.7798544926749003
 31
0.0
  0
ARC
  5
29EE7
  8
0
 10
3122.3610084702490894
 20
150.8186033123716925
 30
0.0
 40
0.0442075529010529
 50
204.7354115731641002
 51
222.2155920541057981
  0
ARC
  5
29EE8
  8
0
 10
3122.3531034422771882
 20
150.8149614847841917
 30
0.0
 40
0.0355039688448612
 50
172.1969684997540924
 51
204.7354115731641002
  0
ARC
  5
29EE9
  8
0
 10
3122.3487327540669867
 20
150.8155604301879009
 30
0.0
 40
0.0310924327147971
 50
145.839916628540692
 51
172.1969684997525007
  0
ARC
  5
29EEA
  8
0
 10
3122.3655188812858796
 20
150.8041696774907905
 30
0.0
 40
0.0513784701304842
 50
122.7834724129301947
 51
145.839916628540692
  0
ARC
  5
29EEB
  8
0
 10
3122.3826485282279464
 20
150.7775728223300007
 30
0.0
 40
0.0830141700403471
 50
93.3822760047068385
 51
122.7834724129301947
  0
ARC
  5
29EEC
  8
0
 10
3122.3854159426919068
 20
150.7307472695235049
 30
0.0
 40
0.1299214293767807
 50
74.584530156534143
 51
93.3822760047068385
  0
ARC
  5
29EED
  8
0
 10
3122.3978471513250952
 20
150.7758309391468003
 30
0.0
 40
0.0831552854819973
 50
47.8608135702782675
 51
74.584530156534143
  0
ARC
  5
29EEE
  8
0
 10
3122.4156619643749764
 20
150.7955198962611973
 30
0.0
 40
0.0566030238783478
 50
17.5060978863048291
 51
47.8608135702782675
  0
ARC
  5
29EEF
  8
0
 10
3122.4393651402610885
 20
150.8029962524786924
 30
0.0
 40
0.0317487194343671
 50
307.4010939112325218
 51
17.5060978863048291
  0
LINE
  5
29EF0
  8
0
 10
3122.457536783408159
 20
150.771525430844207
 30
0.0
 11
3122.4586490269248316
 21
150.7777749737468866
 31
0.0
  0
LINE
  5
29EF1
  8
0
 10
3122.4586490269248316
 20
150.7777749737468866
 30
0.0
 11
3122.466022404179057
 21
150.8213603377228083
 31
0.0
  0
ARC
  5
29EF2
  8
0
 10
3121.8626599984932
 20
150.8758965177866003
 30
0.0
 40
0.032544057421958
 50
35.6442331952169909
 51
111.4767111221960931
  0
ARC
  5
29EF3
  8
0
 10
3121.8796816216008665
 20
150.8881026904278997
 30
0.0
 40
0.0115982630045883
 50
303.5716341622260757
 51
35.6442331952169909
  0
ARC
  5
29EF4
  8
0
 10
3121.8565582495448325
 20
150.8888603394867118
 30
0.0
 40
0.0182701423768342
 50
108.5535081828778061
 51
164.6941788954769095
  0
ARC
  5
29EF5
  8
0
 10
3121.8511029586211407
 20
150.8903533339442049
 30
0.0
 40
0.0126142400159476
 50
164.6941788954783874
 51
244.2679808004388065
  0
ARC
  5
29EF6
  8
0
 10
3121.8662273920372172
 20
150.9056453907759874
 30
0.0
 40
0.0336884875590938
 50
232.3007668171022999
 51
306.1393564434553127
  0
ARC
  5
29EF7
  8
0
 10
3121.8347804277191244
 20
150.8988073018792875
 30
0.0
 40
0.0343546845451782
 50
143.9555696210285873
 51
197.9321222346675029
  0
ARC
  5
29EF8
  8
0
 10
3121.8508184948791495
 20
150.8871359515316897
 30
0.0
 40
0.0541900070074988
 50
99.9711838223797145
 51
143.9555696210273084
  0
ARC
  5
29EF9
  8
0
 10
3121.8579071333888351
 20
150.8468157143265955
 30
0.0
 40
0.0951286235473024
 50
55.4953429302537131
 51
99.9711838223797145
  0
ARC
  5
29EFA
  8
0
 10
3121.8893692705169087
 20
150.8925854376784059
 30
0.0
 40
0.0395882450071387
 50
351.1985423256498962
 51
55.4953429302537131
  0
ARC
  5
29EFB
  8
0
 10
3121.8916125359078251
 20
150.8922381034084879
 30
0.0
 40
0.0373182492555917
 50
308.6784390679566741
 51
351.1985423256514878
  0
ARC
  5
29EFC
  8
0
 10
3121.870587866877031
 20
150.9185014281005976
 30
0.0
 40
0.0709604687390558
 50
262.4213458959823129
 51
308.6784390679566741
  0
ARC
  5
29EFD
  8
0
 10
3121.8735264170340997
 20
150.9405876004651077
 30
0.0
 40
0.0932412695941094
 50
230.6420082552656083
 51
262.4213458959823129
  0
ARC
  5
29EFE
  8
0
 10
3121.8373880734511658
 20
150.8965262361693931
 30
0.0
 40
0.0362554494236015
 50
193.2283059482992087
 51
230.6420082552656083
  0
LINE
  5
29EFF
  8
0
 10
3121.7941680008088952
 20
150.9495722466938901
 30
0.0
 11
3121.8005096499227875
 21
150.8964076895130972
 31
0.0
  0
ARC
  5
29F00
  8
0
 10
3121.8321718333509125
 20
150.9351565092098895
 30
0.0
 40
0.0442075529010529
 50
204.7354115731641002
 51
222.2155920541057981
  0
ARC
  5
29F01
  8
0
 10
3121.8242668053781017
 20
150.9315146816223887
 30
0.0
 40
0.0355039688448612
 50
172.1969684997540924
 51
204.7354115731641002
  0
ARC
  5
29F02
  8
0
 10
3121.8198961171679002
 20
150.9321136270260979
 30
0.0
 40
0.0310924327147971
 50
145.839916628540692
 51
172.1969684997525007
  0
ARC
  5
29F03
  8
0
 10
3121.8366822443881574
 20
150.9207228743289875
 30
0.0
 40
0.0513784701304842
 50
122.7834724129301947
 51
145.839916628540692
  0
ARC
  5
29F04
  8
0
 10
3121.8538118913288599
 20
150.8941260191681977
 30
0.0
 40
0.0830141700403471
 50
93.3822760047068385
 51
122.7834724129301947
  0
ARC
  5
29F05
  8
0
 10
3121.8565793057941846
 20
150.8473004663617019
 30
0.0
 40
0.1299214293767807
 50
74.584530156534143
 51
93.3822760047068385
  0
ARC
  5
29F06
  8
0
 10
3121.8690105144269182
 20
150.892384135985111
 30
0.0
 40
0.0831552854819973
 50
47.8608135702782675
 51
74.584530156534143
  0
ARC
  5
29F07
  8
0
 10
3121.8868253274767994
 20
150.9120730930993943
 30
0.0
 40
0.0566030238783478
 50
17.5060978863048291
 51
47.8608135702782675
  0
ARC
  5
29F08
  8
0
 10
3121.9105285033629116
 20
150.9195494493168894
 30
0.0
 40
0.0317487194343671
 50
307.4010939112325218
 51
17.5060978863048291
  0
LINE
  5
29F09
  8
0
 10
3121.928700146509982
 20
150.888078627682404
 30
0.0
 11
3121.9298123900271094
 21
150.894328170585112
 31
0.0
  0
LINE
  5
29F0A
  8
0
 10
3121.9298123900271094
 20
150.894328170585112
 30
0.0
 11
3121.9371857672808801
 21
150.9379135345610905
 31
0.0
  0
ARC
  5
29F0B
  8
0
 10
3121.85746820256918
 20
151.306859588776291
 30
0.0
 40
0.032544057421958
 50
35.6442331952169909
 51
111.4767111221960931
  0
ARC
  5
29F0C
  8
0
 10
3121.8744898256768465
 20
151.3190657614175905
 30
0.0
 40
0.0115982630045883
 50
303.5716341622260757
 51
35.6442331952169909
  0
ARC
  5
29F0D
  8
0
 10
3121.8513664536208125
 20
151.3198234104764026
 30
0.0
 40
0.0182701423768342
 50
108.5535081828778061
 51
164.6941788954769095
  0
ARC
  5
29F0E
  8
0
 10
3121.8459111626980302
 20
151.3213164049338957
 30
0.0
 40
0.0126142400159476
 50
164.6941788954783874
 51
244.2679808004388065
  0
ARC
  5
29F0F
  8
0
 10
3121.8610355961141067
 20
151.3366084617657066
 30
0.0
 40
0.0336884875590938
 50
232.3007668171022999
 51
306.1393564434553127
  0
ARC
  5
29F10
  8
0
 10
3121.8295886317951044
 20
151.3297703728690067
 30
0.0
 40
0.0343546845451782
 50
143.9555696210285873
 51
197.9321222346675029
  0
ARC
  5
29F11
  8
0
 10
3121.8456266989551295
 20
151.3180990225214089
 30
0.0
 40
0.0541900070074988
 50
99.9711838223797145
 51
143.9555696210273084
  0
ARC
  5
29F12
  8
0
 10
3121.8527153374648151
 20
151.2777787853162863
 30
0.0
 40
0.0951286235473024
 50
55.4953429302537131
 51
99.9711838223797145
  0
ARC
  5
29F13
  8
0
 10
3121.8841774745928888
 20
151.3235485086680967
 30
0.0
 40
0.0395882450071387
 50
351.1985423256498962
 51
55.4953429302537131
  0
ARC
  5
29F14
  8
0
 10
3121.8864207399851693
 20
151.3232011743982071
 30
0.0
 40
0.0373182492555917
 50
308.6784390679566741
 51
351.1985423256514878
  0
ARC
  5
29F15
  8
0
 10
3121.8653960709530111
 20
151.3494644990902884
 30
0.0
 40
0.0709604687390558
 50
262.4213458959823129
 51
308.6784390679566741
  0
ARC
  5
29F16
  8
0
 10
3121.8683346211100798
 20
151.3715506714547985
 30
0.0
 40
0.0932412695941094
 50
230.6420082552656083
 51
262.4213458959823129
  0
ARC
  5
29F17
  8
0
 10
3121.8321962775280554
 20
151.3274893071591123
 30
0.0
 40
0.0362554494236015
 50
193.2283059482992087
 51
230.6420082552656083
  0
LINE
  5
29F18
  8
0
 10
3121.7889762048848752
 20
151.3805353176836093
 30
0.0
 11
3121.7953178540001318
 21
151.327370760502788
 31
0.0
  0
ARC
  5
29F19
  8
0
 10
3121.826980037427802
 20
151.3661195801996087
 30
0.0
 40
0.0442075529010529
 50
204.7354115731641002
 51
222.2155920541057981
  0
ARC
  5
29F1A
  8
0
 10
3121.8190750094549912
 20
151.3624777526121079
 30
0.0
 40
0.0355039688448612
 50
172.1969684997540924
 51
204.7354115731641002
  0
ARC
  5
29F1B
  8
0
 10
3121.8147043212438803
 20
151.3630766980157887
 30
0.0
 40
0.0310924327147971
 50
145.839916628540692
 51
172.1969684997525007
  0
ARC
  5
29F1C
  8
0
 10
3121.8314904484641374
 20
151.3516859453187067
 30
0.0
 40
0.0513784701304842
 50
122.7834724129301947
 51
145.839916628540692
  0
ARC
  5
29F1D
  8
0
 10
3121.8486200954062042
 20
151.3250890901578884
 30
0.0
 40
0.0830141700403471
 50
93.3822760047068385
 51
122.7834724129301947
  0
ARC
  5
29F1E
  8
0
 10
3121.8513875098701646
 20
151.2782635373513074
 30
0.0
 40
0.1299214293767807
 50
74.584530156534143
 51
93.3822760047068385
  0
ARC
  5
29F1F
  8
0
 10
3121.8638187185028983
 20
151.3233472069748018
 30
0.0
 40
0.0831552854819973
 50
47.8608135702782675
 51
74.584530156534143
  0
ARC
  5
29F20
  8
0
 10
3121.8816335315541437
 20
151.3430361640891135
 30
0.0
 40
0.0566030238783478
 50
17.5060978863048291
 51
47.8608135702782675
  0
ARC
  5
29F21
  8
0
 10
3121.9053367074398011
 20
151.3505125203066086
 30
0.0
 40
0.0317487194343671
 50
307.4010939112325218
 51
17.5060978863048291
  0
LINE
  5
29F22
  8
0
 10
3121.9235083505868715
 20
151.3190416986720948
 30
0.0
 11
3121.9246205941039989
 21
151.3252912415748028
 31
0.0
  0
LINE
  5
29F23
  8
0
 10
3121.9246205941039989
 20
151.3252912415748028
 30
0.0
 11
3121.9319939713582244
 21
151.3688766055508097
 31
0.0
  0
ARC
  5
29F24
  8
0
 10
3121.4617590425491471
 20
151.6718626378647912
 30
0.0
 40
0.032544057421958
 50
35.6442331952169909
 51
111.4767111221960931
  0
ARC
  5
29F25
  8
0
 10
3121.4787806656559042
 20
151.6840688105060906
 30
0.0
 40
0.0115982630045883
 50
303.5716341622260757
 51
35.6442331952169909
  0
ARC
  5
29F26
  8
0
 10
3121.4556572935998702
 20
151.684826459564789
 30
0.0
 40
0.0182701423768342
 50
108.5535081828778061
 51
164.6941788954769095
  0
ARC
  5
29F27
  8
0
 10
3121.4502020026770879
 20
151.6863194540223958
 30
0.0
 40
0.0126142400159476
 50
164.6941788954783874
 51
244.2679808004388065
  0
ARC
  5
29F28
  8
0
 10
3121.4653264360931644
 20
151.701611510854093
 30
0.0
 40
0.0336884875590938
 50
232.3007668171022999
 51
306.1393564434553127
  0
ARC
  5
29F29
  8
0
 10
3121.4338794717750716
 20
151.6947734219573931
 30
0.0
 40
0.0343546845451782
 50
143.9555696210285873
 51
197.9321222346675029
  0
ARC
  5
29F2A
  8
0
 10
3121.4499175389350967
 20
151.6831020716097953
 30
0.0
 40
0.0541900070074988
 50
99.9711838223797145
 51
143.9555696210273084
  0
ARC
  5
29F2B
  8
0
 10
3121.4570061774438727
 20
151.6427818344047012
 30
0.0
 40
0.0951286235473024
 50
55.4953429302537131
 51
99.9711838223797145
  0
ARC
  5
29F2C
  8
0
 10
3121.4884683145728559
 20
151.6885515577565968
 30
0.0
 40
0.0395882450071387
 50
351.1985423256498962
 51
55.4953429302537131
  0
ARC
  5
29F2D
  8
0
 10
3121.490711579964227
 20
151.6882042234867072
 30
0.0
 40
0.0373182492555917
 50
308.6784390679566741
 51
351.1985423256514878
  0
ARC
  5
29F2E
  8
0
 10
3121.4696869109320687
 20
151.7144675481787885
 30
0.0
 40
0.0709604687390558
 50
262.4213458959823129
 51
308.6784390679566741
  0
ARC
  5
29F2F
  8
0
 10
3121.4726254610900469
 20
151.7365537205432986
 30
0.0
 40
0.0932412695941094
 50
230.6420082552656083
 51
262.4213458959823129
  0
ARC
  5
29F30
  8
0
 10
3121.436487117507113
 20
151.6924923562476124
 30
0.0
 40
0.0362554494236015
 50
193.2283059482992087
 51
230.6420082552656083
  0
LINE
  5
29F31
  8
0
 10
3121.3932670448648423
 20
151.7455383667719957
 30
0.0
 11
3121.3996086939791894
 21
151.6923738095912029
 31
0.0
  0
ARC
  5
29F32
  8
0
 10
3121.4312708774068597
 20
151.7311226292879951
 30
0.0
 40
0.0442075529010529
 50
204.7354115731641002
 51
222.2155920541057981
  0
ARC
  5
29F33
  8
0
 10
3121.4233658494340489
 20
151.727480801700608
 30
0.0
 40
0.0355039688448612
 50
172.1969684997540924
 51
204.7354115731641002
  0
ARC
  5
29F34
  8
0
 10
3121.4189951612238474
 20
151.7280797471042888
 30
0.0
 40
0.0310924327147971
 50
145.839916628540692
 51
172.1969684997525007
  0
ARC
  5
29F35
  8
0
 10
3121.4357812884441046
 20
151.7166889944070931
 30
0.0
 40
0.0513784701304842
 50
122.7834724129301947
 51
145.839916628540692
  0
ARC
  5
29F36
  8
0
 10
3121.4529109353848071
 20
151.6900921392463033
 30
0.0
 40
0.0830141700403471
 50
93.3822760047068385
 51
122.7834724129301947
  0
ARC
  5
29F37
  8
0
 10
3121.4556783498501318
 20
151.6432665864398075
 30
0.0
 40
0.1299214293767807
 50
74.584530156534143
 51
93.3822760047068385
  0
ARC
  5
29F38
  8
0
 10
3121.4681095584828654
 20
151.6883502560631882
 30
0.0
 40
0.0831552854819973
 50
47.8608135702782675
 51
74.584530156534143
  0
ARC
  5
29F39
  8
0
 10
3121.4859243715332013
 20
151.7080392131776136
 30
0.0
 40
0.0566030238783478
 50
17.5060978863048291
 51
47.8608135702782675
  0
ARC
  5
29F3A
  8
0
 10
3121.5096275474188587
 20
151.7155155693949951
 30
0.0
 40
0.0317487194343671
 50
307.4010939112325218
 51
17.5060978863048291
  0
LINE
  5
29F3B
  8
0
 10
3121.5277991905659292
 20
151.6840447477605949
 30
0.0
 11
3121.5289114340830565
 21
151.6902942906633029
 31
0.0
  0
LINE
  5
29F3C
  8
0
 10
3121.5289114340830565
 20
151.6902942906633029
 30
0.0
 11
3121.5362848113368273
 21
151.7338796546391961
 31
0.0
  0
ARC
  5
29F3D
  8
0
 10
3121.7465184236029927
 20
152.0357309086247142
 30
0.0
 40
0.032544057421958
 50
35.6442331952169909
 51
111.4767111221960931
  0
ARC
  5
29F3E
  8
0
 10
3121.7635400467102045
 20
152.0479370812660136
 30
0.0
 40
0.0115982630045883
 50
303.5716341622260757
 51
35.6442331952169909
  0
ARC
  5
29F3F
  8
0
 10
3121.74041667465508
 20
152.0486947303247121
 30
0.0
 40
0.0182701423768342
 50
108.5535081828778061
 51
164.6941788954769095
  0
ARC
  5
29F40
  8
0
 10
3121.7349613837309334
 20
152.0501877247822904
 30
0.0
 40
0.0126142400159476
 50
164.6941788954783874
 51
244.2679808004388065
  0
ARC
  5
29F41
  8
0
 10
3121.7500858171470099
 20
152.0654797816141013
 30
0.0
 40
0.0336884875590938
 50
232.3007668171022999
 51
306.1393564434553127
  0
ARC
  5
29F42
  8
0
 10
3121.7186388528280077
 20
152.0586416927172877
 30
0.0
 40
0.0343546845451782
 50
143.9555696210285873
 51
197.9321222346675029
  0
ARC
  5
29F43
  8
0
 10
3121.7346769199880328
 20
152.0469703423698036
 30
0.0
 40
0.0541900070074988
 50
99.9711838223797145
 51
143.9555696210273084
  0
ARC
  5
29F44
  8
0
 10
3121.741765558498173
 20
152.0066501051647094
 30
0.0
 40
0.0951286235473024
 50
55.4953429302537131
 51
99.9711838223797145
  0
ARC
  5
29F45
  8
0
 10
3121.773227695625792
 20
152.0524198285164914
 30
0.0
 40
0.0395882450071387
 50
351.1985423256498962
 51
55.4953429302537131
  0
ARC
  5
29F46
  8
0
 10
3121.7754709610180726
 20
152.0520724942466018
 30
0.0
 40
0.0373182492555917
 50
308.6784390679566741
 51
351.1985423256514878
  0
ARC
  5
29F47
  8
0
 10
3121.7544462919868238
 20
152.0783358189387116
 30
0.0
 40
0.0709604687390558
 50
262.4213458959823129
 51
308.6784390679566741
  0
ARC
  5
29F48
  8
0
 10
3121.7573848421438925
 20
152.1004219913031932
 30
0.0
 40
0.0932412695941094
 50
230.6420082552656083
 51
262.4213458959823129
  0
ARC
  5
29F49
  8
0
 10
3121.7212464985609586
 20
152.056360627007507
 30
0.0
 40
0.0362554494236015
 50
193.2283059482992087
 51
230.6420082552656083
  0
LINE
  5
29F4A
  8
0
 10
3121.6780264259177784
 20
152.109406637532004
 30
0.0
 11
3121.684368075033035
 21
152.0562420803512111
 31
0.0
  0
ARC
  5
29F4B
  8
0
 10
3121.71603025846116
 20
152.0949909000478897
 30
0.0
 40
0.0442075529010529
 50
204.7354115731641002
 51
222.2155920541057981
  0
ARC
  5
29F4C
  8
0
 10
3121.7081252304878944
 20
152.0913490724605026
 30
0.0
 40
0.0355039688448612
 50
172.1969684997540924
 51
204.7354115731641002
  0
ARC
  5
29F4D
  8
0
 10
3121.7037545422781477
 20
152.0919480178642118
 30
0.0
 40
0.0310924327147971
 50
145.839916628540692
 51
172.1969684997525007
  0
ARC
  5
29F4E
  8
0
 10
3121.7205406694970407
 20
152.0805572651669877
 30
0.0
 40
0.0513784701304842
 50
122.7834724129301947
 51
145.839916628540692
  0
ARC
  5
29F4F
  8
0
 10
3121.7376703164391074
 20
152.0539604100061979
 30
0.0
 40
0.0830141700403471
 50
93.3822760047068385
 51
122.7834724129301947
  0
ARC
  5
29F50
  8
0
 10
3121.7404377309039774
 20
152.0071348571997021
 30
0.0
 40
0.1299214293767807
 50
74.584530156534143
 51
93.3822760047068385
  0
ARC
  5
29F51
  8
0
 10
3121.7528689395358015
 20
152.0522185268231112
 30
0.0
 40
0.0831552854819973
 50
47.8608135702782675
 51
74.584530156534143
  0
ARC
  5
29F52
  8
0
 10
3121.7706837525870469
 20
152.0719074839375082
 30
0.0
 40
0.0566030238783478
 50
17.5060978863048291
 51
47.8608135702782675
  0
ARC
  5
29F53
  8
0
 10
3121.7943869284731591
 20
152.0793838401550033
 30
0.0
 40
0.0317487194343671
 50
307.4010939112325218
 51
17.5060978863048291
  0
LINE
  5
29F54
  8
0
 10
3121.8125585716197747
 20
152.0479130185204895
 30
0.0
 11
3121.8136708151369021
 21
152.0541625614231975
 31
0.0
  0
LINE
  5
29F55
  8
0
 10
3121.8136708151369021
 20
152.0541625614231975
 30
0.0
 11
3121.8210441923911276
 21
152.0977479253992044
 31
0.0
  0
ARC
  5
29F56
  8
0
 10
3123.1720902349561584
 20
151.0365700561513904
 30
0.0
 40
0.0255798350541456
 50
88.0567815038938306
 51
160.7387491416643002
  0
ARC
  5
29F57
  8
0
 10
3123.1719548831201791
 20
151.0325807388412045
 30
0.0
 40
0.0295714478510929
 50
34.7480882462538574
 51
88.0567815038938306
  0
ARC
  5
29F58
  8
0
 10
3123.1796854588337737
 20
151.0404449868671861
 30
0.0
 40
0.0188495359605226
 50
320.5747321033550747
 51
28.4873747456331294
  0
ARC
  5
29F59
  8
0
 10
3123.1756805893319324
 20
151.0432342988679011
 30
0.0
 40
0.0237177099216007
 50
298.2420902445472279
 51
321.5139246967158897
  0
ARC
  5
29F5A
  8
0
 10
3123.172986595382099
 20
151.0482497259299919
 30
0.0
 40
0.0294108735427872
 50
263.7367437130546932
 51
298.2420902445472279
  0
ARC
  5
29F5B
  8
0
 10
3123.1729225436561137
 20
151.0476661215269019
 30
0.0
 40
0.0288237647598669
 50
230.0880692151079074
 51
263.7367437130546932
  0
ARC
  5
29F5C
  8
0
 10
3123.1669662919539405
 20
151.040545538021604
 30
0.0
 40
0.0195404655730405
 50
166.7981625167311108
 51
230.0880692151069979
  0
ARC
  5
29F5D
  8
0
 10
3123.1573212941711972
 20
151.0454300586808074
 30
0.0
 40
0.0484572422601305
 50
141.3345973750122937
 51
189.4705109999198953
  0
ARC
  5
29F5E
  8
0
 10
3123.1697888008197879
 20
151.0354540567849142
 30
0.0
 40
0.064424688388718
 50
97.5345971341259883
 51
141.3345973750134874
  0
ARC
  5
29F5F
  8
0
 10
3123.171433526490091
 20
151.0230191517646858
 30
0.0
 40
0.0769678931383846
 50
51.2444478857468582
 51
97.5345971341259883
  0
ARC
  5
29F60
  8
0
 10
3123.1900569461040504
 20
151.0462188459412971
 30
0.0
 40
0.0472179760291364
 50
339.5802726858224787
 51
51.2444478857478884
  0
ARC
  5
29F61
  8
0
 10
3123.179899479613141
 20
151.0500003553594865
 30
0.0
 40
0.0580565155521089
 50
296.8319221186545178
 51
339.5802726858224787
  0
ARC
  5
29F62
  8
0
 10
3123.1732347043180198
 20
151.0631761222456078
 30
0.0
 40
0.0728220180079248
 50
233.0758354701096096
 51
296.8319221186545178
  0
ARC
  5
29F63
  8
0
 10
3123.160723404863802
 20
151.0465272645224104
 30
0.0
 40
0.0519961428160376
 50
190.0462407751305136
 51
233.0758354701096096
  0
ARC
  5
29F64
  8
0
 10
3123.1557346988711288
 20
151.0760649853318967
 30
0.0
 40
0.0602159939425495
 50
190.3529330467023044
 51
219.8783720275937981
  0
ARC
  5
29F65
  8
0
 10
3123.1465356704447913
 20
151.0743844578076107
 30
0.0
 40
0.0508647214760567
 50
158.0334457821539047
 51
190.3529330467023044
  0
ARC
  5
29F66
  8
0
 10
3123.1613573412168989
 20
151.0684061760466079
 30
0.0
 40
0.0668466418018999
 50
123.1389967347685968
 51
158.0334457821539047
  0
ARC
  5
29F67
  8
0
 10
3123.1723679407891723
 20
151.0515410528514906
 30
0.0
 40
0.0869877858438523
 50
79.6217305443158381
 51
123.1389967347685968
  0
ARC
  5
29F68
  8
0
 10
3123.172087537031075
 20
151.0500099826545011
 30
0.0
 40
0.0885443211680643
 50
45.3137536921034823
 51
79.6217305443158381
  0
ARC
  5
29F69
  8
0
 10
3123.1976097614460741
 20
151.075813270177207
 30
0.0
 40
0.0522511594695935
 50
7.1835713859401631
 51
45.3137536921034823
  0
ARC
  5
29F6A
  8
0
 10
3123.1906264449721675
 20
151.0749331063796035
 30
0.0
 40
0.059289724472353
 50
320.5669248704683127
 51
7.1835713859401631
  0
LINE
  5
29F6B
  8
0
 10
3123.1090808831040704
 20
151.0408510776119044
 30
0.0
 11
3123.0991646658590071
 21
151.0929103266240077
 31
0.0
  0
ARC
  5
29F6C
  8
0
 10
3123.1941928676128555
 20
151.1181779801798086
 30
0.0
 40
0.1063819563673368
 50
202.323443154514905
 51
213.5796342964862902
  0
LINE
  5
29F6D
  8
0
 10
3123.2369973899840261
 20
151.0411069002591091
 30
0.0
 11
3123.2467404094459198
 21
151.0935998688684947
 31
0.0
  0
ARC
  5
29F6E
  8
0
 10
3123.1864633141271952
 20
151.1014988642625099
 30
0.0
 40
0.0679849417791287
 50
322.7300972605555103
 51
338.8767615658400132
  0
ARC
  5
29F6F
  8
0
 10
3122.7042774000728969
 20
151.1586747970104057
 30
0.0
 40
0.0255798350541456
 50
88.0567815038938306
 51
160.7387491416643002
  0
ARC
  5
29F70
  8
0
 10
3122.7041420482391914
 20
151.1546854797001913
 30
0.0
 40
0.0295714478510929
 50
34.7480882462538574
 51
88.0567815038938306
  0
ARC
  5
29F71
  8
0
 10
3122.7118726239518764
 20
151.1625497277262866
 30
0.0
 40
0.0188495359605226
 50
320.5747321033550747
 51
28.4873747456331294
  0
ARC
  5
29F72
  8
0
 10
3122.7078677544500351
 20
151.1653390397270016
 30
0.0
 40
0.0237177099216007
 50
298.2420902445472279
 51
321.5139246967158897
  0
ARC
  5
29F73
  8
0
 10
3122.7051737605002018
 20
151.1703544667890924
 30
0.0
 40
0.0294108735427872
 50
263.7367437130546932
 51
298.2420902445472279
  0
ARC
  5
29F74
  8
0
 10
3122.7051097087742164
 20
151.1697708623860024
 30
0.0
 40
0.0288237647598669
 50
230.0880692151079074
 51
263.7367437130546932
  0
ARC
  5
29F75
  8
0
 10
3122.6991534570720432
 20
151.1626502788805908
 30
0.0
 40
0.0195404655730405
 50
166.7981625167311108
 51
230.0880692151069979
  0
ARC
  5
29F76
  8
0
 10
3122.6895084592888452
 20
151.1675347995397942
 30
0.0
 40
0.0484572422601305
 50
141.3345973750122937
 51
189.4705109999198953
  0
ARC
  5
29F77
  8
0
 10
3122.7019759659378906
 20
151.157558797643901
 30
0.0
 40
0.064424688388718
 50
97.5345971341259883
 51
141.3345973750134874
  0
ARC
  5
29F78
  8
0
 10
3122.7036206916081937
 20
151.1451238926237863
 30
0.0
 40
0.0769678931383846
 50
51.2444478857468582
 51
97.5345971341259883
  0
ARC
  5
29F79
  8
0
 10
3122.7222441112221532
 20
151.1683235868003123
 30
0.0
 40
0.0472179760291364
 50
339.5802726858224787
 51
51.2444478857478884
  0
ARC
  5
29F7A
  8
0
 10
3122.712086644730789
 20
151.1721050962185018
 30
0.0
 40
0.0580565155521089
 50
296.8319221186545178
 51
339.5802726858224787
  0
ARC
  5
29F7B
  8
0
 10
3122.705421869437032
 20
151.1852808631045946
 30
0.0
 40
0.0728220180079248
 50
233.0758354701096096
 51
296.8319221186545178
  0
ARC
  5
29F7C
  8
0
 10
3122.6929105699828142
 20
151.1686320053815109
 30
0.0
 40
0.0519961428160376
 50
190.0462407751305136
 51
233.0758354701096096
  0
ARC
  5
29F7D
  8
0
 10
3122.6879218639887767
 20
151.1981697261909119
 30
0.0
 40
0.0602159939425495
 50
190.3529330467023044
 51
219.8783720275937981
  0
ARC
  5
29F7E
  8
0
 10
3122.678722835562894
 20
151.1964891986665975
 30
0.0
 40
0.0508647214760567
 50
158.0334457821539047
 51
190.3529330467023044
  0
ARC
  5
29F7F
  8
0
 10
3122.6935445063350016
 20
151.1905109169055947
 30
0.0
 40
0.0668466418018999
 50
123.1389967347685968
 51
158.0334457821539047
  0
ARC
  5
29F80
  8
0
 10
3122.7045551059081845
 20
151.1736457937105058
 30
0.0
 40
0.0869877858438523
 50
79.6217305443158381
 51
123.1389967347685968
  0
ARC
  5
29F81
  8
0
 10
3122.7042747021500873
 20
151.1721147235136016
 30
0.0
 40
0.0885443211680643
 50
45.3137536921034823
 51
79.6217305443158381
  0
ARC
  5
29F82
  8
0
 10
3122.7297969265641768
 20
151.1979180110363075
 30
0.0
 40
0.0522511594695935
 50
7.1835713859401631
 51
45.3137536921034823
  0
ARC
  5
29F83
  8
0
 10
3122.722813610088906
 20
151.197037847238704
 30
0.0
 40
0.059289724472353
 50
320.5669248704683127
 51
7.1835713859401631
  0
LINE
  5
29F84
  8
0
 10
3122.6412680482221731
 20
151.1629558184710049
 30
0.0
 11
3122.6313518309771098
 21
151.2150150674831082
 31
0.0
  0
ARC
  5
29F85
  8
0
 10
3122.7263800327318677
 20
151.2402827210389091
 30
0.0
 40
0.1063819563673368
 50
202.323443154514905
 51
213.5796342964862902
  0
LINE
  5
29F86
  8
0
 10
3122.7691845551021288
 20
151.1632116411182096
 30
0.0
 11
3122.7789275745640225
 21
151.2157046097275099
 31
0.0
  0
ARC
  5
29F87
  8
0
 10
3122.7186504792448432
 20
151.2236036051216104
 30
0.0
 40
0.0679849417791287
 50
322.7300972605555103
 51
338.8767615658400132
  0
ARC
  5
29F88
  8
0
 10
3122.7371154743250372
 20
151.4611641022781043
 30
0.0
 40
0.0255798350541456
 50
88.0567815038938306
 51
160.7387491416643002
  0
ARC
  5
29F89
  8
0
 10
3122.7369801224899675
 20
151.45717478496789
 30
0.0
 40
0.0295714478510929
 50
34.7480882462538574
 51
88.0567815038938306
  0
ARC
  5
29F8A
  8
0
 10
3122.7447106982031073
 20
151.4650390329940137
 30
0.0
 40
0.0188495359605226
 50
320.5747321033550747
 51
28.4873747456331294
  0
ARC
  5
29F8B
  8
0
 10
3122.7407058287021755
 20
151.4678283449947003
 30
0.0
 40
0.0237177099216007
 50
298.2420902445472279
 51
321.5139246967158897
  0
ARC
  5
29F8C
  8
0
 10
3122.7380118347518874
 20
151.4728437720567911
 30
0.0
 40
0.0294108735427872
 50
263.7367437130546932
 51
298.2420902445472279
  0
ARC
  5
29F8D
  8
0
 10
3122.737947783025902
 20
151.472260167653701
 30
0.0
 40
0.0288237647598669
 50
230.0880692151079074
 51
263.7367437130546932
  0
ARC
  5
29F8E
  8
0
 10
3122.7319915313241836
 20
151.4651395841484032
 30
0.0
 40
0.0195404655730405
 50
166.7981625167311108
 51
230.0880692151069979
  0
ARC
  5
29F8F
  8
0
 10
3122.7223465335400761
 20
151.4700241048074929
 30
0.0
 40
0.0484572422601305
 50
141.3345973750122937
 51
189.4705109999198953
  0
ARC
  5
29F90
  8
0
 10
3122.7348140401891214
 20
151.4600481029115997
 30
0.0
 40
0.064424688388718
 50
97.5345971341259883
 51
141.3345973750134874
  0
ARC
  5
29F91
  8
0
 10
3122.7364587658598793
 20
151.4476131978915134
 30
0.0
 40
0.0769678931383846
 50
51.2444478857468582
 51
97.5345971341259883
  0
ARC
  5
29F92
  8
0
 10
3122.7550821854738388
 20
151.470812892068011
 30
0.0
 40
0.0472179760291364
 50
339.5802726858224787
 51
51.2444478857478884
  0
ARC
  5
29F93
  8
0
 10
3122.7449247189829293
 20
151.4745944014862005
 30
0.0
 40
0.0580565155521089
 50
296.8319221186545178
 51
339.5802726858224787
  0
ARC
  5
29F94
  8
0
 10
3122.7382599436878081
 20
151.4877701683722933
 30
0.0
 40
0.0728220180079248
 50
233.0758354701096096
 51
296.8319221186545178
  0
ARC
  5
29F95
  8
0
 10
3122.7257486442340451
 20
151.4711213106492096
 30
0.0
 40
0.0519961428160376
 50
190.0462407751305136
 51
233.0758354701096096
  0
ARC
  5
29F96
  8
0
 10
3122.7207599382409171
 20
151.5006590314586106
 30
0.0
 40
0.0602159939425495
 50
190.3529330467023044
 51
219.8783720275937981
  0
ARC
  5
29F97
  8
0
 10
3122.7115609098150344
 20
151.4989785039344099
 30
0.0
 40
0.0508647214760567
 50
158.0334457821539047
 51
190.3529330467023044
  0
ARC
  5
29F98
  8
0
 10
3122.726382580587142
 20
151.4930002221734071
 30
0.0
 40
0.0668466418018999
 50
123.1389967347685968
 51
158.0334457821539047
  0
ARC
  5
29F99
  8
0
 10
3122.7373931801589606
 20
151.4761350989782045
 30
0.0
 40
0.0869877858438523
 50
79.6217305443158381
 51
123.1389967347685968
  0
ARC
  5
29F9A
  8
0
 10
3122.7371127763999539
 20
151.4746040287813003
 30
0.0
 40
0.0885443211680643
 50
45.3137536921034823
 51
79.6217305443158381
  0
ARC
  5
29F9B
  8
0
 10
3122.7626350008158624
 20
151.5004073163040061
 30
0.0
 40
0.0522511594695935
 50
7.1835713859401631
 51
45.3137536921034823
  0
ARC
  5
29F9C
  8
0
 10
3122.7556516843410463
 20
151.4995271525064027
 30
0.0
 40
0.059289724472353
 50
320.5669248704683127
 51
7.1835713859401631
  0
LINE
  5
29F9D
  8
0
 10
3122.6741061224738587
 20
151.4654451237387036
 30
0.0
 11
3122.6641899052287954
 21
151.5175043727506932
 31
0.0
  0
ARC
  5
29F9E
  8
0
 10
3122.7592181069830986
 20
151.5427720263066078
 30
0.0
 40
0.1063819563673368
 50
202.323443154514905
 51
213.5796342964862902
  0
LINE
  5
29F9F
  8
0
 10
3122.8020226293538144
 20
151.4657009463859083
 30
0.0
 11
3122.8117656488161629
 21
151.5181939149952086
 31
0.0
  0
ARC
  5
29FA0
  8
0
 10
3122.7514885534969835
 20
151.5260929103891954
 30
0.0
 40
0.0679849417791287
 50
322.7300972605555103
 51
338.8767615658400132
  0
ARC
  5
29FA1
  8
0
 10
3123.0097941021658698
 20
151.3046943666508071
 30
0.0
 40
0.0255798350541456
 50
88.0567815038938306
 51
160.7387491416643002
  0
ARC
  5
29FA2
  8
0
 10
3123.0096587503321643
 20
151.3007050493405927
 30
0.0
 40
0.0295714478510929
 50
34.7480882462538574
 51
88.0567815038938306
  0
ARC
  5
29FA3
  8
0
 10
3123.0173893260439399
 20
151.3085692973666028
 30
0.0
 40
0.0188495359605226
 50
320.5747321033550747
 51
28.4873747456331294
  0
ARC
  5
29FA4
  8
0
 10
3123.0133844565430081
 20
151.311358609367403
 30
0.0
 40
0.0237177099216007
 50
298.2420902445472279
 51
321.5139246967158897
  0
ARC
  5
29FA5
  8
0
 10
3123.0106904625931747
 20
151.3163740364294938
 30
0.0
 40
0.0294108735427872
 50
263.7367437130546932
 51
298.2420902445472279
  0
ARC
  5
29FA6
  8
0
 10
3123.0106264108671894
 20
151.3157904320264038
 30
0.0
 40
0.0288237647598669
 50
230.0880692151079074
 51
263.7367437130546932
  0
ARC
  5
29FA7
  8
0
 10
3123.0046701591650162
 20
151.3086698485209922
 30
0.0
 40
0.0195404655730405
 50
166.7981625167311108
 51
230.0880692151069979
  0
ARC
  5
29FA8
  8
0
 10
3122.9950251613818182
 20
151.3135543691801956
 30
0.0
 40
0.0484572422601305
 50
141.3345973750122937
 51
189.4705109999198953
  0
ARC
  5
29FA9
  8
0
 10
3123.0074926680299541
 20
151.3035783672843024
 30
0.0
 40
0.064424688388718
 50
97.5345971341259883
 51
141.3345973750134874
  0
ARC
  5
29FAA
  8
0
 10
3123.0091373937011667
 20
151.2911434622641877
 30
0.0
 40
0.0769678931383846
 50
51.2444478857468582
 51
97.5345971341259883
  0
ARC
  5
29FAB
  8
0
 10
3123.0277608133151261
 20
151.3143431564407138
 30
0.0
 40
0.0472179760291364
 50
339.5802726858224787
 51
51.2444478857478884
  0
ARC
  5
29FAC
  8
0
 10
3123.0176033468242167
 20
151.3181246658589032
 30
0.0
 40
0.0580565155521089
 50
296.8319221186545178
 51
339.5802726858224787
  0
ARC
  5
29FAD
  8
0
 10
3123.0109385715290955
 20
151.331300432744996
 30
0.0
 40
0.0728220180079248
 50
233.0758354701096096
 51
296.8319221186545178
  0
ARC
  5
29FAE
  8
0
 10
3122.9984272720748777
 20
151.3146515750217986
 30
0.0
 40
0.0519961428160376
 50
190.0462407751305136
 51
233.0758354701096096
  0
ARC
  5
29FAF
  8
0
 10
3122.9934385660822045
 20
151.3441892958313133
 30
0.0
 40
0.0602159939425495
 50
190.3529330467023044
 51
219.8783720275937981
  0
ARC
  5
29FB0
  8
0
 10
3122.984239537655867
 20
151.3425087683069989
 30
0.0
 40
0.0508647214760567
 50
158.0334457821539047
 51
190.3529330467023044
  0
ARC
  5
29FB1
  8
0
 10
3122.9990612084279746
 20
151.3365304865459962
 30
0.0
 40
0.0668466418018999
 50
123.1389967347685968
 51
158.0334457821539047
  0
ARC
  5
29FB2
  8
0
 10
3123.0100718079997932
 20
151.3196653633509072
 30
0.0
 40
0.0869877858438523
 50
79.6217305443158381
 51
123.1389967347685968
  0
ARC
  5
29FB3
  8
0
 10
3123.0097914042421507
 20
151.318134293154003
 30
0.0
 40
0.0885443211680643
 50
45.3137536921034823
 51
79.6217305443158381
  0
ARC
  5
29FB4
  8
0
 10
3123.0353136286571498
 20
151.3439375806765952
 30
0.0
 40
0.0522511594695935
 50
7.1835713859401631
 51
45.3137536921034823
  0
ARC
  5
29FB5
  8
0
 10
3123.028330312181879
 20
151.3430574168791054
 30
0.0
 40
0.059289724472353
 50
320.5669248704683127
 51
7.1835713859401631
  0
LINE
  5
29FB6
  8
0
 10
3122.9467847503151461
 20
151.3089753881114063
 30
0.0
 11
3122.9368685330700828
 21
151.3610346371233959
 31
0.0
  0
ARC
  5
29FB7
  8
0
 10
3123.0318967348239312
 20
151.3863022906793105
 30
0.0
 40
0.1063819563673368
 50
202.323443154514905
 51
213.5796342964862902
  0
LINE
  5
29FB8
  8
0
 10
3123.0747012571951018
 20
151.309231210758611
 30
0.0
 11
3123.0844442766569955
 21
151.3617241793679113
 31
0.0
  0
ARC
  5
29FB9
  8
0
 10
3123.0241671813391804
 20
151.3696231747618981
 30
0.0
 40
0.0679849417791287
 50
322.7300972605555103
 51
338.8767615658400132
  0
ARC
  5
29FBA
  8
0
 10
3122.5986715623989767
 20
151.7237556446341955
 30
0.0
 40
0.0255798350541456
 50
88.0567815038938306
 51
160.7387491416643002
  0
ARC
  5
29FBB
  8
0
 10
3122.5985362105639069
 20
151.7197663273240096
 30
0.0
 40
0.0295714478510929
 50
34.7480882462538574
 51
88.0567815038938306
  0
ARC
  5
29FBC
  8
0
 10
3122.6062667862770468
 20
151.7276305753501049
 30
0.0
 40
0.0188495359605226
 50
320.5747321033550747
 51
28.4873747456331294
  0
ARC
  5
29FBD
  8
0
 10
3122.602261916776115
 20
151.7304198873507914
 30
0.0
 40
0.0237177099216007
 50
298.2420902445472279
 51
321.5139246967158897
  0
ARC
  5
29FBE
  8
0
 10
3122.5995679228258268
 20
151.7354353144129107
 30
0.0
 40
0.0294108735427872
 50
263.7367437130546932
 51
298.2420902445472279
  0
ARC
  5
29FBF
  8
0
 10
3122.5995038710998415
 20
151.7348517100097922
 30
0.0
 40
0.0288237647598669
 50
230.0880692151079074
 51
263.7367437130546932
  0
ARC
  5
29FC0
  8
0
 10
3122.5935476193981231
 20
151.7277311265044943
 30
0.0
 40
0.0195404655730405
 50
166.7981625167311108
 51
230.0880692151069979
  0
ARC
  5
29FC1
  8
0
 10
3122.5839026216140155
 20
151.7326156471636125
 30
0.0
 40
0.0484572422601305
 50
141.3345973750122937
 51
189.4705109999198953
  0
ARC
  5
29FC2
  8
0
 10
3122.5963701282630609
 20
151.7226396452676909
 30
0.0
 40
0.064424688388718
 50
97.5345971341259883
 51
141.3345973750134874
  0
ARC
  5
29FC3
  8
0
 10
3122.5980148539338188
 20
151.7102047402476046
 30
0.0
 40
0.0769678931383846
 50
51.2444478857468582
 51
97.5345971341259883
  0
ARC
  5
29FC4
  8
0
 10
3122.6166382735477782
 20
151.7334044344241875
 30
0.0
 40
0.0472179760291364
 50
339.5802726858224787
 51
51.2444478857478884
  0
ARC
  5
29FC5
  8
0
 10
3122.6064808070568688
 20
151.7371859438422916
 30
0.0
 40
0.0580565155521089
 50
296.8319221186545178
 51
339.5802726858224787
  0
ARC
  5
29FC6
  8
0
 10
3122.5998160317622023
 20
151.7503617107284981
 30
0.0
 40
0.0728220180079248
 50
233.0758354701096096
 51
296.8319221186545178
  0
ARC
  5
29FC7
  8
0
 10
3122.5873047323079845
 20
151.7337128530051871
 30
0.0
 40
0.0519961428160376
 50
190.0462407751305136
 51
233.0758354701096096
  0
ARC
  5
29FC8
  8
0
 10
3122.5823160263139471
 20
151.7632505738147017
 30
0.0
 40
0.0602159939425495
 50
190.3529330467023044
 51
219.8783720275937981
  0
ARC
  5
29FC9
  8
0
 10
3122.5731169978889739
 20
151.7615700462903874
 30
0.0
 40
0.0508647214760567
 50
158.0334457821539047
 51
190.3529330467023044
  0
ARC
  5
29FCA
  8
0
 10
3122.5879386686610815
 20
151.755591764529413
 30
0.0
 40
0.0668466418018999
 50
123.1389967347685968
 51
158.0334457821539047
  0
ARC
  5
29FCB
  8
0
 10
3122.5989492682329001
 20
151.7387266413344094
 30
0.0
 40
0.0869877858438523
 50
79.6217305443158381
 51
123.1389967347685968
  0
ARC
  5
29FCC
  8
0
 10
3122.5986688644748028
 20
151.7371955711373914
 30
0.0
 40
0.0885443211680643
 50
45.3137536921034823
 51
79.6217305443158381
  0
ARC
  5
29FCD
  8
0
 10
3122.6241910888898019
 20
151.762998858660012
 30
0.0
 40
0.0522511594695935
 50
7.1835713859401631
 51
45.3137536921034823
  0
ARC
  5
29FCE
  8
0
 10
3122.6172077724149858
 20
151.7621186948624938
 30
0.0
 40
0.059289724472353
 50
320.5669248704683127
 51
7.1835713859401631
  0
LINE
  5
29FCF
  8
0
 10
3122.5356622105477982
 20
151.7280366660947948
 30
0.0
 11
3122.5257459933040991
 21
151.780095915106898
 31
0.0
  0
ARC
  5
29FD0
  8
0
 10
3122.6207741950579475
 20
151.805363568662699
 30
0.0
 40
0.1063819563673368
 50
202.323443154514905
 51
213.5796342964862902
  0
LINE
  5
29FD1
  8
0
 10
3122.6635787174282086
 20
151.7282924887419995
 30
0.0
 11
3122.6733217368901023
 21
151.7807854573512998
 31
0.0
  0
ARC
  5
29FD2
  8
0
 10
3122.6130446415718325
 20
151.7886844527454002
 30
0.0
 40
0.0679849417791287
 50
322.7300972605555103
 51
338.8767615658400132
  0
ARC
  5
29FD3
  8
0
 10
3122.3811986189971321
 20
151.4861440695607087
 30
0.0
 40
0.0255798350541456
 50
88.0567815038938306
 51
160.7387491416643002
  0
ARC
  5
29FD4
  8
0
 10
3122.3810632671620624
 20
151.4821547522504943
 30
0.0
 40
0.0295714478510929
 50
34.7480882462538574
 51
88.0567815038938306
  0
ARC
  5
29FD5
  8
0
 10
3122.3887938428752022
 20
151.4900190002765044
 30
0.0
 40
0.0188495359605226
 50
320.5747321033550747
 51
28.4873747456331294
  0
ARC
  5
29FD6
  8
0
 10
3122.3847889733738157
 20
151.4928083122771909
 30
0.0
 40
0.0237177099216007
 50
298.2420902445472279
 51
321.5139246967158897
  0
ARC
  5
29FD7
  8
0
 10
3122.3820949794239823
 20
151.4978237393393101
 30
0.0
 40
0.0294108735427872
 50
263.7367437130546932
 51
298.2420902445472279
  0
ARC
  5
29FD8
  8
0
 10
3122.382030927697997
 20
151.4972401349361917
 30
0.0
 40
0.0288237647598669
 50
230.0880692151079074
 51
263.7367437130546932
  0
ARC
  5
29FD9
  8
0
 10
3122.3760746759958238
 20
151.4901195514308938
 30
0.0
 40
0.0195404655730405
 50
166.7981625167311108
 51
230.0880692151069979
  0
ARC
  5
29FDA
  8
0
 10
3122.366429678212171
 20
151.4950040720900972
 30
0.0
 40
0.0484572422601305
 50
141.3345973750122937
 51
189.4705109999198953
  0
ARC
  5
29FDB
  8
0
 10
3122.3788971848612164
 20
151.4850280701940903
 30
0.0
 40
0.064424688388718
 50
97.5345971341259883
 51
141.3345973750134874
  0
ARC
  5
29FDC
  8
0
 10
3122.3805419105319743
 20
151.4725931651740041
 30
0.0
 40
0.0769678931383846
 50
51.2444478857468582
 51
97.5345971341259883
  0
ARC
  5
29FDD
  8
0
 10
3122.3991653301459337
 20
151.4957928593505869
 30
0.0
 40
0.0472179760291364
 50
339.5802726858224787
 51
51.2444478857478884
  0
ARC
  5
29FDE
  8
0
 10
3122.3890078636550243
 20
151.4995743687688048
 30
0.0
 40
0.0580565155521089
 50
296.8319221186545178
 51
339.5802726858224787
  0
ARC
  5
29FDF
  8
0
 10
3122.382343088359903
 20
151.5127501356548976
 30
0.0
 40
0.0728220180079248
 50
233.0758354701096096
 51
296.8319221186545178
  0
ARC
  5
29FE0
  8
0
 10
3122.3698317889070495
 20
151.4961012779317002
 30
0.0
 40
0.0519961428160376
 50
190.0462407751305136
 51
233.0758354701096096
  0
ARC
  5
29FE1
  8
0
 10
3122.364843082913012
 20
151.5256389987411012
 30
0.0
 40
0.0602159939425495
 50
190.3529330467023044
 51
219.8783720275937981
  0
ARC
  5
29FE2
  8
0
 10
3122.3556440544871293
 20
151.5239584712169005
 30
0.0
 40
0.0508647214760567
 50
158.0334457821539047
 51
190.3529330467023044
  0
ARC
  5
29FE3
  8
0
 10
3122.3704657252587822
 20
151.5179801894558977
 30
0.0
 40
0.0668466418018999
 50
123.1389967347685968
 51
158.0334457821539047
  0
ARC
  5
29FE4
  8
0
 10
3122.3814763248310555
 20
151.5011150662608088
 30
0.0
 40
0.0869877858438523
 50
79.6217305443158381
 51
123.1389967347685968
  0
ARC
  5
29FE5
  8
0
 10
3122.3811959210729583
 20
151.4995839960637909
 30
0.0
 40
0.0885443211680643
 50
45.3137536921034823
 51
79.6217305443158381
  0
ARC
  5
29FE6
  8
0
 10
3122.4067181454879574
 20
151.5253872835864968
 30
0.0
 40
0.0522511594695935
 50
7.1835713859401631
 51
45.3137536921034823
  0
ARC
  5
29FE7
  8
0
 10
3122.3997348290131413
 20
151.5245071197888933
 30
0.0
 40
0.059289724472353
 50
320.5669248704683127
 51
7.1835713859401631
  0
LINE
  5
29FE8
  8
0
 10
3122.3181892671459536
 20
151.4904250910211942
 30
0.0
 11
3122.3082730499017998
 21
151.5424843400332975
 31
0.0
  0
ARC
  5
29FE9
  8
0
 10
3122.403301251656103
 20
151.5677519935892121
 30
0.0
 40
0.1063819563673368
 50
202.323443154514905
 51
213.5796342964862902
  0
LINE
  5
29FEA
  8
0
 10
3122.4461057740259093
 20
151.4906809136683989
 30
0.0
 11
3122.4558487934878031
 21
151.5431738822778129
 31
0.0
  0
ARC
  5
29FEB
  8
0
 10
3122.3955716981690784
 20
151.5510728776717997
 30
0.0
 40
0.0679849417791287
 50
322.7300972605555103
 51
338.8767615658400132
  0
ARC
  5
29FEC
  8
0
 10
3122.6471861724480732
 20
152.0103882269199005
 30
0.0
 40
0.0255798350541456
 50
88.0567815038938306
 51
160.7387491416643002
  0
ARC
  5
29FED
  8
0
 10
3122.6470508206139129
 20
152.0063989096096861
 30
0.0
 40
0.0295714478510929
 50
34.7480882462538574
 51
88.0567815038938306
  0
ARC
  5
29FEE
  8
0
 10
3122.6547813963261433
 20
152.0142631576356962
 30
0.0
 40
0.0188495359605226
 50
320.5747321033550747
 51
28.4873747456331294
  0
ARC
  5
29FEF
  8
0
 10
3122.6507765268252115
 20
152.0170524696364112
 30
0.0
 40
0.0237177099216007
 50
298.2420902445472279
 51
321.5139246967158897
  0
ARC
  5
29FF0
  8
0
 10
3122.6480825328749233
 20
152.022067896698502
 30
0.0
 40
0.0294108735427872
 50
263.7367437130546932
 51
298.2420902445472279
  0
ARC
  5
29FF1
  8
0
 10
3122.648018481148938
 20
152.0214842922954119
 30
0.0
 40
0.0288237647598669
 50
230.0880692151079074
 51
263.7367437130546932
  0
ARC
  5
29FF2
  8
0
 10
3122.6420622294472196
 20
152.0143637087901141
 30
0.0
 40
0.0195404655730405
 50
166.7981625167311108
 51
230.0880692151069979
  0
ARC
  5
29FF3
  8
0
 10
3122.632417231663112
 20
152.0192482294492891
 30
0.0
 40
0.0484572422601305
 50
141.3345973750122937
 51
189.4705109999198953
  0
ARC
  5
29FF4
  8
0
 10
3122.6448847383121574
 20
152.0092722275533106
 30
0.0
 40
0.064424688388718
 50
97.5345971341259883
 51
141.3345973750134874
  0
ARC
  5
29FF5
  8
0
 10
3122.6465294639829153
 20
151.9968373225331959
 30
0.0
 40
0.0769678931383846
 50
51.2444478857468582
 51
97.5345971341259883
  0
ARC
  5
29FF6
  8
0
 10
3122.6651528835968747
 20
152.0200370167098072
 30
0.0
 40
0.0472179760291364
 50
339.5802726858224787
 51
51.2444478857478884
  0
ARC
  5
29FF7
  8
0
 10
3122.6549954171068748
 20
152.0238185261279114
 30
0.0
 40
0.0580565155521089
 50
296.8319221186545178
 51
339.5802726858224787
  0
ARC
  5
29FF8
  8
0
 10
3122.6483306418122083
 20
152.0369942930140894
 30
0.0
 40
0.0728220180079248
 50
233.0758354701096096
 51
296.8319221186545178
  0
ARC
  5
29FF9
  8
0
 10
3122.6358193423579905
 20
152.0203454352908921
 30
0.0
 40
0.0519961428160376
 50
190.0462407751305136
 51
233.0758354701096096
  0
ARC
  5
29FFA
  8
0
 10
3122.6308306363639531
 20
152.049883156100293
 30
0.0
 40
0.0602159939425495
 50
190.3529330467023044
 51
219.8783720275937981
  0
ARC
  5
29FFB
  8
0
 10
3122.6216316079380704
 20
152.0482026285760924
 30
0.0
 40
0.0508647214760567
 50
158.0334457821539047
 51
190.3529330467023044
  0
ARC
  5
29FFC
  8
0
 10
3122.636453278710178
 20
152.0422243468150896
 30
0.0
 40
0.0668466418018999
 50
123.1389967347685968
 51
158.0334457821539047
  0
ARC
  5
29FFD
  8
0
 10
3122.6474638782819966
 20
152.0253592236200006
 30
0.0
 40
0.0869877858438523
 50
79.6217305443158381
 51
123.1389967347685968
  0
ARC
  5
29FFE
  8
0
 10
3122.6471834745238993
 20
152.0238281534230964
 30
0.0
 40
0.0885443211680643
 50
45.3137536921034823
 51
79.6217305443158381
  0
ARC
  5
29FFF
  8
0
 10
3122.6727056989388984
 20
152.0496314409456886
 30
0.0
 40
0.0522511594695935
 50
7.1835713859401631
 51
45.3137536921034823
  0
ARC
  5
2A000
  8
0
 10
3122.6657223824640823
 20
152.0487512771481136
 30
0.0
 40
0.059289724472353
 50
320.5669248704683127
 51
7.1835713859401631
  0
LINE
  5
2A001
  8
0
 10
3122.5841768205968947
 20
152.0146692483803861
 30
0.0
 11
3122.5742606033518314
 21
152.0667284973924893
 31
0.0
  0
ARC
  5
2A002
  8
0
 10
3122.669288805107044
 20
152.0919961509482903
 30
0.0
 40
0.1063819563673368
 50
202.323443154514905
 51
213.5796342964862902
  0
LINE
  5
2A003
  8
0
 10
3122.7120933274768504
 20
152.0149250710275908
 30
0.0
 11
3122.7218363469401083
 21
152.0674180396368911
 31
0.0
  0
ARC
  5
2A004
  8
0
 10
3122.6615592516200195
 20
152.0753170350309915
 30
0.0
 40
0.0679849417791287
 50
322.7300972605555103
 51
338.8767615658400132
  0
ARC
  5
2A005
  8
0
 10
3122.8619245137278995
 20
152.2294988203732942
 30
0.0
 40
0.0255798350541456
 50
88.0567815038938306
 51
160.7387491416643002
  0
ARC
  5
2A006
  8
0
 10
3122.8617891618928297
 20
152.2255095030631082
 30
0.0
 40
0.0295714478510929
 50
34.7480882462538574
 51
88.0567815038938306
  0
ARC
  5
2A007
  8
0
 10
3122.8695197376059696
 20
152.2333737510890899
 30
0.0
 40
0.0188495359605226
 50
320.5747321033550747
 51
28.4873747456331294
  0
ARC
  5
2A008
  8
0
 10
3122.8655148681050377
 20
152.2361630630898901
 30
0.0
 40
0.0237177099216007
 50
298.2420902445472279
 51
321.5139246967158897
  0
ARC
  5
2A009
  8
0
 10
3122.8628208741552044
 20
152.2411784901518956
 30
0.0
 40
0.0294108735427872
 50
263.7367437130546932
 51
298.2420902445472279
  0
ARC
  5
2A00A
  8
0
 10
3122.8627568224278548
 20
152.2405948857488056
 30
0.0
 40
0.0288237647598669
 50
230.0880692151079074
 51
263.7367437130546932
  0
ARC
  5
2A00B
  8
0
 10
3122.8568005707270459
 20
152.2334743022435077
 30
0.0
 40
0.0195404655730405
 50
166.7981625167311108
 51
230.0880692151069979
  0
ARC
  5
2A00C
  8
0
 10
3122.8471555729429383
 20
152.2383588229027112
 30
0.0
 40
0.0484572422601305
 50
141.3345973750122937
 51
189.4705109999198953
  0
ARC
  5
2A00D
  8
0
 10
3122.8596230795919837
 20
152.2283828210067895
 30
0.0
 40
0.064424688388718
 50
97.5345971341259883
 51
141.3345973750134874
  0
ARC
  5
2A00E
  8
0
 10
3122.8612678052631964
 20
152.2159479159865896
 30
0.0
 40
0.0769678931383846
 50
51.2444478857468582
 51
97.5345971341259883
  0
ARC
  5
2A00F
  8
0
 10
3122.8798912248771558
 20
152.2391476101632009
 30
0.0
 40
0.0472179760291364
 50
339.5802726858224787
 51
51.2444478857478884
  0
ARC
  5
2A010
  8
0
 10
3122.8697337583871558
 20
152.2429291195813903
 30
0.0
 40
0.0580565155521089
 50
296.8319221186545178
 51
339.5802726858224787
  0
ARC
  5
2A011
  8
0
 10
3122.8630689830911251
 20
152.2561048864675115
 30
0.0
 40
0.0728220180079248
 50
233.0758354701096096
 51
296.8319221186545178
  0
ARC
  5
2A012
  8
0
 10
3122.8505576836378168
 20
152.2394560287443142
 30
0.0
 40
0.0519961428160376
 50
190.0462407751305136
 51
233.0758354701096096
  0
ARC
  5
2A013
  8
0
 10
3122.8455689776428699
 20
152.2689937495538004
 30
0.0
 40
0.0602159939425495
 50
190.3529330467023044
 51
219.8783720275937981
  0
ARC
  5
2A014
  8
0
 10
3122.8363699492169872
 20
152.267313222029486
 30
0.0
 40
0.0508647214760567
 50
158.0334457821539047
 51
190.3529330467023044
  0
ARC
  5
2A015
  8
0
 10
3122.8511916199900043
 20
152.2613349402685117
 30
0.0
 40
0.0668466418018999
 50
123.1389967347685968
 51
158.0334457821539047
  0
ARC
  5
2A016
  8
0
 10
3122.8622022195618229
 20
152.2444698170733943
 30
0.0
 40
0.0869877858438523
 50
79.6217305443158381
 51
123.1389967347685968
  0
ARC
  5
2A017
  8
0
 10
3122.8619218158041804
 20
152.2429387468764901
 30
0.0
 40
0.0885443211680643
 50
45.3137536921034823
 51
79.6217305443158381
  0
ARC
  5
2A018
  8
0
 10
3122.8874440402191794
 20
152.2687420343991107
 30
0.0
 40
0.0522511594695935
 50
7.1835713859401631
 51
45.3137536921034823
  0
ARC
  5
2A019
  8
0
 10
3122.8804607237439086
 20
152.2678618706015925
 30
0.0
 40
0.059289724472353
 50
320.5669248704683127
 51
7.1835713859401631
  0
LINE
  5
2A01A
  8
0
 10
3122.7989151618771757
 20
152.2337798418338082
 30
0.0
 11
3122.7889989446321124
 21
152.2858390908459114
 31
0.0
  0
ARC
  5
2A01B
  8
0
 10
3122.8840271463868703
 20
152.3111067444017976
 30
0.0
 40
0.1063819563673368
 50
202.323443154514905
 51
213.5796342964862902
  0
LINE
  5
2A01C
  8
0
 10
3122.9268316687571314
 20
152.2340356644810981
 30
0.0
 11
3122.9365746882190251
 21
152.2865286330903984
 31
0.0
  0
ARC
  5
2A01D
  8
0
 10
3122.87629759290121
 20
152.2944276284844136
 30
0.0
 40
0.0679849417791287
 50
322.7300972605555103
 51
338.8767615658400132
  0
ARC
  5
2A01E
  8
0
 10
3123.1831423306389297
 20
152.3157542309247958
 30
0.0
 40
0.0255798350541456
 50
88.0567815038938306
 51
160.7387491416643002
  0
ARC
  5
2A01F
  8
0
 10
3123.18300697880386
 20
152.3117649136146099
 30
0.0
 40
0.0295714478510929
 50
34.7480882462538574
 51
88.0567815038938306
  0
ARC
  5
2A020
  8
0
 10
3123.1907375545169998
 20
152.3196291616407052
 30
0.0
 40
0.0188495359605226
 50
320.5747321033550747
 51
28.4873747456331294
  0
ARC
  5
2A021
  8
0
 10
3123.186732685016068
 20
152.3224184736413918
 30
0.0
 40
0.0237177099216007
 50
298.2420902445472279
 51
321.5139246967158897
  0
ARC
  5
2A022
  8
0
 10
3123.1840386910657799
 20
152.327433900703511
 30
0.0
 40
0.0294108735427872
 50
263.7367437130546932
 51
298.2420902445472279
  0
ARC
  5
2A023
  8
0
 10
3123.183974639338885
 20
152.3268502963003925
 30
0.0
 40
0.0288237647598669
 50
230.0880692151079074
 51
263.7367437130546932
  0
ARC
  5
2A024
  8
0
 10
3123.1780183876380761
 20
152.3197297127950947
 30
0.0
 40
0.0195404655730405
 50
166.7981625167311108
 51
230.0880692151069979
  0
ARC
  5
2A025
  8
0
 10
3123.1683733898539685
 20
152.3246142334542128
 30
0.0
 40
0.0484572422601305
 50
141.3345973750122937
 51
189.4705109999198953
  0
ARC
  5
2A026
  8
0
 10
3123.1808408965030139
 20
152.3146382315582912
 30
0.0
 40
0.064424688388718
 50
97.5345971341259883
 51
141.3345973750134874
  0
ARC
  5
2A027
  8
0
 10
3123.1824856221742266
 20
152.3022033265382049
 30
0.0
 40
0.0769678931383846
 50
51.2444478857468582
 51
97.5345971341259883
  0
ARC
  5
2A028
  8
0
 10
3123.201109041788186
 20
152.3254030207147025
 30
0.0
 40
0.0472179760291364
 50
339.5802726858224787
 51
51.2444478857478884
  0
ARC
  5
2A029
  8
0
 10
3123.1909515752981861
 20
152.329184530132892
 30
0.0
 40
0.0580565155521089
 50
296.8319221186545178
 51
339.5802726858224787
  0
ARC
  5
2A02A
  8
0
 10
3123.1842868000030649
 20
152.3423602970190132
 30
0.0
 40
0.0728220180079248
 50
233.0758354701096096
 51
296.8319221186545178
  0
ARC
  5
2A02B
  8
0
 10
3123.1717755005479376
 20
152.3257114392959011
 30
0.0
 40
0.0519961428160376
 50
190.0462407751305136
 51
233.0758354701096096
  0
ARC
  5
2A02C
  8
0
 10
3123.1667867945539001
 20
152.3552491601053021
 30
0.0
 40
0.0602159939425495
 50
190.3529330467023044
 51
219.8783720275937981
  0
ARC
  5
2A02D
  8
0
 10
3123.1575877661289269
 20
152.3535686325809877
 30
0.0
 40
0.0508647214760567
 50
158.0334457821539047
 51
190.3529330467023044
  0
ARC
  5
2A02E
  8
0
 10
3123.1724094369010345
 20
152.3475903508200986
 30
0.0
 40
0.0668466418018999
 50
123.1389967347685968
 51
158.0334457821539047
  0
ARC
  5
2A02F
  8
0
 10
3123.1834200364728531
 20
152.330725227624896
 30
0.0
 40
0.0869877858438523
 50
79.6217305443158381
 51
123.1389967347685968
  0
ARC
  5
2A030
  8
0
 10
3123.1831396327152106
 20
152.3291941574279917
 30
0.0
 40
0.0885443211680643
 50
45.3137536921034823
 51
79.6217305443158381
  0
ARC
  5
2A031
  8
0
 10
3123.2086618571302097
 20
152.3549974449506124
 30
0.0
 40
0.0522511594695935
 50
7.1835713859401631
 51
45.3137536921034823
  0
ARC
  5
2A032
  8
0
 10
3123.2016785406549388
 20
152.3541172811530942
 30
0.0
 40
0.059289724472353
 50
320.5669248704683127
 51
7.1835713859401631
  0
LINE
  5
2A033
  8
0
 10
3123.1201329787882059
 20
152.3200352523853951
 30
0.0
 11
3123.1102167615431426
 21
152.3720945013974983
 31
0.0
  0
ARC
  5
2A034
  8
0
 10
3123.2052449632979005
 20
152.3973621549532993
 30
0.0
 40
0.1063819563673368
 50
202.323443154514905
 51
213.5796342964862902
  0
LINE
  5
2A035
  8
0
 10
3123.2480494856681617
 20
152.3202910750325998
 30
0.0
 11
3123.2577925051309649
 21
152.3727840436419001
 31
0.0
  0
ARC
  5
2A036
  8
0
 10
3123.197515409810876
 20
152.3806830390360005
 30
0.0
 40
0.0679849417791287
 50
322.7300972605555103
 51
338.8767615658400132
  0
ARC
  5
2A037
  8
0
 10
3122.5252750478971393
 20
152.3131820904424103
 30
0.0
 40
0.0255798350541456
 50
88.0567815038938306
 51
160.7387491416643002
  0
ARC
  5
2A038
  8
0
 10
3122.5251396960620696
 20
152.309192773132196
 30
0.0
 40
0.0295714478510929
 50
34.7480882462538574
 51
88.0567815038938306
  0
ARC
  5
2A039
  8
0
 10
3122.5328702717752094
 20
152.3170570211582913
 30
0.0
 40
0.0188495359605226
 50
320.5747321033550747
 51
28.4873747456331294
  0
ARC
  5
2A03A
  8
0
 10
3122.5288654022729133
 20
152.3198463331590062
 30
0.0
 40
0.0237177099216007
 50
298.2420902445472279
 51
321.5139246967158897
  0
ARC
  5
2A03B
  8
0
 10
3122.5261714083239895
 20
152.324861760221097
 30
0.0
 40
0.0294108735427872
 50
263.7367437130546932
 51
298.2420902445472279
  0
ARC
  5
2A03C
  8
0
 10
3122.5261073565970946
 20
152.3242781558178933
 30
0.0
 40
0.0288237647598669
 50
230.0880692151079074
 51
263.7367437130546932
  0
ARC
  5
2A03D
  8
0
 10
3122.5201511048949214
 20
152.3171575723127091
 30
0.0
 40
0.0195404655730405
 50
166.7981625167311108
 51
230.0880692151069979
  0
ARC
  5
2A03E
  8
0
 10
3122.5105061071121781
 20
152.3220420929717989
 30
0.0
 40
0.0484572422601305
 50
141.3345973750122937
 51
189.4705109999198953
  0
ARC
  5
2A03F
  8
0
 10
3122.5229736137612235
 20
152.3120660910759057
 30
0.0
 40
0.064424688388718
 50
97.5345971341259883
 51
141.3345973750134874
  0
ARC
  5
2A040
  8
0
 10
3122.5246183394310719
 20
152.299631186055791
 30
0.0
 40
0.0769678931383846
 50
51.2444478857468582
 51
97.5345971341259883
  0
ARC
  5
2A041
  8
0
 10
3122.5432417590450314
 20
152.3228308802322886
 30
0.0
 40
0.0472179760291364
 50
339.5802726858224787
 51
51.2444478857478884
  0
ARC
  5
2A042
  8
0
 10
3122.5330842925550314
 20
152.3266123896505064
 30
0.0
 40
0.0580565155521089
 50
296.8319221186545178
 51
339.5802726858224787
  0
ARC
  5
2A043
  8
0
 10
3122.5264195172599102
 20
152.3397881565365992
 30
0.0
 40
0.0728220180079248
 50
233.0758354701096096
 51
296.8319221186545178
  0
ARC
  5
2A044
  8
0
 10
3122.5139082178061471
 20
152.3231392988134019
 30
0.0
 40
0.0519961428160376
 50
190.0462407751305136
 51
233.0758354701096096
  0
ARC
  5
2A045
  8
0
 10
3122.5089195118121097
 20
152.3526770196228881
 30
0.0
 40
0.0602159939425495
 50
190.3529330467023044
 51
219.8783720275937981
  0
ARC
  5
2A046
  8
0
 10
3122.499720483386227
 20
152.3509964920986022
 30
0.0
 40
0.0508647214760567
 50
158.0334457821539047
 51
190.3529330467023044
  0
ARC
  5
2A047
  8
0
 10
3122.5145421541587893
 20
152.3450182103375994
 30
0.0
 40
0.0668466418018999
 50
123.1389967347685968
 51
158.0334457821539047
  0
ARC
  5
2A048
  8
0
 10
3122.5255527537310627
 20
152.3281530871425105
 30
0.0
 40
0.0869877858438523
 50
79.6217305443158381
 51
123.1389967347685968
  0
ARC
  5
2A049
  8
0
 10
3122.5252723499729655
 20
152.3266220169456062
 30
0.0
 40
0.0885443211680643
 50
45.3137536921034823
 51
79.6217305443158381
  0
ARC
  5
2A04A
  8
0
 10
3122.5507945743879645
 20
152.3524253044681984
 30
0.0
 40
0.0522511594695935
 50
7.1835713859401631
 51
45.3137536921034823
  0
ARC
  5
2A04B
  8
0
 10
3122.5438112579131484
 20
152.3515451406707086
 30
0.0
 40
0.059289724472353
 50
320.5669248704683127
 51
7.1835713859401631
  0
LINE
  5
2A04C
  8
0
 10
3122.4622656960459608
 20
152.3174631119030096
 30
0.0
 11
3122.4523494788008975
 21
152.3695223609149991
 31
0.0
  0
ARC
  5
2A04D
  8
0
 10
3122.5473776805561101
 20
152.3947900144709138
 30
0.0
 40
0.1063819563673368
 50
202.323443154514905
 51
213.5796342964862902
  0
LINE
  5
2A04E
  8
0
 10
3122.590182202925007
 20
152.3177189345501858
 30
0.0
 11
3122.5999252223878102
 21
152.3702119031594862
 31
0.0
  0
ARC
  5
2A04F
  8
0
 10
3122.5396481270690856
 20
152.3781108985535013
 30
0.0
 40
0.0679849417791287
 50
322.7300972605555103
 51
338.8767615658400132
  0
ARC
  5
2A050
  8
0
 10
3122.9273582400619489
 20
152.5453209128916967
 30
0.0
 40
0.0255798350541456
 50
88.0567815038938306
 51
160.7387491416643002
  0
ARC
  5
2A051
  8
0
 10
3122.9272228882277886
 20
152.5413315955813971
 30
0.0
 40
0.0295714478510929
 50
34.7480882462538574
 51
88.0567815038938306
  0
ARC
  5
2A052
  8
0
 10
3122.934953463940019
 20
152.5491958436074924
 30
0.0
 40
0.0188495359605226
 50
320.5747321033550747
 51
28.4873747456331294
  0
ARC
  5
2A053
  8
0
 10
3122.9309485944390872
 20
152.5519851556082074
 30
0.0
 40
0.0237177099216007
 50
298.2420902445472279
 51
321.5139246967158897
  0
ARC
  5
2A054
  8
0
 10
3122.928254600488799
 20
152.5570005826702982
 30
0.0
 40
0.0294108735427872
 50
263.7367437130546932
 51
298.2420902445472279
  0
ARC
  5
2A055
  8
0
 10
3122.9281905487619042
 20
152.5564169782672082
 30
0.0
 40
0.0288237647598669
 50
230.0880692151079074
 51
263.7367437130546932
  0
ARC
  5
2A056
  8
0
 10
3122.9222342970610953
 20
152.5492963947619103
 30
0.0
 40
0.0195404655730405
 50
166.7981625167311108
 51
230.0880692151069979
  0
ARC
  5
2A057
  8
0
 10
3122.9125892992778972
 20
152.554180915421
 30
0.0
 40
0.0484572422601305
 50
141.3345973750122937
 51
189.4705109999198953
  0
ARC
  5
2A058
  8
0
 10
3122.9250568059260331
 20
152.5442049135251921
 30
0.0
 40
0.064424688388718
 50
97.5345971341259883
 51
141.3345973750134874
  0
ARC
  5
2A059
  8
0
 10
3122.926701531596791
 20
152.5317700085049921
 30
0.0
 40
0.0769678931383846
 50
51.2444478857468582
 51
97.5345971341259883
  0
ARC
  5
2A05A
  8
0
 10
3122.9453249512112052
 20
152.5549697026816034
 30
0.0
 40
0.0472179760291364
 50
339.5802726858224787
 51
51.2444478857478884
  0
ARC
  5
2A05B
  8
0
 10
3122.9351674847212053
 20
152.5587512120997928
 30
0.0
 40
0.0580565155521089
 50
296.8319221186545178
 51
339.5802726858224787
  0
ARC
  5
2A05C
  8
0
 10
3122.928502709426084
 20
152.571926978985914
 30
0.0
 40
0.0728220180079248
 50
233.0758354701096096
 51
296.8319221186545178
  0
ARC
  5
2A05D
  8
0
 10
3122.9159914099718662
 20
152.5552781212626883
 30
0.0
 40
0.0519961428160376
 50
190.0462407751305136
 51
233.0758354701096096
  0
ARC
  5
2A05E
  8
0
 10
3122.9110027039778288
 20
152.5848158420720893
 30
0.0
 40
0.0602159939425495
 50
190.3529330467023044
 51
219.8783720275937981
  0
ARC
  5
2A05F
  8
0
 10
3122.9018036755519461
 20
152.5831353145478886
 30
0.0
 40
0.0508647214760567
 50
158.0334457821539047
 51
190.3529330467023044
  0
ARC
  5
2A060
  8
0
 10
3122.9166253463240537
 20
152.5771570327868858
 30
0.0
 40
0.0668466418018999
 50
123.1389967347685968
 51
158.0334457821539047
  0
ARC
  5
2A061
  8
0
 10
3122.9276359458958723
 20
152.5602919095917969
 30
0.0
 40
0.0869877858438523
 50
79.6217305443158381
 51
123.1389967347685968
  0
ARC
  5
2A062
  8
0
 10
3122.927355542137775
 20
152.5587608393948926
 30
0.0
 40
0.0885443211680643
 50
45.3137536921034823
 51
79.6217305443158381
  0
ARC
  5
2A063
  8
0
 10
3122.9528777665527741
 20
152.5845641269175132
 30
0.0
 40
0.0522511594695935
 50
7.1835713859401631
 51
45.3137536921034823
  0
ARC
  5
2A064
  8
0
 10
3122.945894450077958
 20
152.583683963119995
 30
0.0
 40
0.059289724472353
 50
320.5669248704683127
 51
7.1835713859401631
  0
LINE
  5
2A065
  8
0
 10
3122.8643488882112251
 20
152.5496019343522107
 30
0.0
 11
3122.8544326709661618
 21
152.601661183364314
 31
0.0
  0
ARC
  5
2A066
  8
0
 10
3122.9494608727209197
 20
152.6269288369200865
 30
0.0
 40
0.1063819563673368
 50
202.323443154514905
 51
213.5796342964862902
  0
LINE
  5
2A067
  8
0
 10
3122.9922653950911808
 20
152.5498577569995007
 30
0.0
 11
3123.0020084145530745
 21
152.602350725608801
 31
0.0
  0
ARC
  5
2A068
  8
0
 10
3122.9417313192338952
 20
152.6102497210027877
 30
0.0
 40
0.0679849417791287
 50
322.7300972605555103
 51
338.8767615658400132
  0
ARC
  5
2A069
  8
0
 10
3122.3127584198459772
 20
151.915658312917401
 30
0.0
 40
0.0255798350541456
 50
88.0567815038938306
 51
160.7387491416643002
  0
ARC
  5
2A06A
  8
0
 10
3122.3126230680109074
 20
151.9116689956071866
 30
0.0
 40
0.0295714478510929
 50
34.7480882462538574
 51
88.0567815038938306
  0
ARC
  5
2A06B
  8
0
 10
3122.3203536437240473
 20
151.9195332436331967
 30
0.0
 40
0.0188495359605226
 50
320.5747321033550747
 51
28.4873747456331294
  0
ARC
  5
2A06C
  8
0
 10
3122.316348774222206
 20
151.9223225556339969
 30
0.0
 40
0.0237177099216007
 50
298.2420902445472279
 51
321.5139246967158897
  0
ARC
  5
2A06D
  8
0
 10
3122.3136547802728273
 20
151.9273379826960024
 30
0.0
 40
0.0294108735427872
 50
263.7367437130546932
 51
298.2420902445472279
  0
ARC
  5
2A06E
  8
0
 10
3122.313590728546842
 20
151.9267543782929124
 30
0.0
 40
0.0288237647598669
 50
230.0880692151079074
 51
263.7367437130546932
  0
ARC
  5
2A06F
  8
0
 10
3122.3076344768451236
 20
151.9196337947875861
 30
0.0
 40
0.0195404655730405
 50
166.7981625167311108
 51
230.0880692151069979
  0
ARC
  5
2A070
  8
0
 10
3122.297989479061016
 20
151.9245183154467895
 30
0.0
 40
0.0484572422601305
 50
141.3345973750122937
 51
189.4705109999198953
  0
ARC
  5
2A071
  8
0
 10
3122.3104569857100614
 20
151.9145423135508111
 30
0.0
 40
0.064424688388718
 50
97.5345971341259883
 51
141.3345973750134874
  0
ARC
  5
2A072
  8
0
 10
3122.3121017113808193
 20
151.9021074085306964
 30
0.0
 40
0.0769678931383846
 50
51.2444478857468582
 51
97.5345971341259883
  0
ARC
  5
2A073
  8
0
 10
3122.3307251309947787
 20
151.9253071027073076
 30
0.0
 40
0.0472179760291364
 50
339.5802726858224787
 51
51.2444478857478884
  0
ARC
  5
2A074
  8
0
 10
3122.3205676645038693
 20
151.9290886121254971
 30
0.0
 40
0.0580565155521089
 50
296.8319221186545178
 51
339.5802726858224787
  0
ARC
  5
2A075
  8
0
 10
3122.3139028892092028
 20
151.9422643790115899
 30
0.0
 40
0.0728220180079248
 50
233.0758354701096096
 51
296.8319221186545178
  0
ARC
  5
2A076
  8
0
 10
3122.301391589754985
 20
151.9256155212883925
 30
0.0
 40
0.0519961428160376
 50
190.0462407751305136
 51
233.0758354701096096
  0
ARC
  5
2A077
  8
0
 10
3122.2964028837618571
 20
151.9551532420979072
 30
0.0
 40
0.0602159939425495
 50
190.3529330467023044
 51
219.8783720275937981
  0
ARC
  5
2A078
  8
0
 10
3122.2872038553350649
 20
151.9534727145735928
 30
0.0
 40
0.0508647214760567
 50
158.0334457821539047
 51
190.3529330467023044
  0
ARC
  5
2A079
  8
0
 10
3122.302025526108082
 20
151.94749443281259
 30
0.0
 40
0.0668466418018999
 50
123.1389967347685968
 51
158.0334457821539047
  0
ARC
  5
2A07A
  8
0
 10
3122.3130361256799006
 20
151.9306293096175011
 30
0.0
 40
0.0869877858438523
 50
79.6217305443158381
 51
123.1389967347685968
  0
ARC
  5
2A07B
  8
0
 10
3122.3127557219208938
 20
151.9290982394205116
 30
0.0
 40
0.0885443211680643
 50
45.3137536921034823
 51
79.6217305443158381
  0
ARC
  5
2A07C
  8
0
 10
3122.3382779463368024
 20
151.9549015269431891
 30
0.0
 40
0.0522511594695935
 50
7.1835713859401631
 51
45.3137536921034823
  0
ARC
  5
2A07D
  8
0
 10
3122.3312946298619863
 20
151.954021363145614
 30
0.0
 40
0.059289724472353
 50
320.5669248704683127
 51
7.1835713859401631
  0
LINE
  5
2A07E
  8
0
 10
3122.2497490679947987
 20
151.9199393343778866
 30
0.0
 11
3122.2398328507501901
 21
151.9719985833899898
 31
0.0
  0
ARC
  5
2A07F
  8
0
 10
3122.3348610525040385
 20
151.9972662369457908
 30
0.0
 40
0.1063819563673368
 50
202.323443154514905
 51
213.5796342964862902
  0
LINE
  5
2A080
  8
0
 10
3122.3776655748738449
 20
151.9201951570250912
 30
0.0
 11
3122.3874085943371028
 21
151.9726881256343916
 31
0.0
  0
ARC
  5
2A081
  8
0
 10
3122.3271314990179235
 20
151.980587121028492
 30
0.0
 40
0.0679849417791287
 50
322.7300972605555103
 51
338.8767615658400132
  0
ARC
  5
2A082
  8
0
 10
3123.1714719626779697
 20
150.5665213007333989
 30
0.0
 40
0.0255798350541456
 50
88.0567815038938306
 51
160.7387491416643002
  0
ARC
  5
2A083
  8
0
 10
3123.1713366108429
 20
150.562531983423213
 30
0.0
 40
0.0295714478510929
 50
34.7480882462538574
 51
88.0567815038938306
  0
ARC
  5
2A084
  8
0
 10
3123.1790671865560398
 20
150.5703962314491946
 30
0.0
 40
0.0188495359605226
 50
320.5747321033550747
 51
28.4873747456331294
  0
ARC
  5
2A085
  8
0
 10
3123.175062317055108
 20
150.5731855434499948
 30
0.0
 40
0.0237177099216007
 50
298.2420902445472279
 51
321.5139246967158897
  0
ARC
  5
2A086
  8
0
 10
3123.1723683231048199
 20
150.5782009705121141
 30
0.0
 40
0.0294108735427872
 50
263.7367437130546932
 51
298.2420902445472279
  0
ARC
  5
2A087
  8
0
 10
3123.1723042713788345
 20
150.5776173661089103
 30
0.0
 40
0.0288237647598669
 50
230.0880692151079074
 51
263.7367437130546932
  0
ARC
  5
2A088
  8
0
 10
3123.1663480196771161
 20
150.5704967826036125
 30
0.0
 40
0.0195404655730405
 50
166.7981625167311108
 51
230.0880692151069979
  0
ARC
  5
2A089
  8
0
 10
3123.1567030218930086
 20
150.5753813032627875
 30
0.0
 40
0.0484572422601305
 50
141.3345973750122937
 51
189.4705109999198953
  0
ARC
  5
2A08A
  8
0
 10
3123.1691705285420539
 20
150.5654053013668943
 30
0.0
 40
0.064424688388718
 50
97.5345971341259883
 51
141.3345973750134874
  0
ARC
  5
2A08B
  8
0
 10
3123.1708152542128119
 20
150.552970396346808
 30
0.0
 40
0.0769678931383846
 50
51.2444478857468582
 51
97.5345971341259883
  0
ARC
  5
2A08C
  8
0
 10
3123.189438673827226
 20
150.5761700905233056
 30
0.0
 40
0.0472179760291364
 50
339.5802726858224787
 51
51.2444478857478884
  0
ARC
  5
2A08D
  8
0
 10
3123.1792812073372261
 20
150.579951599941495
 30
0.0
 40
0.0580565155521089
 50
296.8319221186545178
 51
339.5802726858224787
  0
ARC
  5
2A08E
  8
0
 10
3123.1726164320421049
 20
150.5931273668275878
 30
0.0
 40
0.0728220180079248
 50
233.0758354701096096
 51
296.8319221186545178
  0
ARC
  5
2A08F
  8
0
 10
3123.1601051325869776
 20
150.5764785091043905
 30
0.0
 40
0.0519961428160376
 50
190.0462407751305136
 51
233.0758354701096096
  0
ARC
  5
2A090
  8
0
 10
3123.1551164265938496
 20
150.6060162299139051
 30
0.0
 40
0.0602159939425495
 50
190.3529330467023044
 51
219.8783720275937981
  0
ARC
  5
2A091
  8
0
 10
3123.1459173981679669
 20
150.6043357023895908
 30
0.0
 40
0.0508647214760567
 50
158.0334457821539047
 51
190.3529330467023044
  0
ARC
  5
2A092
  8
0
 10
3123.1607390689400745
 20
150.598357420628588
 30
0.0
 40
0.0668466418018999
 50
123.1389967347685968
 51
158.0334457821539047
  0
ARC
  5
2A093
  8
0
 10
3123.1717496685118931
 20
150.5814922974334991
 30
0.0
 40
0.0869877858438523
 50
79.6217305443158381
 51
123.1389967347685968
  0
ARC
  5
2A094
  8
0
 10
3123.1714692647537959
 20
150.5799612272365948
 30
0.0
 40
0.0885443211680643
 50
45.3137536921034823
 51
79.6217305443158381
  0
ARC
  5
2A095
  8
0
 10
3123.1969914891687949
 20
150.605764514759187
 30
0.0
 40
0.0522511594695935
 50
7.1835713859401631
 51
45.3137536921034823
  0
ARC
  5
2A096
  8
0
 10
3123.1900081726939788
 20
150.6048843509616972
 30
0.0
 40
0.059289724472353
 50
320.5669248704683127
 51
7.1835713859401631
  0
LINE
  5
2A097
  8
0
 10
3123.1084626108281554
 20
150.5708023221939982
 30
0.0
 11
3123.0985463935821826
 21
150.6228615712059877
 31
0.0
  0
ARC
  5
2A098
  8
0
 10
3123.1935745953369405
 20
150.6481292247619024
 30
0.0
 40
0.1063819563673368
 50
202.323443154514905
 51
213.5796342964862902
  0
LINE
  5
2A099
  8
0
 10
3123.2363791177072017
 20
150.5710581448410892
 30
0.0
 11
3123.2461221371700049
 21
150.6235511134505032
 31
0.0
  0
ARC
  5
2A09A
  8
0
 10
3123.1858450418508255
 20
150.6314501088444899
 30
0.0
 40
0.0679849417791287
 50
322.7300972605555103
 51
338.8767615658400132
  0
ARC
  5
2A09B
  8
0
 10
3122.8466734854441711
 20
150.8453418194542053
 30
0.0
 40
0.0420590590897079
 50
72.9319516266121752
 51
141.5812254387950873
  0
ARC
  5
2A09C
  8
0
 10
3122.8460150980799881
 20
150.8431974435985126
 30
0.0
 40
0.0443022313373366
 50
25.7194097690807411
 51
72.9319516266121752
  0
ARC
  5
2A09D
  8
0
 10
3122.8591708799722255
 20
150.8540092034295981
 30
0.0
 40
0.0280491097828503
 50
305.0368248584052253
 51
17.4556643734776991
  0
ARC
  5
2A09E
  8
0
 10
3122.8488020673707979
 20
150.8682246782884135
 30
0.0
 40
0.0456424498849537
 50
226.5128379790481006
 51
305.4494086443680203
  0
ARC
  5
2A09F
  8
0
 10
3122.8363824816838132
 20
150.8553956994259124
 30
0.0
 40
0.0277881948752947
 50
144.6388630483035911
 51
226.8880266333574127
  0
ARC
  5
2A0A0
  8
0
 10
3122.8197027109899864
 20
150.8633559680035887
 30
0.0
 40
0.0866312339315576
 50
168.1317840137947996
 51
220.4888310506360938
  0
ARC
  5
2A0A1
  8
0
 10
3122.8233032630050729
 20
150.8577253923681099
 30
0.0
 40
0.0914372975453921
 50
123.6400579906514992
 51
165.1416608147289935
  0
ARC
  5
2A0A2
  8
0
 10
3122.8457446448219343
 20
150.822075434480098
 30
0.0
 40
0.1335532945893323
 50
58.7623699990446724
 51
123.1827603240419933
  0
ARC
  5
2A0A3
  8
0
 10
3122.8721237213972017
 20
150.8579600812061017
 30
0.0
 40
0.089278394353289
 50
329.713206178233122
 51
61.2951955315020314
  0
ARC
  5
2A0A4
  8
0
 10
3122.8233868333081773
 20
150.8619844936436891
 30
0.0
 40
0.0886092418281308
 50
218.2670653219672943
 51
237.3017967854349024
  0
ARC
  5
2A0A5
  8
0
 10
3122.8516278181991765
 20
150.9059773830823872
 30
0.0
 40
0.1408866513737705
 50
237.3017967854349024
 51
283.2565643154222244
  0
ARC
  5
2A0A6
  8
0
 10
3122.8584734906571612
 20
150.8769197740768959
 30
0.0
 40
0.111033546467795
 50
283.2565643154222244
 51
324.8113556111154026
  0
ARC
  5
2A0A7
  8
0
 10
3122.8226660434288533
 20
150.8840954051048868
 30
0.0
 40
0.1015335136477515
 50
200.3400832451557108
 51
221.5023126784923875
  0
ARC
  5
2A0A8
  8
0
 10
3122.8034559690349852
 20
150.8769741008572964
 30
0.0
 40
0.0810459580978998
 50
156.7355567498850917
 51
200.3400832451557108
  0
ARC
  5
2A0A9
  8
0
 10
3122.8207293719360678
 20
150.8695477026791991
 30
0.0
 40
0.0998481345056472
 50
120.2259367327206974
 51
156.7355567498836137
  0
ARC
  5
2A0AA
  8
0
 10
3122.8448072461342235
 20
150.8282208157509103
 30
0.0
 40
0.1476775774160275
 50
86.2288736475637307
 51
120.2259367327206974
  0
ARC
  5
2A0AB
  8
0
 10
3122.8447096257918929
 20
150.8267397848991038
 30
0.0
 40
0.1491618220438097
 50
57.2579613125537534
 51
86.2288736475637307
  0
ARC
  5
2A0AC
  8
0
 10
3122.8671236091749961
 20
150.8615968693086984
 30
0.0
 40
0.1077202609654002
 50
35.7784801463069329
 51
57.2579613125537534
  0
ARC
  5
2A0AD
  8
0
 10
3122.8792012059489025
 20
150.8703006128513948
 30
0.0
 40
0.0928332365645158
 50
350.0596684887684091
 51
35.7784801463069329
  0
ARC
  5
2A0AE
  8
0
 10
3122.8941869587138171
 20
150.867674308920698
 30
0.0
 40
0.0776190899158105
 50
315.1512833024867177
 51
350.0596684887684091
  0
ARC
  5
2A0AF
  8
0
 10
3122.2995180598900333
 20
151.1590668778657118
 30
0.0
 40
0.0420590590897079
 50
72.9319516266121752
 51
141.5812254387950873
  0
ARC
  5
2A0B0
  8
0
 10
3122.2988596725258503
 20
151.1569225020099907
 30
0.0
 40
0.0443022313373366
 50
25.7194097690807411
 51
72.9319516266121752
  0
ARC
  5
2A0B1
  8
0
 10
3122.3120154544180878
 20
151.1677342618411899
 30
0.0
 40
0.0280491097828503
 50
305.0368248584052253
 51
17.4556643734776991
  0
ARC
  5
2A0B2
  8
0
 10
3122.3016466418162054
 20
151.1819497366998917
 30
0.0
 40
0.0456424498849537
 50
226.5128379790481006
 51
305.4494086443680203
  0
ARC
  5
2A0B3
  8
0
 10
3122.2892270561292207
 20
151.1691207578373906
 30
0.0
 40
0.0277881948752947
 50
144.6388630483035911
 51
226.8880266333574127
  0
ARC
  5
2A0B4
  8
0
 10
3122.2725472854349391
 20
151.1770810264150953
 30
0.0
 40
0.0866312339315576
 50
168.1317840137947996
 51
220.4888310506360938
  0
ARC
  5
2A0B5
  8
0
 10
3122.2761478374509352
 20
151.1714504507797017
 30
0.0
 40
0.0914372975453921
 50
123.6400579906514992
 51
165.1416608147289935
  0
ARC
  5
2A0B6
  8
0
 10
3122.2985892192677966
 20
151.1358004928916898
 30
0.0
 40
0.1335532945893323
 50
58.7623699990446724
 51
123.1827603240419933
  0
ARC
  5
2A0B7
  8
0
 10
3122.324968295843064
 20
151.1716851396176082
 30
0.0
 40
0.089278394353289
 50
329.713206178233122
 51
61.2951955315020314
  0
ARC
  5
2A0B8
  8
0
 10
3122.2762314077540395
 20
151.1757095520553094
 30
0.0
 40
0.0886092418281308
 50
218.2670653219672943
 51
237.3017967854349024
  0
ARC
  5
2A0B9
  8
0
 10
3122.3044723926459483
 20
151.2197024414940074
 30
0.0
 40
0.1408866513737705
 50
237.3017967854349024
 51
283.2565643154222244
  0
ARC
  5
2A0BA
  8
0
 10
3122.3113180651039329
 20
151.1906448324884025
 30
0.0
 40
0.111033546467795
 50
283.2565643154222244
 51
324.8113556111154026
  0
ARC
  5
2A0BB
  8
0
 10
3122.2755106178751703
 20
151.1978204635165071
 30
0.0
 40
0.1015335136477515
 50
200.3400832451557108
 51
221.5023126784923875
  0
ARC
  5
2A0BC
  8
0
 10
3122.2563005434799379
 20
151.190699159268803
 30
0.0
 40
0.0810459580978998
 50
156.7355567498850917
 51
200.3400832451557108
  0
ARC
  5
2A0BD
  8
0
 10
3122.27357394638193
 20
151.1832727610907057
 30
0.0
 40
0.0998481345056472
 50
120.2259367327206974
 51
156.7355567498836137
  0
ARC
  5
2A0BE
  8
0
 10
3122.2976518205800858
 20
151.1419458741625022
 30
0.0
 40
0.1476775774160275
 50
86.2288736475637307
 51
120.2259367327206974
  0
ARC
  5
2A0BF
  8
0
 10
3122.2975542002391194
 20
151.1404648433106956
 30
0.0
 40
0.1491618220438097
 50
57.2579613125537534
 51
86.2288736475637307
  0
ARC
  5
2A0C0
  8
0
 10
3122.3199681836208583
 20
151.1753219277202902
 30
0.0
 40
0.1077202609654002
 50
35.7784801463069329
 51
57.2579613125537534
  0
ARC
  5
2A0C1
  8
0
 10
3122.332045780396129
 20
151.1840256712629014
 30
0.0
 40
0.0928332365645158
 50
350.0596684887684091
 51
35.7784801463069329
  0
ARC
  5
2A0C2
  8
0
 10
3122.3470315331601341
 20
151.1813993673322045
 30
0.0
 40
0.0776190899158105
 50
315.1512833024867177
 51
350.0596684887684091
  0
ARC
  5
2A0C3
  8
0
 10
3122.0304644610869218
 20
151.6854185068216054
 30
0.0
 40
0.0420590590897079
 50
72.9319516266121752
 51
141.5812254387950873
  0
ARC
  5
2A0C4
  8
0
 10
3122.0298060737231935
 20
151.6832741309659127
 30
0.0
 40
0.0443022313373366
 50
25.7194097690807411
 51
72.9319516266121752
  0
ARC
  5
2A0C5
  8
0
 10
3122.0429618556149762
 20
151.6940858907969982
 30
0.0
 40
0.0280491097828503
 50
305.0368248584052253
 51
17.4556643734776991
  0
ARC
  5
2A0C6
  8
0
 10
3122.0325930430140033
 20
151.7083013656558137
 30
0.0
 40
0.0456424498849537
 50
226.5128379790481006
 51
305.4494086443680203
  0
ARC
  5
2A0C7
  8
0
 10
3122.0201734573270187
 20
151.6954723867933126
 30
0.0
 40
0.0277881948752947
 50
144.6388630483035911
 51
226.8880266333574127
  0
ARC
  5
2A0C8
  8
0
 10
3122.0034936866318276
 20
151.7034326553709889
 30
0.0
 40
0.0866312339315576
 50
168.1317840137947996
 51
220.4888310506360938
  0
ARC
  5
2A0C9
  8
0
 10
3122.0070942386491879
 20
151.69780207973551
 30
0.0
 40
0.0914372975453921
 50
123.6400579906514992
 51
165.1416608147289935
  0
ARC
  5
2A0CA
  8
0
 10
3122.0295356204651398
 20
151.6621521218474982
 30
0.0
 40
0.1335532945893323
 50
58.7623699990446724
 51
123.1827603240419933
  0
ARC
  5
2A0CB
  8
0
 10
3122.0559146970390429
 20
151.6980367685735018
 30
0.0
 40
0.089278394353289
 50
329.713206178233122
 51
61.2951955315020314
  0
ARC
  5
2A0CC
  8
0
 10
3122.007177808950928
 20
151.7020611810110893
 30
0.0
 40
0.0886092418281308
 50
218.2670653219672943
 51
237.3017967854349024
  0
ARC
  5
2A0CD
  8
0
 10
3122.0354187938428367
 20
151.7460540704497873
 30
0.0
 40
0.1408866513737705
 50
237.3017967854349024
 51
283.2565643154222244
  0
ARC
  5
2A0CE
  8
0
 10
3122.0422644663008214
 20
151.7169964614442961
 30
0.0
 40
0.111033546467795
 50
283.2565643154222244
 51
324.8113556111154026
  0
ARC
  5
2A0CF
  8
0
 10
3122.0064570190720588
 20
151.724172092472287
 30
0.0
 40
0.1015335136477515
 50
200.3400832451557108
 51
221.5023126784923875
  0
ARC
  5
2A0D0
  8
0
 10
3121.9872469446781906
 20
151.7170507882246966
 30
0.0
 40
0.0810459580978998
 50
156.7355567498850917
 51
200.3400832451557108
  0
ARC
  5
2A0D1
  8
0
 10
3122.0045203475788185
 20
151.7096243900465993
 30
0.0
 40
0.0998481345056472
 50
120.2259367327206974
 51
156.7355567498836137
  0
ARC
  5
2A0D2
  8
0
 10
3122.0285982217778837
 20
151.6682975031183105
 30
0.0
 40
0.1476775774160275
 50
86.2288736475637307
 51
120.2259367327206974
  0
ARC
  5
2A0D3
  8
0
 10
3122.0285006014350984
 20
151.666816472266504
 30
0.0
 40
0.1491618220438097
 50
57.2579613125537534
 51
86.2288736475637307
  0
ARC
  5
2A0D4
  8
0
 10
3122.0509145848182015
 20
151.7016735566760985
 30
0.0
 40
0.1077202609654002
 50
35.7784801463069329
 51
57.2579613125537534
  0
ARC
  5
2A0D5
  8
0
 10
3122.0629921815930174
 20
151.710377300218795
 30
0.0
 40
0.0928332365645158
 50
350.0596684887684091
 51
35.7784801463069329
  0
ARC
  5
2A0D6
  8
0
 10
3122.0779779343570226
 20
151.7077509962880981
 30
0.0
 40
0.0776190899158105
 50
315.1512833024867177
 51
350.0596684887684091
  0
ARC
  5
2A0D7
  8
0
 10
3122.1262380107450554
 20
152.2585617150795088
 30
0.0
 40
0.0420590590897079
 50
72.9319516266121752
 51
141.5812254387950873
  0
ARC
  5
2A0D8
  8
0
 10
3122.1255796233790534
 20
152.2564173392237876
 30
0.0
 40
0.0443022313373366
 50
25.7194097690807411
 51
72.9319516266121752
  0
ARC
  5
2A0D9
  8
0
 10
3122.1387354052722003
 20
152.2672290990549016
 30
0.0
 40
0.0280491097828503
 50
305.0368248584052253
 51
17.4556643734776991
  0
ARC
  5
2A0DA
  8
0
 10
3122.1283665926707727
 20
152.2814445739136886
 30
0.0
 40
0.0456424498849537
 50
226.5128379790481006
 51
305.4494086443680203
  0
ARC
  5
2A0DB
  8
0
 10
3122.115947006983788
 20
152.2686155950511875
 30
0.0
 40
0.0277881948752947
 50
144.6388630483035911
 51
226.8880266333574127
  0
ARC
  5
2A0DC
  8
0
 10
3122.0992672362890517
 20
152.2765758636288922
 30
0.0
 40
0.0866312339315576
 50
168.1317840137947996
 51
220.4888310506360938
  0
ARC
  5
2A0DD
  8
0
 10
3122.1028677883050477
 20
152.2709452879934133
 30
0.0
 40
0.0914372975453921
 50
123.6400579906514992
 51
165.1416608147289935
  0
ARC
  5
2A0DE
  8
0
 10
3122.1253091701228186
 20
152.2352953301054015
 30
0.0
 40
0.1335532945893323
 50
58.7623699990446724
 51
123.1827603240419933
  0
ARC
  5
2A0DF
  8
0
 10
3122.1516882466971765
 20
152.2711799768314052
 30
0.0
 40
0.089278394353289
 50
329.713206178233122
 51
61.2951955315020314
  0
ARC
  5
2A0E0
  8
0
 10
3122.1029513586081521
 20
152.2752043892689926
 30
0.0
 40
0.0886092418281308
 50
218.2670653219672943
 51
237.3017967854349024
  0
ARC
  5
2A0E1
  8
0
 10
3122.1311923434991513
 20
152.3191972787076907
 30
0.0
 40
0.1408866513737705
 50
237.3017967854349024
 51
283.2565643154222244
  0
ARC
  5
2A0E2
  8
0
 10
3122.1380380159580454
 20
152.2901396697021994
 30
0.0
 40
0.111033546467795
 50
283.2565643154222244
 51
324.8113556111154026
  0
ARC
  5
2A0E3
  8
0
 10
3122.1022305687279186
 20
152.2973153007301903
 30
0.0
 40
0.1015335136477515
 50
200.3400832451557108
 51
221.5023126784923875
  0
ARC
  5
2A0E4
  8
0
 10
3122.0830204943349599
 20
152.2901939964825999
 30
0.0
 40
0.0810459580978998
 50
156.7355567498850917
 51
200.3400832451557108
  0
ARC
  5
2A0E5
  8
0
 10
3122.100293897235133
 20
152.2827675983045026
 30
0.0
 40
0.0998481345056472
 50
120.2259367327206974
 51
156.7355567498836137
  0
ARC
  5
2A0E6
  8
0
 10
3122.1243717714341983
 20
152.2414407113762138
 30
0.0
 40
0.1476775774160275
 50
86.2288736475637307
 51
120.2259367327206974
  0
ARC
  5
2A0E7
  8
0
 10
3122.1242741510918677
 20
152.2399596805244073
 30
0.0
 40
0.1491618220438097
 50
57.2579613125537534
 51
86.2288736475637307
  0
ARC
  5
2A0E8
  8
0
 10
3122.1466881344749709
 20
152.2748167649340019
 30
0.0
 40
0.1077202609654002
 50
35.7784801463069329
 51
57.2579613125537534
  0
ARC
  5
2A0E9
  8
0
 10
3122.1587657312497868
 20
152.2835205084766983
 30
0.0
 40
0.0928332365645158
 50
350.0596684887684091
 51
35.7784801463069329
  0
ARC
  5
2A0EA
  8
0
 10
3122.1737514840137919
 20
152.2808942045460014
 30
0.0
 40
0.0776190899158105
 50
315.1512833024867177
 51
350.0596684887684091
  0
ARC
  5
2A0EB
  8
0
 10
3122.5508428077841927
 20
152.6997505408344011
 30
0.0
 40
0.0420590590897079
 50
72.9319516266121752
 51
141.5812254387950873
  0
ARC
  5
2A0EC
  8
0
 10
3122.5501844204191002
 20
152.6976061649787084
 30
0.0
 40
0.0443022313373366
 50
25.7194097690807411
 51
72.9319516266121752
  0
ARC
  5
2A0ED
  8
0
 10
3122.5633402023117924
 20
152.7084179248099076
 30
0.0
 40
0.0280491097828503
 50
305.0368248584052253
 51
17.4556643734776991
  0
ARC
  5
2A0EE
  8
0
 10
3122.55297138970991
 20
152.7226333996686094
 30
0.0
 40
0.0456424498849537
 50
226.5128379790481006
 51
305.4494086443680203
  0
ARC
  5
2A0EF
  8
0
 10
3122.5405518040229254
 20
152.7098044208061083
 30
0.0
 40
0.0277881948752947
 50
144.6388630483035911
 51
226.8880266333574127
  0
ARC
  5
2A0F0
  8
0
 10
3122.5238720333290985
 20
152.717764689383813
 30
0.0
 40
0.0866312339315576
 50
168.1317840137947996
 51
220.4888310506360938
  0
ARC
  5
2A0F1
  8
0
 10
3122.5274725853450946
 20
152.7121341137483057
 30
0.0
 40
0.0914372975453921
 50
123.6400579906514992
 51
165.1416608147289935
  0
ARC
  5
2A0F2
  8
0
 10
3122.549913967161956
 20
152.6764841558604076
 30
0.0
 40
0.1335532945893323
 50
58.7623699990446724
 51
123.1827603240419933
  0
ARC
  5
2A0F3
  8
0
 10
3122.5762930437358591
 20
152.7123688025862975
 30
0.0
 40
0.089278394353289
 50
329.713206178233122
 51
61.2951955315020314
  0
ARC
  5
2A0F4
  8
0
 10
3122.5275561556481989
 20
152.7163932150239134
 30
0.0
 40
0.0886092418281308
 50
218.2670653219672943
 51
237.3017967854349024
  0
ARC
  5
2A0F5
  8
0
 10
3122.5557971405391982
 20
152.7603861044626967
 30
0.0
 40
0.1408866513737705
 50
237.3017967854349024
 51
283.2565643154222244
  0
ARC
  5
2A0F6
  8
0
 10
3122.5626428129980923
 20
152.7313284954570918
 30
0.0
 40
0.111033546467795
 50
283.2565643154222244
 51
324.8113556111154026
  0
ARC
  5
2A0F7
  8
0
 10
3122.5268353657679654
 20
152.7385041264851964
 30
0.0
 40
0.1015335136477515
 50
200.3400832451557108
 51
221.5023126784923875
  0
ARC
  5
2A0F8
  8
0
 10
3122.5076252913740973
 20
152.7313828222374923
 30
0.0
 40
0.0810459580978998
 50
156.7355567498850917
 51
200.3400832451557108
  0
ARC
  5
2A0F9
  8
0
 10
3122.5248986942751799
 20
152.723956424059395
 30
0.0
 40
0.0998481345056472
 50
120.2259367327206974
 51
156.7355567498836137
  0
ARC
  5
2A0FA
  8
0
 10
3122.5489765684737904
 20
152.6826295371311062
 30
0.0
 40
0.1476775774160275
 50
86.2288736475637307
 51
120.2259367327206974
  0
ARC
  5
2A0FB
  8
0
 10
3122.5488789481319145
 20
152.6811485062794134
 30
0.0
 40
0.1491618220438097
 50
57.2579613125537534
 51
86.2288736475637307
  0
ARC
  5
2A0FC
  8
0
 10
3122.5712929315141082
 20
152.7160055906890079
 30
0.0
 40
0.1077202609654002
 50
35.7784801463069329
 51
57.2579613125537534
  0
ARC
  5
2A0FD
  8
0
 10
3122.5833705282889241
 20
152.7247093342315907
 30
0.0
 40
0.0928332365645158
 50
350.0596684887684091
 51
35.7784801463069329
  0
ARC
  5
2A0FE
  8
0
 10
3122.5983562810529293
 20
152.7220830303008938
 30
0.0
 40
0.0776190899158105
 50
315.1512833024867177
 51
350.0596684887684091
  0
ARC
  5
2A0FF
  8
0
 10
3123.1799720324461305
 20
152.866629899320003
 30
0.0
 40
0.0420590590897079
 50
72.9319516266121752
 51
141.5812254387950873
  0
ARC
  5
2A100
  8
0
 10
3123.179313645081038
 20
152.8644855234641966
 30
0.0
 40
0.0443022313373366
 50
25.7194097690807411
 51
72.9319516266121752
  0
ARC
  5
2A101
  8
0
 10
3123.1924694269728207
 20
152.8752972832953958
 30
0.0
 40
0.0280491097828503
 50
305.0368248584052253
 51
17.4556643734776991
  0
ARC
  5
2A102
  8
0
 10
3123.1821006143718478
 20
152.8895127581542113
 30
0.0
 40
0.0456424498849537
 50
226.5128379790481006
 51
305.4494086443680203
  0
ARC
  5
2A103
  8
0
 10
3123.1696810286839536
 20
152.8766837792917102
 30
0.0
 40
0.0277881948752947
 50
144.6388630483035911
 51
226.8880266333574127
  0
ARC
  5
2A104
  8
0
 10
3123.1530012579901268
 20
152.8846440478693864
 30
0.0
 40
0.0866312339315576
 50
168.1317840137947996
 51
220.4888310506360938
  0
ARC
  5
2A105
  8
0
 10
3123.1566018100061228
 20
152.8790134722339076
 30
0.0
 40
0.0914372975453921
 50
123.6400579906514992
 51
165.1416608147289935
  0
ARC
  5
2A106
  8
0
 10
3123.1790431918229842
 20
152.8433635143458957
 30
0.0
 40
0.1335532945893323
 50
58.7623699990446724
 51
123.1827603240419933
  0
ARC
  5
2A107
  8
0
 10
3123.2054222683977969
 20
152.8792481610718994
 30
0.0
 40
0.089278394353289
 50
329.713206178233122
 51
61.2951955315020314
  0
ARC
  5
2A108
  8
0
 10
3123.1566853803092272
 20
152.8832725735094868
 30
0.0
 40
0.0886092418281308
 50
218.2670653219672943
 51
237.3017967854349024
  0
ARC
  5
2A109
  8
0
 10
3123.1849263652002264
 20
152.9272654629482133
 30
0.0
 40
0.1408866513737705
 50
237.3017967854349024
 51
283.2565643154222244
  0
ARC
  5
2A10A
  8
0
 10
3123.191772037658211
 20
152.8982078539426936
 30
0.0
 40
0.111033546467795
 50
283.2565643154222244
 51
324.8113556111154026
  0
ARC
  5
2A10B
  8
0
 10
3123.1559645904289937
 20
152.905383484970713
 30
0.0
 40
0.1015335136477515
 50
200.3400832451557108
 51
221.5023126784923875
  0
ARC
  5
2A10C
  8
0
 10
3123.1367545160360351
 20
152.8982621807230942
 30
0.0
 40
0.0810459580978998
 50
156.7355567498850917
 51
200.3400832451557108
  0
ARC
  5
2A10D
  8
0
 10
3123.1540279189362082
 20
152.8908357825449116
 30
0.0
 40
0.0998481345056472
 50
120.2259367327206974
 51
156.7355567498836137
  0
ARC
  5
2A10E
  8
0
 10
3123.1781057931348187
 20
152.8495088956167081
 30
0.0
 40
0.1476775774160275
 50
86.2288736475637307
 51
120.2259367327206974
  0
ARC
  5
2A10F
  8
0
 10
3123.1780081727929428
 20
152.8480278647649016
 30
0.0
 40
0.1491618220438097
 50
57.2579613125537534
 51
86.2288736475637307
  0
ARC
  5
2A110
  8
0
 10
3123.2004221561751365
 20
152.8828849491744961
 30
0.0
 40
0.1077202609654002
 50
35.7784801463069329
 51
57.2579613125537534
  0
ARC
  5
2A111
  8
0
 10
3123.2124997529508619
 20
152.8915886927171925
 30
0.0
 40
0.0928332365645158
 50
350.0596684887684091
 51
35.7784801463069329
  0
ARC
  5
2A112
  8
0
 10
3123.227485505714867
 20
152.8889623887864957
 30
0.0
 40
0.0776190899158105
 50
315.1512833024867177
 51
350.0596684887684091
  0
LINE
  5
2A113
  8
0
 10
3123.2095642881981803
 20
150.0256085849177907
 30
0.0
 11
3123.1363510417968428
 21
150.0256085835177942
 31
0.0
  0
ARC
  5
2A114
  8
0
 10
3123.1363510417440921
 20
150.0284107686593984
 30
0.0
 40
0.0028021851416504
 50
189.1793267509069949
 51
270.0000010956431993
  0
ARC
  5
2A115
  8
0
 10
3122.6345437282229796
 20
149.9473215177440863
 30
0.0
 40
0.5055146909474236
 50
9.1793267509070304
 51
16.7262691350426813
  0
ARC
  5
2A116
  8
0
 10
3122.9851276645767939
 20
150.0526769678293988
 30
0.0
 40
0.1394424749952595
 50
16.7262691350426813
 51
55.9746465946219374
  0
ARC
  5
2A117
  8
0
 10
3122.9669440587222198
 20
149.9759579912035861
 30
0.0
 40
0.215013605397261
 50
63.4191612543324581
 51
85.6752382727975004
  0
ARC
  5
2A118
  8
0
 10
3123.1983464866530085
 20
152.6807114931399099
 30
0.0
 40
2.4996319103754341
 50
255.7177664331410085
 51
265.0614077538833158
  0
ARC
  5
2A119
  8
0
 10
3123.1411370247351442
 20
152.4527521554034024
 30
0.0
 40
2.2646049271454212
 50
234.7249961093019976
 51
255.6976275651595927
  0
ARC
  5
2A11A
  8
0
 10
3123.8355591393201394
 20
153.4380836446765102
 30
0.0
 40
3.4700497859140031
 50
228.1985095245161119
 51
234.7598590254015107
  0
ARC
  5
2A11B
  8
0
 10
3123.1370630040592005
 20
150.8774158989515115
 30
0.0
 40
0.3384381781409146
 50
254.7349849447672057
 51
267.7573312409456889
  0
ARC
  5
2A11C
  8
0
 10
3121.8476936382321583
 20
150.8063201119427958
 30
0.0
 40
1.227136384161418
 50
334.9779944940102041
 51
347.9873150950070908
  0
ARC
  5
2A11D
  8
0
 10
3122.4984845053868412
 20
150.4579646270194928
 30
0.0
 40
0.4917448078458682
 50
330.5270365452104784
 51
339.6903016945539093
  0
ARC
  5
2A11E
  8
0
 10
3122.8857052480861967
 20
150.237046060618809
 30
0.0
 40
0.0459760275894991
 50
301.405795592906486
 51
332.7851064188785131
  0
LINE
  5
2A11F
  8
0
 10
3123.1336473006981578
 20
150.0276954793177993
 30
0.0
 11
3123.1343339093241411
 21
150.5311798506454011
 31
0.0
  0
LINE
  5
2A120
  8
0
 10
3123.2115642995690905
 20
150.5316985072531963
 30
0.0
 11
3123.2123453437970966
 21
150.0280477617178008
 31
0.0
  0
ARC
  5
2A121
  8
0
 10
3123.209512926312982
 20
150.0284721576610991
 30
0.0
 40
0.0028640357404689
 50
271.0310304040219762
 51
351.4784671403342031
  0
ARC
  5
2A122
  8
0
 10
3123.5172033122230459
 20
149.988223226970689
 30
0.0
 40
0.3074483198308984
 50
152.4909932153447016
 51
172.5589962749932909
  0
ARC
  5
2A123
  8
0
 10
3123.3453963091938022
 20
150.0673205888450923
 30
0.0
 40
0.1188885792718861
 50
96.6836848362234349
 51
148.0522709624420088
  0
ARC
  5
2A124
  8
0
 10
3123.5371401332067762
 20
149.0058800208398964
 30
0.0
 40
1.197302686604869
 50
94.0250872062433842
 51
99.8868768469898924
  0
ARC
  5
2A125
  8
0
 10
3123.1782849447031367
 20
152.5330069156453021
 30
0.0
 40
2.3489088227869628
 50
276.7187568246786782
 51
289.9031717356148192
  0
ARC
  5
2A126
  8
0
 10
3123.0645937435388078
 20
152.7427015818886105
 30
0.0
 40
2.5850263126207449
 50
290.6903383668753236
 51
312.3410107691213966
  0
ARC
  5
2A127
  8
0
 10
3123.2105239250900013
 20
150.8663344931430004
 30
0.0
 40
0.3273102160702828
 50
271.7661640286381726
 51
285.4934308710559776
  0
ARC
  5
2A128
  8
0
 10
3125.859046145360935
 20
151.289606594980313
 30
0.0
 40
2.665489583838879
 50
196.0890129499154
 51
203.7516551293790883
  0
ARC
  5
2A129
  8
0
 10
3123.4524182797799767
 20
150.2305820077934015
 30
0.0
 40
0.0361568244383352
 50
203.7516551293776104
 51
241.4270593076888076
  0
ARC
  5
2A12A
  8
0
 10
3124.1093164242820421
 20
153.1961990054786042
 30
0.0
 40
0.0268421309250733
 50
8.5748766975210948
 51
87.9624084768666421
  0
ARC
  5
2A12B
  8
0
 10
3124.1094171987310801
 20
153.199031524285914
 30
0.0
 40
0.0240078200240748
 50
87.9624084768666421
 51
159.0127425916182062
  0
ARC
  5
2A12C
  8
0
 10
3124.1171417143327744
 20
153.196068331464204
 30
0.0
 40
0.0322811901337913
 50
159.0127425916166999
 51
222.5380856837923886
  0
ARC
  5
2A12D
  8
0
 10
3124.1103194407769479
 20
153.1927006764385908
 30
0.0
 40
0.0250682844449278
 50
227.4146075399339963
 51
326.3073112485025717
  0
ARC
  5
2A12E
  8
0
 10
3124.0973369957741852
 20
153.1974104088344006
 30
0.0
 40
0.0386224760254502
 50
331.1838331046523081
 51
4.1437240453501829
  0
ARC
  5
2A12F
  8
0
 10
3124.104885769395878
 20
153.2018280282476894
 30
0.0
 40
0.0700290240786877
 50
306.9206342830943868
 51
339.2307331259606258
  0
ARC
  5
2A130
  8
0
 10
3124.1105931265619802
 20
153.1940445363416075
 30
0.0
 40
0.0603780176036005
 50
253.0163103836347886
 51
307.0276339973963218
  0
ARC
  5
2A131
  8
0
 10
3124.112215686617219
 20
153.1993570996363019
 30
0.0
 40
0.0659328380229237
 50
207.1860476919565883
 51
253.0163103836347886
  0
ARC
  5
2A132
  8
0
 10
3124.1152235817089604
 20
153.2009020219277033
 30
0.0
 40
0.0693142900439592
 50
167.3101682965946111
 51
207.1860476919580094
  0
ARC
  5
2A133
  8
0
 10
3124.1149959379299617
 20
153.2009532812186023
 30
0.0
 40
0.0690809465105997
 50
135.9952662569710071
 51
167.3101682965946111
  0
ARC
  5
2A134
  8
0
 10
3124.1102531600758994
 20
153.2055340858779005
 30
0.0
 40
0.0624871833127678
 50
52.2119783142154787
 51
135.9952662569710071
  0
ARC
  5
2A135
  8
0
 10
3124.1074321401238194
 20
153.2018956784831971
 30
0.0
 40
0.0670911122797793
 50
5.6648672815048764
 51
52.2119783142154787
  0
ARC
  5
2A136
  8
0
 10
3124.101738955176188
 20
153.2013309486000026
 30
0.0
 40
0.0728122375803954
 50
340.4746445562308281
 51
5.6648672815048764
  0
ARC
  5
2A137
  8
0
 10
3124.1126440247639948
 20
153.2209870000910996
 30
0.0
 40
0.0725731623058452
 50
322.6869450526792207
 51
335.7282888460360937
  0
ARC
  5
2A138
  8
0
 10
3124.0959825650388666
 20
153.2285000364209111
 30
0.0
 40
0.0908501958464673
 50
335.7282888460360937
 51
14.0956669250649398
  0
ARC
  5
2A139
  8
0
 10
3124.0995203310280885
 20
153.2293883773928087
 30
0.0
 40
0.087202602410119
 50
14.0956669250649398
 51
46.4605741738265081
  0
ARC
  5
2A13A
  8
0
 10
3124.109470353074812
 20
153.2398590736740971
 30
0.0
 40
0.0727582810569489
 50
46.4605741738265081
 51
87.6293625330813342
  0
ARC
  5
2A13B
  8
0
 10
3124.1096193576318001
 20
153.2434582996278039
 30
0.0
 40
0.0691559720997063
 50
87.6293625330813342
 51
132.3712850875938898
  0
ARC
  5
2A13C
  8
0
 10
3124.1261562727800083
 20
153.2253298290600867
 30
0.0
 40
0.093693922457152
 50
132.3712850875938898
 51
154.2792678450163066
  0
ARC
  5
2A13D
  8
0
 10
3124.1160256827902231
 20
153.2302098682957023
 30
0.0
 40
0.0824492065209747
 50
154.2792678450163066
 51
183.8695927054803008
  0
ARC
  5
2A13E
  8
0
 10
3124.1304691444838681
 20
153.2311868241316972
 30
0.0
 40
0.0969256711585577
 50
183.8695927054803008
 51
214.0703614620138922
  0
LINE
  5
2A13F
  8
0
 10
3124.1741341054039367
 20
153.1935486504287951
 30
0.0
 11
3124.1840973006419517
 21
153.2506258461228867
 31
0.0
  0
ARC
  5
2A140
  8
0
 10
3124.0522983387681961
 20
153.286437759384512
 30
0.0
 40
0.1442342873926253
 50
330.6372712038815962
 51
338.6841727014319758
  0
LINE
  5
2A141
  8
0
 10
3124.0462930621711166
 20
153.1936181849820002
 30
0.0
 11
3124.036239854644009
 21
153.2509967219041869
 31
0.0
  0
ARC
  5
2A142
  8
0
 10
3124.1256497332751678
 20
153.2676735649195052
 30
0.0
 40
0.0976097502695255
 50
199.6240714546594006
 51
211.2309359758008043
  0
ARC
  5
2A143
  8
0
 10
3123.5812195160228839
 20
153.0894323697760058
 30
0.0
 40
0.0268421309250733
 50
8.5748766975210948
 51
87.9624084768666421
  0
ARC
  5
2A144
  8
0
 10
3123.5813202904728314
 20
153.0922648885834008
 30
0.0
 40
0.0240078200240748
 50
87.9624084768666421
 51
159.0127425916182062
  0
ARC
  5
2A145
  8
0
 10
3123.5890448060740709
 20
153.0893016957616908
 30
0.0
 40
0.0322811901337913
 50
159.0127425916166999
 51
222.5380856837923886
  0
ARC
  5
2A146
  8
0
 10
3123.5822225325177897
 20
153.0859340407359923
 30
0.0
 40
0.0250682844449278
 50
227.4146075399339963
 51
326.3073112485025717
  0
ARC
  5
2A147
  8
0
 10
3123.569240087515027
 20
153.0906437731318874
 30
0.0
 40
0.0386224760254502
 50
331.1838331046523081
 51
4.1437240453501829
  0
ARC
  5
2A148
  8
0
 10
3123.576788861138084
 20
153.0950613925452046
 30
0.0
 40
0.0700290240786877
 50
306.9206342830943868
 51
339.2307331259606258
  0
ARC
  5
2A149
  8
0
 10
3123.5824962183041862
 20
153.087277900639009
 30
0.0
 40
0.0603780176036005
 50
253.0163103836347886
 51
307.0276339973963218
  0
ARC
  5
2A14A
  8
0
 10
3123.5841187783580608
 20
153.0925904639337887
 30
0.0
 40
0.0659328380229237
 50
207.1860476919565883
 51
253.0163103836347886
  0
ARC
  5
2A14B
  8
0
 10
3123.5871266734498022
 20
153.0941353862251901
 30
0.0
 40
0.0693142900439592
 50
167.3101682965946111
 51
207.1860476919580094
  0
ARC
  5
2A14C
  8
0
 10
3123.5868990296721677
 20
153.0941866455160891
 30
0.0
 40
0.0690809465105997
 50
135.9952662569710071
 51
167.3101682965946111
  0
ARC
  5
2A14D
  8
0
 10
3123.5821562518171959
 20
153.0987674501753872
 30
0.0
 40
0.0624871833127678
 50
52.2119783142154787
 51
135.9952662569710071
  0
ARC
  5
2A14E
  8
0
 10
3123.5793352318660254
 20
153.0951290427807123
 30
0.0
 40
0.0670911122797793
 50
5.6648672815048764
 51
52.2119783142154787
  0
ARC
  5
2A14F
  8
0
 10
3123.5736420469170298
 20
153.0945643128974893
 30
0.0
 40
0.0728122375803954
 50
340.4746445562308281
 51
5.6648672815048764
  0
ARC
  5
2A150
  8
0
 10
3123.5845471165048366
 20
153.1142203643885011
 30
0.0
 40
0.0725731623058452
 50
322.6869450526792207
 51
335.7282888460360937
  0
ARC
  5
2A151
  8
0
 10
3123.5678856567801631
 20
153.1217334007183126
 30
0.0
 40
0.0908501958464673
 50
335.7282888460360937
 51
14.0956669250649398
  0
ARC
  5
2A152
  8
0
 10
3123.5714234227689303
 20
153.1226217416902955
 30
0.0
 40
0.087202602410119
 50
14.0956669250649398
 51
46.4605741738265081
  0
ARC
  5
2A153
  8
0
 10
3123.581373444817018
 20
153.1330924379716123
 30
0.0
 40
0.0727582810569489
 50
46.4605741738265081
 51
87.6293625330813342
  0
ARC
  5
2A154
  8
0
 10
3123.5815224493730966
 20
153.1366916639252054
 30
0.0
 40
0.0691559720997063
 50
87.6293625330813342
 51
132.3712850875938898
  0
ARC
  5
2A155
  8
0
 10
3123.5980593645222143
 20
153.1185631933574882
 30
0.0
 40
0.093693922457152
 50
132.3712850875938898
 51
154.2792678450163066
  0
ARC
  5
2A156
  8
0
 10
3123.5879287745319743
 20
153.1234432325931891
 30
0.0
 40
0.0824492065209747
 50
154.2792678450163066
 51
183.8695927054803008
  0
ARC
  5
2A157
  8
0
 10
3123.6023722362251647
 20
153.1244201884290987
 30
0.0
 40
0.0969256711585577
 50
183.8695927054803008
 51
214.0703614620138922
  0
LINE
  5
2A158
  8
0
 10
3123.6460371971461427
 20
153.0867820147261966
 30
0.0
 11
3123.6560003923827935
 21
153.1438592104202883
 31
0.0
  0
ARC
  5
2A159
  8
0
 10
3123.5242014305090379
 20
153.1796711236819988
 30
0.0
 40
0.1442342873926253
 50
330.6372712038815962
 51
338.6841727014319758
  0
LINE
  5
2A15A
  8
0
 10
3123.5181961539128679
 20
153.0868515492794018
 30
0.0
 11
3123.5081429463848508
 21
153.1442300862015884
 31
0.0
  0
ARC
  5
2A15B
  8
0
 10
3123.5975528250160096
 20
153.160906929216992
 30
0.0
 40
0.0976097502695255
 50
199.6240714546594006
 51
211.2309359758008043
  0
ARC
  5
2A15C
  8
0
 10
3124.264452544166943
 20
152.6947058302390019
 30
0.0
 40
0.0268421309250733
 50
8.5748766975210948
 51
87.9624084768666421
  0
ARC
  5
2A15D
  8
0
 10
3124.264553318615981
 20
152.6975383490463116
 30
0.0
 40
0.0240078200240748
 50
87.9624084768666421
 51
159.0127425916182062
  0
ARC
  5
2A15E
  8
0
 10
3124.2722778342172205
 20
152.6945751562246016
 30
0.0
 40
0.0322811901337913
 50
159.0127425916166999
 51
222.5380856837923886
  0
ARC
  5
2A15F
  8
0
 10
3124.2654555606618487
 20
152.6912075011989032
 30
0.0
 40
0.0250682844449278
 50
227.4146075399339963
 51
326.3073112485025717
  0
ARC
  5
2A160
  8
0
 10
3124.252473115659086
 20
152.6959172335947983
 30
0.0
 40
0.0386224760254502
 50
331.1838331046523081
 51
4.1437240453501829
  0
ARC
  5
2A161
  8
0
 10
3124.2600218892807789
 20
152.7003348530080871
 30
0.0
 40
0.0700290240786877
 50
306.9206342830943868
 51
339.2307331259606258
  0
ARC
  5
2A162
  8
0
 10
3124.265729246446881
 20
152.6925513611018914
 30
0.0
 40
0.0603780176036005
 50
253.0163103836347886
 51
307.0276339973963218
  0
ARC
  5
2A163
  8
0
 10
3124.2673518065012104
 20
152.6978639243966995
 30
0.0
 40
0.0659328380229237
 50
207.1860476919565883
 51
253.0163103836347886
  0
ARC
  5
2A164
  8
0
 10
3124.2703597015929518
 20
152.699408846688101
 30
0.0
 40
0.0693142900439592
 50
167.3101682965946111
 51
207.1860476919580094
  0
ARC
  5
2A165
  8
0
 10
3124.2701320578148625
 20
152.699460105979
 30
0.0
 40
0.0690809465105997
 50
135.9952662569710071
 51
167.3101682965946111
  0
ARC
  5
2A166
  8
0
 10
3124.2653892799598907
 20
152.7040409106382981
 30
0.0
 40
0.0624871833127678
 50
52.2119783142154787
 51
135.9952662569710071
  0
ARC
  5
2A167
  8
0
 10
3124.2625682600100845
 20
152.7004025032435948
 30
0.0
 40
0.0670911122797793
 50
5.6648672815048764
 51
52.2119783142154787
  0
ARC
  5
2A168
  8
0
 10
3124.2568750750601794
 20
152.6998377733604002
 30
0.0
 40
0.0728122375803954
 50
340.4746445562308281
 51
5.6648672815048764
  0
ARC
  5
2A169
  8
0
 10
3124.2677801446479862
 20
152.719493824851412
 30
0.0
 40
0.0725731623058452
 50
322.6869450526792207
 51
335.7282888460360937
  0
ARC
  5
2A16A
  8
0
 10
3124.2511186849242222
 20
152.7270068611811951
 30
0.0
 40
0.0908501958464673
 50
335.7282888460360937
 51
14.0956669250649398
  0
ARC
  5
2A16B
  8
0
 10
3124.2546564509129894
 20
152.7278952021532064
 30
0.0
 40
0.087202602410119
 50
14.0956669250649398
 51
46.4605741738265081
  0
ARC
  5
2A16C
  8
0
 10
3124.2646064729601676
 20
152.7383658984344947
 30
0.0
 40
0.0727582810569489
 50
46.4605741738265081
 51
87.6293625330813342
  0
ARC
  5
2A16D
  8
0
 10
3124.2647554775171557
 20
152.7419651243882015
 30
0.0
 40
0.0691559720997063
 50
87.6293625330813342
 51
132.3712850875938898
  0
ARC
  5
2A16E
  8
0
 10
3124.2812923926649091
 20
152.7238366538203991
 30
0.0
 40
0.093693922457152
 50
132.3712850875938898
 51
154.2792678450163066
  0
ARC
  5
2A16F
  8
0
 10
3124.2711618026751239
 20
152.7287166930561
 30
0.0
 40
0.0824492065209747
 50
154.2792678450163066
 51
183.8695927054803008
  0
ARC
  5
2A170
  8
0
 10
3124.2856052643692237
 20
152.7296936488920949
 30
0.0
 40
0.0969256711585577
 50
183.8695927054803008
 51
214.0703614620138922
  0
LINE
  5
2A171
  8
0
 10
3124.3292702252888375
 20
152.6920554751891075
 30
0.0
 11
3124.3392334205259431
 21
152.7491326708831991
 31
0.0
  0
ARC
  5
2A172
  8
0
 10
3124.207434458653097
 20
152.7849445841449096
 30
0.0
 40
0.1442342873926253
 50
330.6372712038815962
 51
338.6841727014319758
  0
LINE
  5
2A173
  8
0
 10
3124.2014291820560175
 20
152.6921250097423126
 30
0.0
 11
3124.1913759745289099
 21
152.7495035466644993
 31
0.0
  0
ARC
  5
2A174
  8
0
 10
3124.2807858531600687
 20
152.7661803896799029
 30
0.0
 40
0.0976097502695255
 50
199.6240714546594006
 51
211.2309359758008043
  0
ARC
  5
2A175
  8
0
 10
3124.7520264445811335
 20
152.5422991667890074
 30
0.0
 40
0.0268421309250733
 50
8.5748766975210948
 51
87.9624084768666421
  0
ARC
  5
2A176
  8
0
 10
3124.752127219031081
 20
152.5451316855962887
 30
0.0
 40
0.0240078200240748
 50
87.9624084768666421
 51
159.0127425916182062
  0
ARC
  5
2A177
  8
0
 10
3124.7598517346318658
 20
152.5421684927746071
 30
0.0
 40
0.0322811901337913
 50
159.0127425916166999
 51
222.5380856837923886
  0
ARC
  5
2A178
  8
0
 10
3124.7530294610769488
 20
152.5388008377489939
 30
0.0
 40
0.0250682844449278
 50
227.4146075399339963
 51
326.3073112485025717
  0
ARC
  5
2A179
  8
0
 10
3124.7400470160741861
 20
152.5435105701448038
 30
0.0
 40
0.0386224760254502
 50
331.1838331046523081
 51
4.1437240453501829
  0
ARC
  5
2A17A
  8
0
 10
3124.7475957896958789
 20
152.5479281895582062
 30
0.0
 40
0.0700290240786877
 50
306.9206342830943868
 51
339.2307331259606258
  0
ARC
  5
2A17B
  8
0
 10
3124.7533031468619811
 20
152.5401446976520106
 30
0.0
 40
0.0603780176036005
 50
253.0163103836347886
 51
307.0276339973963218
  0
ARC
  5
2A17C
  8
0
 10
3124.7549257069158557
 20
152.545457260946705
 30
0.0
 40
0.0659328380229237
 50
207.1860476919565883
 51
253.0163103836347886
  0
ARC
  5
2A17D
  8
0
 10
3124.7579336020080518
 20
152.5470021832381065
 30
0.0
 40
0.0693142900439592
 50
167.3101682965946111
 51
207.1860476919580094
  0
ARC
  5
2A17E
  8
0
 10
3124.7577059582299626
 20
152.5470534425290055
 30
0.0
 40
0.0690809465105997
 50
135.9952662569710071
 51
167.3101682965946111
  0
ARC
  5
2A17F
  8
0
 10
3124.7529631803749908
 20
152.5516342471883036
 30
0.0
 40
0.0624871833127678
 50
52.2119783142154787
 51
135.9952662569710071
  0
ARC
  5
2A180
  8
0
 10
3124.7501421604238203
 20
152.5479958397936002
 30
0.0
 40
0.0670911122797793
 50
5.6648672815048764
 51
52.2119783142154787
  0
ARC
  5
2A181
  8
0
 10
3124.7444489754748247
 20
152.5474311099104057
 30
0.0
 40
0.0728122375803954
 50
340.4746445562308281
 51
5.6648672815048764
  0
ARC
  5
2A182
  8
0
 10
3124.7553540450630862
 20
152.5670871614015027
 30
0.0
 40
0.0725731623058452
 50
322.6869450526792207
 51
335.7282888460360937
  0
ARC
  5
2A183
  8
0
 10
3124.7386925853388675
 20
152.5746001977313142
 30
0.0
 40
0.0908501958464673
 50
335.7282888460360937
 51
14.0956669250649398
  0
ARC
  5
2A184
  8
0
 10
3124.7422303513280895
 20
152.5754885387032118
 30
0.0
 40
0.087202602410119
 50
14.0956669250649398
 51
46.4605741738265081
  0
ARC
  5
2A185
  8
0
 10
3124.7521803733748129
 20
152.5859592349845002
 30
0.0
 40
0.0727582810569489
 50
46.4605741738265081
 51
87.6293625330813342
  0
ARC
  5
2A186
  8
0
 10
3124.752329377931801
 20
152.589558460938207
 30
0.0
 40
0.0691559720997063
 50
87.6293625330813342
 51
132.3712850875938898
  0
ARC
  5
2A187
  8
0
 10
3124.7688662930790997
 20
152.5714299903704898
 30
0.0
 40
0.093693922457152
 50
132.3712850875938898
 51
154.2792678450163066
  0
ARC
  5
2A188
  8
0
 10
3124.7587357030888597
 20
152.5763100296061054
 30
0.0
 40
0.0824492065209747
 50
154.2792678450163066
 51
183.8695927054803008
  0
ARC
  5
2A189
  8
0
 10
3124.7731791647838691
 20
152.5772869854421003
 30
0.0
 40
0.0969256711585577
 50
183.8695927054803008
 51
214.0703614620138922
  0
LINE
  5
2A18A
  8
0
 10
3124.8168441257039376
 20
152.5396488117391982
 30
0.0
 11
3124.8268073209410431
 21
152.5967260074332899
 31
0.0
  0
ARC
  5
2A18B
  8
0
 10
3124.695008359068197
 20
152.6325379206948867
 30
0.0
 40
0.1442342873926253
 50
330.6372712038815962
 51
338.6841727014319758
  0
LINE
  5
2A18C
  8
0
 10
3124.6890030824711175
 20
152.5397183462924033
 30
0.0
 11
3124.6789498749431004
 21
152.59709688321459
 31
0.0
  0
ARC
  5
2A18D
  8
0
 10
3124.7683597535738045
 20
152.6137737262299083
 30
0.0
 40
0.0976097502695255
 50
199.6240714546594006
 51
211.2309359758008043
  0
ARC
  5
2A18E
  8
0
 10
3123.6628920360121811
 20
150.4027520421105066
 30
0.0
 40
0.032544057421958
 50
68.5232888778039353
 51
144.355766804783002
  0
ARC
  5
2A18F
  8
0
 10
3123.6458704129049693
 20
150.4149582147518061
 30
0.0
 40
0.0115982630045883
 50
144.355766804783002
 51
236.4283658377738107
  0
ARC
  5
2A190
  8
0
 10
3123.6689937849610033
 20
150.4157158638105045
 30
0.0
 40
0.0182701423768342
 50
15.3058211045231207
 51
71.4464918171222223
  0
ARC
  5
2A191
  8
0
 10
3123.6744490758851498
 20
150.4172088582681113
 30
0.0
 40
0.0126142400159476
 50
295.7320191995611935
 51
15.3058211045215504
  0
ARC
  5
2A192
  8
0
 10
3123.6593246424690733
 20
150.4325009150998937
 30
0.0
 40
0.0336884875590938
 50
233.8606435565446873
 51
307.6992331828976717
  0
ARC
  5
2A193
  8
0
 10
3123.6907716067871661
 20
150.4256628262031086
 30
0.0
 40
0.0343546845451782
 50
342.0678777653325255
 51
36.0444303789714127
  0
ARC
  5
2A194
  8
0
 10
3123.674733539627141
 20
150.413991475855596
 30
0.0
 40
0.0541900070074988
 50
36.0444303789727201
 51
80.0288161776202998
  0
ARC
  5
2A195
  8
0
 10
3123.6676449011179102
 20
150.3736712386505019
 30
0.0
 40
0.0951286235473024
 50
80.0288161776202998
 51
124.5046570697463011
  0
ARC
  5
2A196
  8
0
 10
3123.636182763988927
 20
150.4194409620023123
 30
0.0
 40
0.0395882450071387
 50
124.5046570697463011
 51
188.8014576743501038
  0
ARC
  5
2A197
  8
0
 10
3123.6339394985980107
 20
150.4190936277323942
 30
0.0
 40
0.0373182492555917
 50
188.8014576743485122
 51
231.3215609320432122
  0
ARC
  5
2A198
  8
0
 10
3123.6549641676288047
 20
150.445356952424504
 30
0.0
 40
0.0709604687390558
 50
231.3215609320432122
 51
277.5786541040176871
  0
ARC
  5
2A199
  8
0
 10
3123.6520256174721908
 20
150.4674431247890141
 30
0.0
 40
0.0932412695941094
 50
277.5786541040176871
 51
309.3579917447344201
  0
ARC
  5
2A19A
  8
0
 10
3123.6881639610542152
 20
150.4233817604932995
 30
0.0
 40
0.0362554494236015
 50
309.3579917447344201
 51
346.7716940517008197
  0
LINE
  5
2A19B
  8
0
 10
3123.7313840336969406
 20
150.4764277710177964
 30
0.0
 11
3123.7250423845830483
 21
150.4232632138370036
 31
0.0
  0
ARC
  5
2A19C
  8
0
 10
3123.6933802011549233
 20
150.4620120335337958
 30
0.0
 40
0.0442075529010529
 50
317.7844079458943156
 51
335.2645884268358145
  0
ARC
  5
2A19D
  8
0
 10
3123.7012852291268246
 20
150.4583702059462951
 30
0.0
 40
0.0355039688448612
 50
335.2645884268358145
 51
7.8030315002459201
  0
ARC
  5
2A19E
  8
0
 10
3123.705655917337026
 20
150.4589691513500043
 30
0.0
 40
0.0310924327147971
 50
7.8030315002475339
 51
34.1600833714593222
  0
ARC
  5
2A19F
  8
0
 10
3123.6888697901190426
 20
150.4475783986528086
 30
0.0
 40
0.0513784701304842
 50
34.1600833714593222
 51
57.2165275870697698
  0
ARC
  5
2A1A0
  8
0
 10
3123.6717401431769758
 20
150.420981543492104
 30
0.0
 40
0.0830141700403471
 50
57.2165275870697698
 51
86.6177239952931757
  0
ARC
  5
2A1A1
  8
0
 10
3123.6689727287121059
 20
150.3741559906854945
 30
0.0
 40
0.1299214293767807
 50
86.6177239952931757
 51
105.4154698434658002
  0
ARC
  5
2A1A2
  8
0
 10
3123.6565415200789175
 20
150.4192396603089037
 30
0.0
 40
0.0831552854819973
 50
105.4154698434658002
 51
132.1391864297216898
  0
ARC
  5
2A1A3
  8
0
 10
3123.6387267070290363
 20
150.4389286174233007
 30
0.0
 40
0.0566030238783478
 50
132.1391864297216898
 51
162.4939021136950998
  0
ARC
  5
2A1A4
  8
0
 10
3123.6150235311420147
 20
150.4464049736407105
 30
0.0
 40
0.0317487194343671
 50
162.4939021136950998
 51
232.5989060887675066
  0
LINE
  5
2A1A5
  8
0
 10
3123.5968518879958538
 20
150.4149341520063103
 30
0.0
 11
3123.5957396444791812
 21
150.42118369490899
 31
0.0
  0
LINE
  5
2A1A6
  8
0
 10
3123.5957396444791812
 20
150.42118369490899
 30
0.0
 11
3123.5883662672249557
 21
150.4647690588849116
 31
0.0
  0
ARC
  5
2A1A7
  8
0
 10
3123.9544186946041009
 20
150.7593433209484033
 30
0.0
 40
0.032544057421958
 50
68.5232888778039353
 51
144.355766804783002
  0
ARC
  5
2A1A8
  8
0
 10
3123.9373970714950701
 20
150.7715494935897027
 30
0.0
 40
0.0115982630045883
 50
144.355766804783002
 51
236.4283658377738107
  0
ARC
  5
2A1A9
  8
0
 10
3123.9605204435520136
 20
150.7723071426484864
 30
0.0
 40
0.0182701423768342
 50
15.3058211045231207
 51
71.4464918171222223
  0
ARC
  5
2A1AA
  8
0
 10
3123.9659757344747959
 20
150.7738001371060079
 30
0.0
 40
0.0126142400159476
 50
295.7320191995611935
 51
15.3058211045215504
  0
ARC
  5
2A1AB
  8
0
 10
3123.9508513010591741
 20
150.7890921939377904
 30
0.0
 40
0.0336884875590938
 50
233.8606435565446873
 51
307.6992331828976717
  0
ARC
  5
2A1AC
  8
0
 10
3123.9822982653781764
 20
150.7822541050410905
 30
0.0
 40
0.0343546845451782
 50
342.0678777653325255
 51
36.0444303789714127
  0
ARC
  5
2A1AD
  8
0
 10
3123.9662601982167871
 20
150.7705827546934927
 30
0.0
 40
0.0541900070074988
 50
36.0444303789727201
 51
80.0288161776202998
  0
ARC
  5
2A1AE
  8
0
 10
3123.959171559708011
 20
150.7302625174883985
 30
0.0
 40
0.0951286235473024
 50
80.0288161776202998
 51
124.5046570697463011
  0
ARC
  5
2A1AF
  8
0
 10
3123.9277094225790279
 20
150.7760322408402089
 30
0.0
 40
0.0395882450071387
 50
124.5046570697463011
 51
188.8014576743501038
  0
ARC
  5
2A1B0
  8
0
 10
3123.9254661571881115
 20
150.7756849065702909
 30
0.0
 40
0.0373182492555917
 50
188.8014576743485122
 51
231.3215609320432122
  0
ARC
  5
2A1B1
  8
0
 10
3123.9464908262198151
 20
150.8019482312624007
 30
0.0
 40
0.0709604687390558
 50
231.3215609320432122
 51
277.5786541040176871
  0
ARC
  5
2A1B2
  8
0
 10
3123.9435522760618369
 20
150.8240344036269107
 30
0.0
 40
0.0932412695941094
 50
277.5786541040176871
 51
309.3579917447344201
  0
ARC
  5
2A1B3
  8
0
 10
3123.9796906196452255
 20
150.7799730393311961
 30
0.0
 40
0.0362554494236015
 50
309.3579917447344201
 51
346.7716940517008197
  0
LINE
  5
2A1B4
  8
0
 10
3124.022910692287951
 20
150.8330190498556931
 30
0.0
 11
3124.0165690431731491
 21
150.7798544926749003
 31
0.0
  0
ARC
  5
2A1B5
  8
0
 10
3123.9849068597450241
 20
150.8186033123716925
 30
0.0
 40
0.0442075529010529
 50
317.7844079458943156
 51
335.2645884268358145
  0
ARC
  5
2A1B6
  8
0
 10
3123.9928118877178349
 20
150.8149614847841917
 30
0.0
 40
0.0355039688448612
 50
335.2645884268358145
 51
7.8030315002459201
  0
ARC
  5
2A1B7
  8
0
 10
3123.9971825759280364
 20
150.8155604301879009
 30
0.0
 40
0.0310924327147971
 50
7.8030315002475339
 51
34.1600833714593222
  0
ARC
  5
2A1B8
  8
0
 10
3123.9803964487091434
 20
150.8041696774907905
 30
0.0
 40
0.0513784701304842
 50
34.1600833714593222
 51
57.2165275870697698
  0
ARC
  5
2A1B9
  8
0
 10
3123.9632668017670767
 20
150.7775728223300007
 30
0.0
 40
0.0830141700403471
 50
57.2165275870697698
 51
86.6177239952931757
  0
ARC
  5
2A1BA
  8
0
 10
3123.9604993873022067
 20
150.7307472695235049
 30
0.0
 40
0.1299214293767807
 50
86.6177239952931757
 51
105.4154698434658002
  0
ARC
  5
2A1BB
  8
0
 10
3123.9480681786699279
 20
150.7758309391468003
 30
0.0
 40
0.0831552854819973
 50
105.4154698434658002
 51
132.1391864297216898
  0
ARC
  5
2A1BC
  8
0
 10
3123.9302533656200467
 20
150.7955198962611973
 30
0.0
 40
0.0566030238783478
 50
132.1391864297216898
 51
162.4939021136950998
  0
ARC
  5
2A1BD
  8
0
 10
3123.906550189733025
 20
150.8029962524786924
 30
0.0
 40
0.0317487194343671
 50
162.4939021136950998
 51
232.5989060887675066
  0
LINE
  5
2A1BE
  8
0
 10
3123.8883785465859546
 20
150.771525430844207
 30
0.0
 11
3123.8872663030688273
 21
150.7777749737468866
 31
0.0
  0
LINE
  5
2A1BF
  8
0
 10
3123.8872663030688273
 20
150.7777749737468866
 30
0.0
 11
3123.879892925815966
 21
150.8213603377228083
 31
0.0
  0
ARC
  5
2A1C0
  8
0
 10
3124.4832553315009136
 20
150.8758965177866003
 30
0.0
 40
0.032544057421958
 50
68.5232888778039353
 51
144.355766804783002
  0
ARC
  5
2A1C1
  8
0
 10
3124.4662337083941566
 20
150.8881026904278997
 30
0.0
 40
0.0115982630045883
 50
144.355766804783002
 51
236.4283658377738107
  0
ARC
  5
2A1C2
  8
0
 10
3124.4893570804501906
 20
150.8888603394867118
 30
0.0
 40
0.0182701423768342
 50
15.3058211045231207
 51
71.4464918171222223
  0
ARC
  5
2A1C3
  8
0
 10
3124.4948123713738823
 20
150.8903533339442049
 30
0.0
 40
0.0126142400159476
 50
295.7320191995611935
 51
15.3058211045215504
  0
ARC
  5
2A1C4
  8
0
 10
3124.4796879379578058
 20
150.9056453907759874
 30
0.0
 40
0.0336884875590938
 50
233.8606435565446873
 51
307.6992331828976717
  0
ARC
  5
2A1C5
  8
0
 10
3124.5111349022758986
 20
150.8988073018792875
 30
0.0
 40
0.0343546845451782
 50
342.0678777653325255
 51
36.0444303789714127
  0
ARC
  5
2A1C6
  8
0
 10
3124.4950968351149641
 20
150.8871359515316897
 30
0.0
 40
0.0541900070074988
 50
36.0444303789727201
 51
80.0288161776202998
  0
ARC
  5
2A1C7
  8
0
 10
3124.488008196606188
 20
150.8468157143265955
 30
0.0
 40
0.0951286235473024
 50
80.0288161776202998
 51
124.5046570697463011
  0
ARC
  5
2A1C8
  8
0
 10
3124.4565460594781143
 20
150.8925854376784059
 30
0.0
 40
0.0395882450071387
 50
124.5046570697463011
 51
188.8014576743501038
  0
ARC
  5
2A1C9
  8
0
 10
3124.454302794087198
 20
150.8922381034084879
 30
0.0
 40
0.0373182492555917
 50
188.8014576743485122
 51
231.3215609320432122
  0
ARC
  5
2A1CA
  8
0
 10
3124.475327463117992
 20
150.9185014281005976
 30
0.0
 40
0.0709604687390558
 50
231.3215609320432122
 51
277.5786541040176871
  0
ARC
  5
2A1CB
  8
0
 10
3124.4723889129600138
 20
150.9405876004651077
 30
0.0
 40
0.0932412695941094
 50
277.5786541040176871
 51
309.3579917447344201
  0
ARC
  5
2A1CC
  8
0
 10
3124.5085272565429477
 20
150.8965262361693931
 30
0.0
 40
0.0362554494236015
 50
309.3579917447344201
 51
346.7716940517008197
  0
LINE
  5
2A1CD
  8
0
 10
3124.5517473291861279
 20
150.9495722466938901
 30
0.0
 11
3124.5454056800717808
 21
150.8964076895130972
 31
0.0
  0
ARC
  5
2A1CE
  8
0
 10
3124.5137434966441106
 20
150.9351565092098895
 30
0.0
 40
0.0442075529010529
 50
317.7844079458943156
 51
335.2645884268358145
  0
ARC
  5
2A1CF
  8
0
 10
3124.5216485246160119
 20
150.9315146816223887
 30
0.0
 40
0.0355039688448612
 50
335.2645884268358145
 51
7.8030315002459201
  0
ARC
  5
2A1D0
  8
0
 10
3124.5260192128262133
 20
150.9321136270260979
 30
0.0
 40
0.0310924327147971
 50
7.8030315002475339
 51
34.1600833714593222
  0
ARC
  5
2A1D1
  8
0
 10
3124.5092330856068656
 20
150.9207228743289875
 30
0.0
 40
0.0513784701304842
 50
34.1600833714593222
 51
57.2165275870697698
  0
ARC
  5
2A1D2
  8
0
 10
3124.4921034386661631
 20
150.8941260191681977
 30
0.0
 40
0.0830141700403471
 50
57.2165275870697698
 51
86.6177239952931757
  0
ARC
  5
2A1D3
  8
0
 10
3124.4893360242008384
 20
150.8473004663617019
 30
0.0
 40
0.1299214293767807
 50
86.6177239952931757
 51
105.4154698434658002
  0
ARC
  5
2A1D4
  8
0
 10
3124.4769048155681048
 20
150.892384135985111
 30
0.0
 40
0.0831552854819973
 50
105.4154698434658002
 51
132.1391864297216898
  0
ARC
  5
2A1D5
  8
0
 10
3124.4590900025168594
 20
150.9120730930993943
 30
0.0
 40
0.0566030238783478
 50
132.1391864297216898
 51
162.4939021136950998
  0
ARC
  5
2A1D6
  8
0
 10
3124.435386826631202
 20
150.9195494493168894
 30
0.0
 40
0.0317487194343671
 50
162.4939021136950998
 51
232.5989060887675066
  0
LINE
  5
2A1D7
  8
0
 10
3124.4172151834850411
 20
150.888078627682404
 30
0.0
 11
3124.4161029399679137
 21
150.894328170585112
 31
0.0
  0
LINE
  5
2A1D8
  8
0
 10
3124.4161029399679137
 20
150.894328170585112
 30
0.0
 11
3124.408729562714143
 21
150.9379135345610905
 31
0.0
  0
ARC
  5
2A1D9
  8
0
 10
3124.4884471274249336
 20
151.306859588776291
 30
0.0
 40
0.032544057421958
 50
68.5232888778039353
 51
144.355766804783002
  0
ARC
  5
2A1DA
  8
0
 10
3124.4714255043181765
 20
151.3190657614175905
 30
0.0
 40
0.0115982630045883
 50
144.355766804783002
 51
236.4283658377738107
  0
ARC
  5
2A1DB
  8
0
 10
3124.4945488763742105
 20
151.3198234104764026
 30
0.0
 40
0.0182701423768342
 50
15.3058211045231207
 51
71.4464918171222223
  0
ARC
  5
2A1DC
  8
0
 10
3124.5000041672969928
 20
151.3213164049338957
 30
0.0
 40
0.0126142400159476
 50
295.7320191995611935
 51
15.3058211045215504
  0
ARC
  5
2A1DD
  8
0
 10
3124.4848797338809163
 20
151.3366084617657066
 30
0.0
 40
0.0336884875590938
 50
233.8606435565446873
 51
307.6992331828976717
  0
ARC
  5
2A1DE
  8
0
 10
3124.5163266981990091
 20
151.3297703728690067
 30
0.0
 40
0.0343546845451782
 50
342.0678777653325255
 51
36.0444303789714127
  0
ARC
  5
2A1DF
  8
0
 10
3124.500288631038984
 20
151.3180990225214089
 30
0.0
 40
0.0541900070074988
 50
36.0444303789727201
 51
80.0288161776202998
  0
ARC
  5
2A1E0
  8
0
 10
3124.493199992530208
 20
151.2777787853162863
 30
0.0
 40
0.0951286235473024
 50
80.0288161776202998
 51
124.5046570697463011
  0
ARC
  5
2A1E1
  8
0
 10
3124.4617378554021343
 20
151.3235485086680967
 30
0.0
 40
0.0395882450071387
 50
124.5046570697463011
 51
188.8014576743501038
  0
ARC
  5
2A1E2
  8
0
 10
3124.4594945900098537
 20
151.3232011743982071
 30
0.0
 40
0.0373182492555917
 50
188.8014576743485122
 51
231.3215609320432122
  0
ARC
  5
2A1E3
  8
0
 10
3124.480519259042012
 20
151.3494644990902884
 30
0.0
 40
0.0709604687390558
 50
231.3215609320432122
 51
277.5786541040176871
  0
ARC
  5
2A1E4
  8
0
 10
3124.4775807088840338
 20
151.3715506714547985
 30
0.0
 40
0.0932412695941094
 50
277.5786541040176871
 51
309.3579917447344201
  0
ARC
  5
2A1E5
  8
0
 10
3124.5137190524669677
 20
151.3274893071591123
 30
0.0
 40
0.0362554494236015
 50
309.3579917447344201
 51
346.7716940517008197
  0
LINE
  5
2A1E6
  8
0
 10
3124.5569391251087836
 20
151.3805353176836093
 30
0.0
 11
3124.5505974759948913
 21
151.327370760502788
 31
0.0
  0
ARC
  5
2A1E7
  8
0
 10
3124.518935292567221
 20
151.3661195801996087
 30
0.0
 40
0.0442075529010529
 50
317.7844079458943156
 51
335.2645884268358145
  0
ARC
  5
2A1E8
  8
0
 10
3124.5268403205400318
 20
151.3624777526121079
 30
0.0
 40
0.0355039688448612
 50
335.2645884268358145
 51
7.8030315002459201
  0
ARC
  5
2A1E9
  8
0
 10
3124.5312110087497786
 20
151.3630766980157887
 30
0.0
 40
0.0310924327147971
 50
7.8030315002475339
 51
34.1600833714593222
  0
ARC
  5
2A1EA
  8
0
 10
3124.5144248815299761
 20
151.3516859453187067
 30
0.0
 40
0.0513784701304842
 50
34.1600833714593222
 51
57.2165275870697698
  0
ARC
  5
2A1EB
  8
0
 10
3124.4972952345888189
 20
151.3250890901578884
 30
0.0
 40
0.0830141700403471
 50
57.2165275870697698
 51
86.6177239952931757
  0
ARC
  5
2A1EC
  8
0
 10
3124.4945278201248584
 20
151.2782635373513074
 30
0.0
 40
0.1299214293767807
 50
86.6177239952931757
 51
105.4154698434658002
  0
ARC
  5
2A1ED
  8
0
 10
3124.4820966114912153
 20
151.3233472069748018
 30
0.0
 40
0.0831552854819973
 50
105.4154698434658002
 51
132.1391864297216898
  0
ARC
  5
2A1EE
  8
0
 10
3124.4642817984408794
 20
151.3430361640891135
 30
0.0
 40
0.0566030238783478
 50
132.1391864297216898
 51
162.4939021136950998
  0
ARC
  5
2A1EF
  8
0
 10
3124.440578622555222
 20
151.3505125203066086
 30
0.0
 40
0.0317487194343671
 50
162.4939021136950998
 51
232.5989060887675066
  0
LINE
  5
2A1F0
  8
0
 10
3124.4224069794081515
 20
151.3190416986720948
 30
0.0
 11
3124.4212947358910242
 21
151.3252912415748028
 31
0.0
  0
LINE
  5
2A1F1
  8
0
 10
3124.4212947358910242
 20
151.3252912415748028
 30
0.0
 11
3124.4139213586367987
 21
151.3688766055508097
 31
0.0
  0
ARC
  5
2A1F2
  8
0
 10
3124.8841562874458759
 20
151.6718626378647912
 30
0.0
 40
0.032544057421958
 50
68.5232888778039353
 51
144.355766804783002
  0
ARC
  5
2A1F3
  8
0
 10
3124.8671346643382094
 20
151.6840688105060906
 30
0.0
 40
0.0115982630045883
 50
144.355766804783002
 51
236.4283658377738107
  0
ARC
  5
2A1F4
  8
0
 10
3124.8902580363937886
 20
151.684826459564789
 30
0.0
 40
0.0182701423768342
 50
15.3058211045231207
 51
71.4464918171222223
  0
ARC
  5
2A1F5
  8
0
 10
3124.8957133273179352
 20
151.6863194540223958
 30
0.0
 40
0.0126142400159476
 50
295.7320191995611935
 51
15.3058211045215504
  0
ARC
  5
2A1F6
  8
0
 10
3124.8805888939018587
 20
151.701611510854093
 30
0.0
 40
0.0336884875590938
 50
233.8606435565446873
 51
307.6992331828976717
  0
ARC
  5
2A1F7
  8
0
 10
3124.9120358582199515
 20
151.6947734219573931
 30
0.0
 40
0.0343546845451782
 50
342.0678777653325255
 51
36.0444303789714127
  0
ARC
  5
2A1F8
  8
0
 10
3124.8959977910590169
 20
151.6831020716097953
 30
0.0
 40
0.0541900070074988
 50
36.0444303789727201
 51
80.0288161776202998
  0
ARC
  5
2A1F9
  8
0
 10
3124.8889091525497861
 20
151.6427818344047012
 30
0.0
 40
0.0951286235473024
 50
80.0288161776202998
 51
124.5046570697463011
  0
ARC
  5
2A1FA
  8
0
 10
3124.8574470154221672
 20
151.6885515577565968
 30
0.0
 40
0.0395882450071387
 50
124.5046570697463011
 51
188.8014576743501038
  0
ARC
  5
2A1FB
  8
0
 10
3124.8552037500298866
 20
151.6882042234867072
 30
0.0
 40
0.0373182492555917
 50
188.8014576743485122
 51
231.3215609320432122
  0
ARC
  5
2A1FC
  8
0
 10
3124.8762284190620448
 20
151.7144675481787885
 30
0.0
 40
0.0709604687390558
 50
231.3215609320432122
 51
277.5786541040176871
  0
ARC
  5
2A1FD
  8
0
 10
3124.8732898689049762
 20
151.7365537205432986
 30
0.0
 40
0.0932412695941094
 50
277.5786541040176871
 51
309.3579917447344201
  0
ARC
  5
2A1FE
  8
0
 10
3124.9094282124870006
 20
151.6924923562476124
 30
0.0
 40
0.0362554494236015
 50
309.3579917447344201
 51
346.7716940517008197
  0
LINE
  5
2A1FF
  8
0
 10
3124.9526482851301807
 20
151.7455383667719957
 30
0.0
 11
3124.9463066360158336
 21
151.6923738095912029
 31
0.0
  0
ARC
  5
2A200
  8
0
 10
3124.9146444525881634
 20
151.7311226292879951
 30
0.0
 40
0.0442075529010529
 50
317.7844079458943156
 51
335.2645884268358145
  0
ARC
  5
2A201
  8
0
 10
3124.9225494805600647
 20
151.727480801700608
 30
0.0
 40
0.0355039688448612
 50
335.2645884268358145
 51
7.8030315002459201
  0
ARC
  5
2A202
  8
0
 10
3124.9269201687698114
 20
151.7280797471042888
 30
0.0
 40
0.0310924327147971
 50
7.8030315002475339
 51
34.1600833714593222
  0
ARC
  5
2A203
  8
0
 10
3124.9101340415509185
 20
151.7166889944070931
 30
0.0
 40
0.0513784701304842
 50
34.1600833714593222
 51
57.2165275870697698
  0
ARC
  5
2A204
  8
0
 10
3124.8930043946088517
 20
151.6900921392463033
 30
0.0
 40
0.0830141700403471
 50
57.2165275870697698
 51
86.6177239952931757
  0
ARC
  5
2A205
  8
0
 10
3124.8902369801448913
 20
151.6432665864398075
 30
0.0
 40
0.1299214293767807
 50
86.6177239952931757
 51
105.4154698434658002
  0
ARC
  5
2A206
  8
0
 10
3124.8778057715121577
 20
151.6883502560631882
 30
0.0
 40
0.0831552854819973
 50
105.4154698434658002
 51
132.1391864297216898
  0
ARC
  5
2A207
  8
0
 10
3124.8599909584618217
 20
151.7080392131776136
 30
0.0
 40
0.0566030238783478
 50
132.1391864297216898
 51
162.4939021136950998
  0
ARC
  5
2A208
  8
0
 10
3124.8362877825748001
 20
151.7155155693949951
 30
0.0
 40
0.0317487194343671
 50
162.4939021136950998
 51
232.5989060887675066
  0
LINE
  5
2A209
  8
0
 10
3124.8181161394290939
 20
151.6840447477605949
 30
0.0
 11
3124.8170038959119665
 21
151.6902942906633029
 31
0.0
  0
LINE
  5
2A20A
  8
0
 10
3124.8170038959119665
 20
151.6902942906633029
 30
0.0
 11
3124.8096305186581958
 21
151.7338796546391961
 31
0.0
  0
ARC
  5
2A20B
  8
0
 10
3124.5993969063920304
 20
152.0357309086247142
 30
0.0
 40
0.032544057421958
 50
68.5232888778039353
 51
144.355766804783002
  0
ARC
  5
2A20C
  8
0
 10
3124.5823752832839091
 20
152.0479370812660136
 30
0.0
 40
0.0115982630045883
 50
144.355766804783002
 51
236.4283658377738107
  0
ARC
  5
2A20D
  8
0
 10
3124.6054986553399431
 20
152.0486947303247121
 30
0.0
 40
0.0182701423768342
 50
15.3058211045231207
 51
71.4464918171222223
  0
ARC
  5
2A20E
  8
0
 10
3124.6109539462640896
 20
152.0501877247822904
 30
0.0
 40
0.0126142400159476
 50
295.7320191995611935
 51
15.3058211045215504
  0
ARC
  5
2A20F
  8
0
 10
3124.5958295128480131
 20
152.0654797816141013
 30
0.0
 40
0.0336884875590938
 50
233.8606435565446873
 51
307.6992331828976717
  0
ARC
  5
2A210
  8
0
 10
3124.6272764771670154
 20
152.0586416927172877
 30
0.0
 40
0.0343546845451782
 50
342.0678777653325255
 51
36.0444303789714127
  0
ARC
  5
2A211
  8
0
 10
3124.6112384100060808
 20
152.0469703423698036
 30
0.0
 40
0.0541900070074988
 50
36.0444303789727201
 51
80.0288161776202998
  0
ARC
  5
2A212
  8
0
 10
3124.60414977149685
 20
152.0066501051647094
 30
0.0
 40
0.0951286235473024
 50
80.0288161776202998
 51
124.5046570697463011
  0
ARC
  5
2A213
  8
0
 10
3124.5726876343678668
 20
152.0524198285164914
 30
0.0
 40
0.0395882450071387
 50
124.5046570697463011
 51
188.8014576743501038
  0
ARC
  5
2A214
  8
0
 10
3124.5704443689769505
 20
152.0520724942466018
 30
0.0
 40
0.0373182492555917
 50
188.8014576743485122
 51
231.3215609320432122
  0
ARC
  5
2A215
  8
0
 10
3124.5914690380081993
 20
152.0783358189387116
 30
0.0
 40
0.0709604687390558
 50
231.3215609320432122
 51
277.5786541040176871
  0
ARC
  5
2A216
  8
0
 10
3124.5885304878511306
 20
152.1004219913031932
 30
0.0
 40
0.0932412695941094
 50
277.5786541040176871
 51
309.3579917447344201
  0
ARC
  5
2A217
  8
0
 10
3124.6246688314340645
 20
152.056360627007507
 30
0.0
 40
0.0362554494236015
 50
309.3579917447344201
 51
346.7716940517008197
  0
LINE
  5
2A218
  8
0
 10
3124.6678889040767899
 20
152.109406637532004
 30
0.0
 11
3124.6615472549619881
 21
152.0562420803512111
 31
0.0
  0
ARC
  5
2A219
  8
0
 10
3124.6298850715338631
 20
152.0949909000478897
 30
0.0
 40
0.0442075529010529
 50
317.7844079458943156
 51
335.2645884268358145
  0
ARC
  5
2A21A
  8
0
 10
3124.6377900995071286
 20
152.0913490724605026
 30
0.0
 40
0.0355039688448612
 50
335.2645884268358145
 51
7.8030315002459201
  0
ARC
  5
2A21B
  8
0
 10
3124.6421607877168753
 20
152.0919480178642118
 30
0.0
 40
0.0310924327147971
 50
7.8030315002475339
 51
34.1600833714593222
  0
ARC
  5
2A21C
  8
0
 10
3124.6253746604970729
 20
152.0805572651669877
 30
0.0
 40
0.0513784701304842
 50
34.1600833714593222
 51
57.2165275870697698
  0
ARC
  5
2A21D
  8
0
 10
3124.6082450135559156
 20
152.0539604100061979
 30
0.0
 40
0.0830141700403471
 50
57.2165275870697698
 51
86.6177239952931757
  0
ARC
  5
2A21E
  8
0
 10
3124.6054775990910457
 20
152.0071348571997021
 30
0.0
 40
0.1299214293767807
 50
86.6177239952931757
 51
105.4154698434658002
  0
ARC
  5
2A21F
  8
0
 10
3124.5930463904578573
 20
152.0522185268231112
 30
0.0
 40
0.0831552854819973
 50
105.4154698434658002
 51
132.1391864297216898
  0
ARC
  5
2A220
  8
0
 10
3124.5752315774079761
 20
152.0719074839375082
 30
0.0
 40
0.0566030238783478
 50
132.1391864297216898
 51
162.4939021136950998
  0
ARC
  5
2A221
  8
0
 10
3124.551528401521864
 20
152.0793838401550033
 30
0.0
 40
0.0317487194343671
 50
162.4939021136950998
 51
232.5989060887675066
  0
LINE
  5
2A222
  8
0
 10
3124.5333567583747936
 20
152.0479130185204895
 30
0.0
 11
3124.532244514858121
 21
152.0541625614231975
 31
0.0
  0
LINE
  5
2A223
  8
0
 10
3124.532244514858121
 20
152.0541625614231975
 30
0.0
 11
3124.5248711376038955
 21
152.0977479253992044
 31
0.0
  0
ARC
  5
2A224
  8
0
 10
3123.6416379299212167
 20
151.1586747970104057
 30
0.0
 40
0.0255798350541456
 50
19.2612508583356998
 51
91.9432184961061552
  0
ARC
  5
2A225
  8
0
 10
3123.6417732817558317
 20
151.1546854797001913
 30
0.0
 40
0.0295714478510929
 50
91.9432184961061552
 51
145.2519117537461
  0
ARC
  5
2A226
  8
0
 10
3123.6340427060440561
 20
151.1625497277262866
 30
0.0
 40
0.0188495359605226
 50
151.5126252543668954
 51
219.4252678966448116
  0
ARC
  5
2A227
  8
0
 10
3123.6380475755449879
 20
151.1653390397270016
 30
0.0
 40
0.0237177099216007
 50
218.4860753032839966
 51
241.7579097554526868
  0
ARC
  5
2A228
  8
0
 10
3123.6407415694948213
 20
151.1703544667890924
 30
0.0
 40
0.0294108735427872
 50
241.757909755451891
 51
276.2632562869451931
  0
ARC
  5
2A229
  8
0
 10
3123.6408056212208066
 20
151.1697708623860024
 30
0.0
 40
0.0288237647598669
 50
276.2632562869451931
 51
309.9119307848908988
  0
ARC
  5
2A22A
  8
0
 10
3123.6467618729229798
 20
151.1626502788805908
 30
0.0
 40
0.0195404655730405
 50
309.9119307848931157
 51
13.2018374832689407
  0
ARC
  5
2A22B
  8
0
 10
3123.6564068707061779
 20
151.1675347995397942
 30
0.0
 40
0.0484572422601305
 50
350.5294890000785131
 51
38.6654026249876992
  0
ARC
  5
2A22C
  8
0
 10
3123.643939364058042
 20
151.157558797643901
 30
0.0
 40
0.064424688388718
 50
38.6654026249864273
 51
82.4654028658740401
  0
ARC
  5
2A22D
  8
0
 10
3123.6422946383868293
 20
151.1451238926237863
 30
0.0
 40
0.0769678931383846
 50
82.4654028658740401
 51
128.7555521142531063
  0
ARC
  5
2A22E
  8
0
 10
3123.6236712187719604
 20
151.1683235868003123
 30
0.0
 40
0.0472179760291364
 50
128.7555521142521116
 51
200.4197273141774076
  0
ARC
  5
2A22F
  8
0
 10
3123.6338286852628698
 20
151.1721050962185018
 30
0.0
 40
0.0580565155521089
 50
200.4197273141774076
 51
243.1680778813455959
  0
ARC
  5
2A230
  8
0
 10
3123.6404934605579911
 20
151.1852808631045946
 30
0.0
 40
0.0728220180079248
 50
243.1680778813455959
 51
306.9241645298903904
  0
ARC
  5
2A231
  8
0
 10
3123.6530047600122089
 20
151.1686320053815109
 30
0.0
 40
0.0519961428160376
 50
306.9241645298903904
 51
349.9537592248693727
  0
ARC
  5
2A232
  8
0
 10
3123.6579934660057916
 20
151.1981697261909119
 30
0.0
 40
0.0602159939425495
 50
320.1216279724063156
 51
349.6470669532976103
  0
ARC
  5
2A233
  8
0
 10
3123.667192494432129
 20
151.1964891986665975
 30
0.0
 40
0.0508647214760567
 50
349.6470669532976103
 51
21.9665542178461308
  0
ARC
  5
2A234
  8
0
 10
3123.6523708236600214
 20
151.1905109169055947
 30
0.0
 40
0.0668466418018999
 50
21.9665542178461308
 51
56.8610032652314104
  0
ARC
  5
2A235
  8
0
 10
3123.6413602240882028
 20
151.1736457937105058
 30
0.0
 40
0.0869877858438523
 50
56.8610032652095896
 51
100.3782694556841051
  0
ARC
  5
2A236
  8
0
 10
3123.6416406278449358
 20
151.1721147235136016
 30
0.0
 40
0.0885443211680643
 50
100.3782694556841051
 51
134.6862463078965106
  0
ARC
  5
2A237
  8
0
 10
3123.6161184034308462
 20
151.1979180110363075
 30
0.0
 40
0.0522511594695935
 50
134.6862463078965106
 51
172.8164286140597881
  0
ARC
  5
2A238
  8
0
 10
3123.6231017199061171
 20
151.197037847238704
 30
0.0
 40
0.059289724472353
 50
172.8164286140597881
 51
219.433075129531602
  0
LINE
  5
2A239
  8
0
 10
3123.7046472817719405
 20
151.1629558184710049
 30
0.0
 11
3123.7145634990170038
 21
151.2150150674831082
 31
0.0
  0
ARC
  5
2A23A
  8
0
 10
3123.6195352972631554
 20
151.2402827210389091
 30
0.0
 40
0.1063819563673368
 50
326.4203657035137098
 51
337.676556845485095
  0
LINE
  5
2A23B
  8
0
 10
3123.5767307748928943
 20
151.1632116411182096
 30
0.0
 11
3123.5669877554300911
 21
151.2157046097275099
 31
0.0
  0
ARC
  5
2A23C
  8
0
 10
3123.6272648507488157
 20
151.2236036051216104
 30
0.0
 40
0.0679849417791287
 50
201.1232384341585089
 51
217.2699027394444897
  0
ARC
  5
2A23D
  8
0
 10
3123.6087998556699858
 20
151.4611641022781043
 30
0.0
 40
0.0255798350541456
 50
19.2612508583356998
 51
91.9432184961061552
  0
ARC
  5
2A23E
  8
0
 10
3123.6089352075041461
 20
151.45717478496789
 30
0.0
 40
0.0295714478510929
 50
91.9432184961061552
 51
145.2519117537461
  0
ARC
  5
2A23F
  8
0
 10
3123.6012046317910062
 20
151.4650390329940137
 30
0.0
 40
0.0188495359605226
 50
151.5126252543668954
 51
219.4252678966448116
  0
ARC
  5
2A240
  8
0
 10
3123.6052095012928476
 20
151.4678283449947003
 30
0.0
 40
0.0237177099216007
 50
218.4860753032839966
 51
241.7579097554526868
  0
ARC
  5
2A241
  8
0
 10
3123.6079034952431357
 20
151.4728437720567911
 30
0.0
 40
0.0294108735427872
 50
241.757909755451891
 51
276.2632562869451931
  0
ARC
  5
2A242
  8
0
 10
3123.607967546969121
 20
151.472260167653701
 30
0.0
 40
0.0288237647598669
 50
276.2632562869451931
 51
309.9119307848908988
  0
ARC
  5
2A243
  8
0
 10
3123.6139237986708395
 20
151.4651395841484032
 30
0.0
 40
0.0195404655730405
 50
309.9119307848931157
 51
13.2018374832689407
  0
ARC
  5
2A244
  8
0
 10
3123.623568796454947
 20
151.4700241048074929
 30
0.0
 40
0.0484572422601305
 50
350.5294890000785131
 51
38.6654026249876992
  0
ARC
  5
2A245
  8
0
 10
3123.6111012898049921
 20
151.4600481029115997
 30
0.0
 40
0.064424688388718
 50
38.6654026249864273
 51
82.4654028658740401
  0
ARC
  5
2A246
  8
0
 10
3123.6094565641351437
 20
151.4476131978915134
 30
0.0
 40
0.0769678931383846
 50
82.4654028658740401
 51
128.7555521142531063
  0
ARC
  5
2A247
  8
0
 10
3123.5908331445211843
 20
151.470812892068011
 30
0.0
 40
0.0472179760291364
 50
128.7555521142521116
 51
200.4197273141774076
  0
ARC
  5
2A248
  8
0
 10
3123.6009906110120937
 20
151.4745944014862005
 30
0.0
 40
0.0580565155521089
 50
200.4197273141774076
 51
243.1680778813455959
  0
ARC
  5
2A249
  8
0
 10
3123.6076553863072149
 20
151.4877701683722933
 30
0.0
 40
0.0728220180079248
 50
243.1680778813455959
 51
306.9241645298903904
  0
ARC
  5
2A24A
  8
0
 10
3123.6201666857600685
 20
151.4711213106492096
 30
0.0
 40
0.0519961428160376
 50
306.9241645298903904
 51
349.9537592248693727
  0
ARC
  5
2A24B
  8
0
 10
3123.6251553917541059
 20
151.5006590314586106
 30
0.0
 40
0.0602159939425495
 50
320.1216279724063156
 51
349.6470669532976103
  0
ARC
  5
2A24C
  8
0
 10
3123.6343544201799887
 20
151.4989785039344099
 30
0.0
 40
0.0508647214760567
 50
349.6470669532976103
 51
21.9665542178461308
  0
ARC
  5
2A24D
  8
0
 10
3123.6195327494078811
 20
151.4930002221734071
 30
0.0
 40
0.0668466418018999
 50
21.9665542178461308
 51
56.8610032652314104
  0
ARC
  5
2A24E
  8
0
 10
3123.6085221498360625
 20
151.4761350989782045
 30
0.0
 40
0.0869877858438523
 50
56.8610032652095896
 51
100.3782694556841051
  0
ARC
  5
2A24F
  8
0
 10
3123.6088025535941597
 20
151.4746040287813003
 30
0.0
 40
0.0885443211680643
 50
100.3782694556841051
 51
134.6862463078965106
  0
ARC
  5
2A250
  8
0
 10
3123.5832803291791606
 20
151.5004073163040061
 30
0.0
 40
0.0522511594695935
 50
134.6862463078965106
 51
172.8164286140597881
  0
ARC
  5
2A251
  8
0
 10
3123.5902636456539767
 20
151.4995271525064027
 30
0.0
 40
0.059289724472353
 50
172.8164286140597881
 51
219.433075129531602
  0
LINE
  5
2A252
  8
0
 10
3123.6718092075198001
 20
151.4654451237387036
 30
0.0
 11
3123.6817254247648634
 21
151.5175043727506932
 31
0.0
  0
ARC
  5
2A253
  8
0
 10
3123.586697223011015
 20
151.5427720263066078
 30
0.0
 40
0.1063819563673368
 50
326.4203657035137098
 51
337.676556845485095
  0
LINE
  5
2A254
  8
0
 10
3123.5438927006412086
 20
151.4657009463859083
 30
0.0
 11
3123.5341496811788602
 21
151.5181939149952086
 31
0.0
  0
ARC
  5
2A255
  8
0
 10
3123.59442677649713
 20
151.5260929103891954
 30
0.0
 40
0.0679849417791287
 50
201.1232384341585089
 51
217.2699027394444897
  0
ARC
  5
2A256
  8
0
 10
3123.336121227827789
 20
151.3046943666508071
 30
0.0
 40
0.0255798350541456
 50
19.2612508583356998
 51
91.9432184961061552
  0
ARC
  5
2A257
  8
0
 10
3123.3362565796628587
 20
151.3007050493405927
 30
0.0
 40
0.0295714478510929
 50
91.9432184961061552
 51
145.2519117537461
  0
ARC
  5
2A258
  8
0
 10
3123.3285260039501736
 20
151.3085692973666028
 30
0.0
 40
0.0188495359605226
 50
151.5126252543668954
 51
219.4252678966448116
  0
ARC
  5
2A259
  8
0
 10
3123.3325308734520149
 20
151.311358609367403
 30
0.0
 40
0.0237177099216007
 50
218.4860753032839966
 51
241.7579097554526868
  0
ARC
  5
2A25A
  8
0
 10
3123.3352248674018483
 20
151.3163740364294938
 30
0.0
 40
0.0294108735427872
 50
241.757909755451891
 51
276.2632562869451931
  0
ARC
  5
2A25B
  8
0
 10
3123.3352889191278337
 20
151.3157904320264038
 30
0.0
 40
0.0288237647598669
 50
276.2632562869451931
 51
309.9119307848908988
  0
ARC
  5
2A25C
  8
0
 10
3123.3412451708300068
 20
151.3086698485209922
 30
0.0
 40
0.0195404655730405
 50
309.9119307848931157
 51
13.2018374832689407
  0
ARC
  5
2A25D
  8
0
 10
3123.3508901686132049
 20
151.3135543691801956
 30
0.0
 40
0.0484572422601305
 50
350.5294890000785131
 51
38.6654026249876992
  0
ARC
  5
2A25E
  8
0
 10
3123.3384226619641595
 20
151.3035783672843024
 30
0.0
 40
0.064424688388718
 50
38.6654026249864273
 51
82.4654028658740401
  0
ARC
  5
2A25F
  8
0
 10
3123.3367779362938563
 20
151.2911434622641877
 30
0.0
 40
0.0769678931383846
 50
82.4654028658740401
 51
128.7555521142531063
  0
ARC
  5
2A260
  8
0
 10
3123.3181545166798969
 20
151.3143431564407138
 30
0.0
 40
0.0472179760291364
 50
128.7555521142521116
 51
200.4197273141774076
  0
ARC
  5
2A261
  8
0
 10
3123.3283119831698968
 20
151.3181246658589032
 30
0.0
 40
0.0580565155521089
 50
200.4197273141774076
 51
243.1680778813455959
  0
ARC
  5
2A262
  8
0
 10
3123.3349767584650181
 20
151.331300432744996
 30
0.0
 40
0.0728220180079248
 50
243.1680778813455959
 51
306.9241645298903904
  0
ARC
  5
2A263
  8
0
 10
3123.3474880579187811
 20
151.3146515750217986
 30
0.0
 40
0.0519961428160376
 50
306.9241645298903904
 51
349.9537592248693727
  0
ARC
  5
2A264
  8
0
 10
3123.3524767639128186
 20
151.3441892958313133
 30
0.0
 40
0.0602159939425495
 50
320.1216279724063156
 51
349.6470669532976103
  0
ARC
  5
2A265
  8
0
 10
3123.361675792339156
 20
151.3425087683069989
 30
0.0
 40
0.0508647214760567
 50
349.6470669532976103
 51
21.9665542178461308
  0
ARC
  5
2A266
  8
0
 10
3123.3468541215661389
 20
151.3365304865459962
 30
0.0
 40
0.0668466418018999
 50
21.9665542178461308
 51
56.8610032652314104
  0
ARC
  5
2A267
  8
0
 10
3123.3358435219938656
 20
151.3196653633509072
 30
0.0
 40
0.0869877858438523
 50
56.8610032652095896
 51
100.3782694556841051
  0
ARC
  5
2A268
  8
0
 10
3123.3361239257528723
 20
151.318134293154003
 30
0.0
 40
0.0885443211680643
 50
100.3782694556841051
 51
134.6862463078965106
  0
ARC
  5
2A269
  8
0
 10
3123.3106017013378732
 20
151.3439375806765952
 30
0.0
 40
0.0522511594695935
 50
134.6862463078965106
 51
172.8164286140597881
  0
ARC
  5
2A26A
  8
0
 10
3123.3175850178117798
 20
151.3430574168791054
 30
0.0
 40
0.059289724472353
 50
172.8164286140597881
 51
219.433075129531602
  0
LINE
  5
2A26B
  8
0
 10
3123.3991305796789675
 20
151.3089753881114063
 30
0.0
 11
3123.4090467969240308
 21
151.3610346371233959
 31
0.0
  0
ARC
  5
2A26C
  8
0
 10
3123.3140185951701824
 20
151.3863022906793105
 30
0.0
 40
0.1063819563673368
 50
326.4203657035137098
 51
337.676556845485095
  0
LINE
  5
2A26D
  8
0
 10
3123.2712140727990118
 20
151.309231210758611
 30
0.0
 11
3123.2614710533371181
 21
151.3617241793679113
 31
0.0
  0
ARC
  5
2A26E
  8
0
 10
3123.3217481486572069
 20
151.3696231747618981
 30
0.0
 40
0.0679849417791287
 50
201.1232384341585089
 51
217.2699027394444897
  0
ARC
  5
2A26F
  8
0
 10
3123.7472437675951369
 20
151.7237556446341955
 30
0.0
 40
0.0255798350541456
 50
19.2612508583356998
 51
91.9432184961061552
  0
ARC
  5
2A270
  8
0
 10
3123.7473791194311161
 20
151.7197663273240096
 30
0.0
 40
0.0295714478510929
 50
91.9432184961061552
 51
145.2519117537461
  0
ARC
  5
2A271
  8
0
 10
3123.7396485437170668
 20
151.7276305753501049
 30
0.0
 40
0.0188495359605226
 50
151.5126252543668954
 51
219.4252678966448116
  0
ARC
  5
2A272
  8
0
 10
3123.7436534132189081
 20
151.7304198873507914
 30
0.0
 40
0.0237177099216007
 50
218.4860753032839966
 51
241.7579097554526868
  0
ARC
  5
2A273
  8
0
 10
3123.7463474071691962
 20
151.7354353144129107
 30
0.0
 40
0.0294108735427872
 50
241.757909755451891
 51
276.2632562869451931
  0
ARC
  5
2A274
  8
0
 10
3123.7464114588951816
 20
151.7348517100097922
 30
0.0
 40
0.0288237647598669
 50
276.2632562869451931
 51
309.9119307848908988
  0
ARC
  5
2A275
  8
0
 10
3123.7523677105969
 20
151.7277311265044943
 30
0.0
 40
0.0195404655730405
 50
309.9119307848931157
 51
13.2018374832689407
  0
ARC
  5
2A276
  8
0
 10
3123.762012708380098
 20
151.7326156471636125
 30
0.0
 40
0.0484572422601305
 50
350.5294890000785131
 51
38.6654026249876992
  0
ARC
  5
2A277
  8
0
 10
3123.7495452017310527
 20
151.7226396452676909
 30
0.0
 40
0.064424688388718
 50
38.6654026249864273
 51
82.4654028658740401
  0
ARC
  5
2A278
  8
0
 10
3123.7479004760612042
 20
151.7102047402476046
 30
0.0
 40
0.0769678931383846
 50
82.4654028658740401
 51
128.7555521142531063
  0
ARC
  5
2A279
  8
0
 10
3123.7292770564467901
 20
151.7334044344241875
 30
0.0
 40
0.0472179760291364
 50
128.7555521142521116
 51
200.4197273141774076
  0
ARC
  5
2A27A
  8
0
 10
3123.73943452293679
 20
151.7371859438422916
 30
0.0
 40
0.0580565155521089
 50
200.4197273141774076
 51
243.1680778813455959
  0
ARC
  5
2A27B
  8
0
 10
3123.7460992982319112
 20
151.7503617107284981
 30
0.0
 40
0.0728220180079248
 50
243.1680778813455959
 51
306.9241645298903904
  0
ARC
  5
2A27C
  8
0
 10
3123.7586105976870385
 20
151.7337128530051871
 30
0.0
 40
0.0519961428160376
 50
306.9241645298903904
 51
349.9537592248693727
  0
ARC
  5
2A27D
  8
0
 10
3123.7635993036801665
 20
151.7632505738147017
 30
0.0
 40
0.0602159939425495
 50
320.1216279724063156
 51
349.6470669532976103
  0
ARC
  5
2A27E
  8
0
 10
3123.7727983321060492
 20
151.7615700462903874
 30
0.0
 40
0.0508647214760567
 50
349.6470669532976103
 51
21.9665542178461308
  0
ARC
  5
2A27F
  8
0
 10
3123.7579766613330321
 20
151.755591764529413
 30
0.0
 40
0.0668466418018999
 50
21.9665542178461308
 51
56.8610032652314104
  0
ARC
  5
2A280
  8
0
 10
3123.7469660617612135
 20
151.7387266413344094
 30
0.0
 40
0.0869877858438523
 50
56.8610032652095896
 51
100.3782694556841051
  0
ARC
  5
2A281
  8
0
 10
3123.7472464655202202
 20
151.7371955711373914
 30
0.0
 40
0.0885443211680643
 50
100.3782694556841051
 51
134.6862463078965106
  0
ARC
  5
2A282
  8
0
 10
3123.7217242411052212
 20
151.762998858660012
 30
0.0
 40
0.0522511594695935
 50
134.6862463078965106
 51
172.8164286140597881
  0
ARC
  5
2A283
  8
0
 10
3123.7287075575791278
 20
151.7621186948624938
 30
0.0
 40
0.059289724472353
 50
172.8164286140597881
 51
219.433075129531602
  0
LINE
  5
2A284
  8
0
 10
3123.8102531194458606
 20
151.7280366660947948
 30
0.0
 11
3123.820169336690924
 21
151.780095915106898
 31
0.0
  0
ARC
  5
2A285
  8
0
 10
3123.7251411349370755
 20
151.805363568662699
 30
0.0
 40
0.1063819563673368
 50
326.4203657035137098
 51
337.676556845485095
  0
LINE
  5
2A286
  8
0
 10
3123.6823366125668144
 20
151.7282924887419995
 30
0.0
 11
3123.6725935931040112
 21
151.7807854573512998
 31
0.0
  0
ARC
  5
2A287
  8
0
 10
3123.7328706884231906
 20
151.7886844527454002
 30
0.0
 40
0.0679849417791287
 50
201.1232384341585089
 51
217.2699027394444897
  0
ARC
  5
2A288
  8
0
 10
3123.9647167109978909
 20
151.4861440695607087
 30
0.0
 40
0.0255798350541456
 50
19.2612508583356998
 51
91.9432184961061552
  0
ARC
  5
2A289
  8
0
 10
3123.9648520628320512
 20
151.4821547522504943
 30
0.0
 40
0.0295714478510929
 50
91.9432184961061552
 51
145.2519117537461
  0
ARC
  5
2A28A
  8
0
 10
3123.9571214871189113
 20
151.4900190002765044
 30
0.0
 40
0.0188495359605226
 50
151.5126252543668954
 51
219.4252678966448116
  0
ARC
  5
2A28B
  8
0
 10
3123.9611263566212074
 20
151.4928083122771909
 30
0.0
 40
0.0237177099216007
 50
218.4860753032839966
 51
241.7579097554526868
  0
ARC
  5
2A28C
  8
0
 10
3123.9638203505710408
 20
151.4978237393393101
 30
0.0
 40
0.0294108735427872
 50
241.757909755451891
 51
276.2632562869451931
  0
ARC
  5
2A28D
  8
0
 10
3123.9638844022970261
 20
151.4972401349361917
 30
0.0
 40
0.0288237647598669
 50
276.2632562869451931
 51
309.9119307848908988
  0
ARC
  5
2A28E
  8
0
 10
3123.9698406539991993
 20
151.4901195514308938
 30
0.0
 40
0.0195404655730405
 50
309.9119307848931157
 51
13.2018374832689407
  0
ARC
  5
2A28F
  8
0
 10
3123.9794856517819426
 20
151.4950040720900972
 30
0.0
 40
0.0484572422601305
 50
350.5294890000785131
 51
38.6654026249876992
  0
ARC
  5
2A290
  8
0
 10
3123.9670181451328972
 20
151.4850280701940903
 30
0.0
 40
0.064424688388718
 50
38.6654026249864273
 51
82.4654028658740401
  0
ARC
  5
2A291
  8
0
 10
3123.9653734194630488
 20
151.4725931651740041
 30
0.0
 40
0.0769678931383846
 50
82.4654028658740401
 51
128.7555521142531063
  0
ARC
  5
2A292
  8
0
 10
3123.9467499998490894
 20
151.4957928593505869
 30
0.0
 40
0.0472179760291364
 50
128.7555521142521116
 51
200.4197273141774076
  0
ARC
  5
2A293
  8
0
 10
3123.9569074663399988
 20
151.4995743687688048
 30
0.0
 40
0.0580565155521089
 50
200.4197273141774076
 51
243.1680778813455959
  0
ARC
  5
2A294
  8
0
 10
3123.9635722416342105
 20
151.5127501356548976
 30
0.0
 40
0.0728220180079248
 50
243.1680778813455959
 51
306.9241645298903904
  0
ARC
  5
2A295
  8
0
 10
3123.9760835410879736
 20
151.4961012779317002
 30
0.0
 40
0.0519961428160376
 50
306.9241645298903904
 51
349.9537592248693727
  0
ARC
  5
2A296
  8
0
 10
3123.981072247082011
 20
151.5256389987411012
 30
0.0
 40
0.0602159939425495
 50
320.1216279724063156
 51
349.6470669532976103
  0
ARC
  5
2A297
  8
0
 10
3123.9902712755078937
 20
151.5239584712169005
 30
0.0
 40
0.0508647214760567
 50
349.6470669532976103
 51
21.9665542178461308
  0
ARC
  5
2A298
  8
0
 10
3123.9754496047348766
 20
151.5179801894558977
 30
0.0
 40
0.0668466418018999
 50
21.9665542178461308
 51
56.8610032652314104
  0
ARC
  5
2A299
  8
0
 10
3123.964439005163058
 20
151.5011150662608088
 30
0.0
 40
0.0869877858438523
 50
56.8610032652095896
 51
100.3782694556841051
  0
ARC
  5
2A29A
  8
0
 10
3123.9647194089220648
 20
151.4995839960637909
 30
0.0
 40
0.0885443211680643
 50
100.3782694556841051
 51
134.6862463078965106
  0
ARC
  5
2A29B
  8
0
 10
3123.9391971845061562
 20
151.5253872835864968
 30
0.0
 40
0.0522511594695935
 50
134.6862463078965106
 51
172.8164286140597881
  0
ARC
  5
2A29C
  8
0
 10
3123.9461805009809723
 20
151.5245071197888933
 30
0.0
 40
0.059289724472353
 50
172.8164286140597881
 51
219.433075129531602
  0
LINE
  5
2A29D
  8
0
 10
3124.0277260628481599
 20
151.4904250910211942
 30
0.0
 11
3124.0376422800932232
 21
151.5424843400332975
 31
0.0
  0
ARC
  5
2A29E
  8
0
 10
3123.9426140783389201
 20
151.5677519935892121
 30
0.0
 40
0.1063819563673368
 50
326.4203657035137098
 51
337.676556845485095
  0
LINE
  5
2A29F
  8
0
 10
3123.8998095559691137
 20
151.4906809136683989
 30
0.0
 11
3123.89006653650722
 21
151.5431738822778129
 31
0.0
  0
ARC
  5
2A2A0
  8
0
 10
3123.9503436318250351
 20
151.5510728776717997
 30
0.0
 40
0.0679849417791287
 50
201.1232384341585089
 51
217.2699027394444897
  0
ARC
  5
2A2A1
  8
0
 10
3123.6987291575460404
 20
152.0103882269199005
 30
0.0
 40
0.0255798350541456
 50
19.2612508583356998
 51
91.9432184961061552
  0
ARC
  5
2A2A2
  8
0
 10
3123.6988645093811101
 20
152.0063989096096861
 30
0.0
 40
0.0295714478510929
 50
91.9432184961061552
 51
145.2519117537461
  0
ARC
  5
2A2A3
  8
0
 10
3123.6911339336679703
 20
152.0142631576356962
 30
0.0
 40
0.0188495359605226
 50
151.5126252543668954
 51
219.4252678966448116
  0
ARC
  5
2A2A4
  8
0
 10
3123.6951388031689021
 20
152.0170524696364112
 30
0.0
 40
0.0237177099216007
 50
218.4860753032839966
 51
241.7579097554526868
  0
ARC
  5
2A2A5
  8
0
 10
3123.6978327971200997
 20
152.022067896698502
 30
0.0
 40
0.0294108735427872
 50
241.757909755451891
 51
276.2632562869451931
  0
ARC
  5
2A2A6
  8
0
 10
3123.697896848846085
 20
152.0214842922954119
 30
0.0
 40
0.0288237647598669
 50
276.2632562869451931
 51
309.9119307848908988
  0
ARC
  5
2A2A7
  8
0
 10
3123.703853100546894
 20
152.0143637087901141
 30
0.0
 40
0.0195404655730405
 50
309.9119307848931157
 51
13.2018374832689407
  0
ARC
  5
2A2A8
  8
0
 10
3123.7134980983310015
 20
152.0192482294492891
 30
0.0
 40
0.0484572422601305
 50
350.5294890000785131
 51
38.6654026249876992
  0
ARC
  5
2A2A9
  8
0
 10
3123.7010305916819561
 20
152.0092722275533106
 30
0.0
 40
0.064424688388718
 50
38.6654026249864273
 51
82.4654028658740401
  0
ARC
  5
2A2AA
  8
0
 10
3123.6993858660111982
 20
151.9968373225331959
 30
0.0
 40
0.0769678931383846
 50
82.4654028658740401
 51
128.7555521142531063
  0
ARC
  5
2A2AB
  8
0
 10
3123.6807624463981483
 20
152.0200370167098072
 30
0.0
 40
0.0472179760291364
 50
128.7555521142521116
 51
200.4197273141774076
  0
ARC
  5
2A2AC
  8
0
 10
3123.6909199128881482
 20
152.0238185261279114
 30
0.0
 40
0.0580565155521089
 50
200.4197273141774076
 51
243.1680778813455959
  0
ARC
  5
2A2AD
  8
0
 10
3123.697584688184179
 20
152.0369942930140894
 30
0.0
 40
0.0728220180079248
 50
243.1680778813455959
 51
306.9241645298903904
  0
ARC
  5
2A2AE
  8
0
 10
3123.7100959876370325
 20
152.0203454352908921
 30
0.0
 40
0.0519961428160376
 50
306.9241645298903904
 51
349.9537592248693727
  0
ARC
  5
2A2AF
  8
0
 10
3123.71508469363107
 20
152.049883156100293
 30
0.0
 40
0.0602159939425495
 50
320.1216279724063156
 51
349.6470669532976103
  0
ARC
  5
2A2B0
  8
0
 10
3123.7242837220569527
 20
152.0482026285760924
 30
0.0
 40
0.0508647214760567
 50
349.6470669532976103
 51
21.9665542178461308
  0
ARC
  5
2A2B1
  8
0
 10
3123.7094620512839356
 20
152.0422243468150896
 30
0.0
 40
0.0668466418018999
 50
21.9665542178461308
 51
56.8610032652314104
  0
ARC
  5
2A2B2
  8
0
 10
3123.698451451712117
 20
152.0253592236200006
 30
0.0
 40
0.0869877858438523
 50
56.8610032652095896
 51
100.3782694556841051
  0
ARC
  5
2A2B3
  8
0
 10
3123.6987318554702142
 20
152.0238281534230964
 30
0.0
 40
0.0885443211680643
 50
100.3782694556841051
 51
134.6862463078965106
  0
ARC
  5
2A2B4
  8
0
 10
3123.6732096310561246
 20
152.0496314409456886
 30
0.0
 40
0.0522511594695935
 50
134.6862463078965106
 51
172.8164286140597881
  0
ARC
  5
2A2B5
  8
0
 10
3123.6801929475300312
 20
152.0487512771481136
 30
0.0
 40
0.059289724472353
 50
172.8164286140597881
 51
219.433075129531602
  0
LINE
  5
2A2B6
  8
0
 10
3123.7617385093981284
 20
152.0146692483803861
 30
0.0
 11
3123.7716547266418274
 21
152.0667284973924893
 31
0.0
  0
ARC
  5
2A2B7
  8
0
 10
3123.676626524887979
 20
152.0919961509482903
 30
0.0
 40
0.1063819563673368
 50
326.4203657035137098
 51
337.676556845485095
  0
LINE
  5
2A2B8
  8
0
 10
3123.6338220025168084
 20
152.0149250710275908
 30
0.0
 11
3123.6240789830549147
 21
152.0674180396368911
 31
0.0
  0
ARC
  5
2A2B9
  8
0
 10
3123.6843560783750036
 20
152.0753170350309915
 30
0.0
 40
0.0679849417791287
 50
201.1232384341585089
 51
217.2699027394444897
  0
ARC
  5
2A2BA
  8
0
 10
3123.4839908162671236
 20
152.2294988203732942
 30
0.0
 40
0.0255798350541456
 50
19.2612508583356998
 51
91.9432184961061552
  0
ARC
  5
2A2BB
  8
0
 10
3123.4841261681008291
 20
152.2255095030631082
 30
0.0
 40
0.0295714478510929
 50
91.9432184961061552
 51
145.2519117537461
  0
ARC
  5
2A2BC
  8
0
 10
3123.476395592388144
 20
152.2333737510890899
 30
0.0
 40
0.0188495359605226
 50
151.5126252543668954
 51
219.4252678966448116
  0
ARC
  5
2A2BD
  8
0
 10
3123.4804004618899853
 20
152.2361630630898901
 30
0.0
 40
0.0237177099216007
 50
218.4860753032839966
 51
241.7579097554526868
  0
ARC
  5
2A2BE
  8
0
 10
3123.4830944558398187
 20
152.2411784901518956
 30
0.0
 40
0.0294108735427872
 50
241.757909755451891
 51
276.2632562869451931
  0
ARC
  5
2A2BF
  8
0
 10
3123.483158507565804
 20
152.2405948857488056
 30
0.0
 40
0.0288237647598669
 50
276.2632562869451931
 51
309.9119307848908988
  0
ARC
  5
2A2C0
  8
0
 10
3123.4891147592679772
 20
152.2334743022435077
 30
0.0
 40
0.0195404655730405
 50
309.9119307848931157
 51
13.2018374832689407
  0
ARC
  5
2A2C1
  8
0
 10
3123.4987597570520848
 20
152.2383588229027112
 30
0.0
 40
0.0484572422601305
 50
350.5294890000785131
 51
38.6654026249876992
  0
ARC
  5
2A2C2
  8
0
 10
3123.4862922504021299
 20
152.2283828210067895
 30
0.0
 40
0.064424688388718
 50
38.6654026249864273
 51
82.4654028658740401
  0
ARC
  5
2A2C3
  8
0
 10
3123.4846475247309172
 20
152.2159479159865896
 30
0.0
 40
0.0769678931383846
 50
82.4654028658740401
 51
128.7555521142531063
  0
ARC
  5
2A2C4
  8
0
 10
3123.4660241051169578
 20
152.2391476101632009
 30
0.0
 40
0.0472179760291364
 50
128.7555521142521116
 51
200.4197273141774076
  0
ARC
  5
2A2C5
  8
0
 10
3123.4761815716087767
 20
152.2429291195813903
 30
0.0
 40
0.0580565155521089
 50
200.4197273141774076
 51
243.1680778813455959
  0
ARC
  5
2A2C6
  8
0
 10
3123.4828463469038979
 20
152.2561048864675115
 30
0.0
 40
0.0728220180079248
 50
243.1680778813455959
 51
306.9241645298903904
  0
ARC
  5
2A2C7
  8
0
 10
3123.4953576463572062
 20
152.2394560287443142
 30
0.0
 40
0.0519961428160376
 50
306.9241645298903904
 51
349.9537592248693727
  0
ARC
  5
2A2C8
  8
0
 10
3123.5003463523507889
 20
152.2689937495538004
 30
0.0
 40
0.0602159939425495
 50
320.1216279724063156
 51
349.6470669532976103
  0
ARC
  5
2A2C9
  8
0
 10
3123.5095453807771264
 20
152.267313222029486
 30
0.0
 40
0.0508647214760567
 50
349.6470669532976103
 51
21.9665542178461308
  0
ARC
  5
2A2CA
  8
0
 10
3123.4947237100041093
 20
152.2613349402685117
 30
0.0
 40
0.0668466418018999
 50
21.9665542178461308
 51
56.8610032652314104
  0
ARC
  5
2A2CB
  8
0
 10
3123.4837131104332002
 20
152.2444698170733943
 30
0.0
 40
0.0869877858438523
 50
56.8610032652095896
 51
100.3782694556841051
  0
ARC
  5
2A2CC
  8
0
 10
3123.4839935141908427
 20
152.2429387468764901
 30
0.0
 40
0.0885443211680643
 50
100.3782694556841051
 51
134.6862463078965106
  0
ARC
  5
2A2CD
  8
0
 10
3123.4584712897749341
 20
152.2687420343991107
 30
0.0
 40
0.0522511594695935
 50
134.6862463078965106
 51
172.8164286140597881
  0
ARC
  5
2A2CE
  8
0
 10
3123.4654546062511145
 20
152.2678618706015925
 30
0.0
 40
0.059289724472353
 50
172.8164286140597881
 51
219.433075129531602
  0
LINE
  5
2A2CF
  8
0
 10
3123.5470001681178474
 20
152.2337798418338082
 30
0.0
 11
3123.5569163853620012
 21
152.2858390908459114
 31
0.0
  0
ARC
  5
2A2D0
  8
0
 10
3123.4618881836081528
 20
152.3111067444017976
 30
0.0
 40
0.1063819563673368
 50
326.4203657035137098
 51
337.676556845485095
  0
LINE
  5
2A2D1
  8
0
 10
3123.4190836612378916
 20
152.2340356644810981
 30
0.0
 11
3123.4093406417759979
 21
152.2865286330903984
 31
0.0
  0
ARC
  5
2A2D2
  8
0
 10
3123.469617737093813
 20
152.2944276284844136
 30
0.0
 40
0.0679849417791287
 50
201.1232384341585089
 51
217.2699027394444897
  0
ARC
  5
2A2D3
  8
0
 10
3123.8206402820978838
 20
152.3131820904424103
 30
0.0
 40
0.0255798350541456
 50
19.2612508583356998
 51
91.9432184961061552
  0
ARC
  5
2A2D4
  8
0
 10
3123.820775633932044
 20
152.309192773132196
 30
0.0
 40
0.0295714478510929
 50
91.9432184961061552
 51
145.2519117537461
  0
ARC
  5
2A2D5
  8
0
 10
3123.8130450582189042
 20
152.3170570211582913
 30
0.0
 40
0.0188495359605226
 50
151.5126252543668954
 51
219.4252678966448116
  0
ARC
  5
2A2D6
  8
0
 10
3123.8170499277212002
 20
152.3198463331590062
 30
0.0
 40
0.0237177099216007
 50
218.4860753032839966
 51
241.7579097554526868
  0
ARC
  5
2A2D7
  8
0
 10
3123.8197439216710336
 20
152.324861760221097
 30
0.0
 40
0.0294108735427872
 50
241.757909755451891
 51
276.2632562869451931
  0
ARC
  5
2A2D8
  8
0
 10
3123.8198079733970189
 20
152.3242781558178933
 30
0.0
 40
0.0288237647598669
 50
276.2632562869451931
 51
309.9119307848908988
  0
ARC
  5
2A2D9
  8
0
 10
3123.8257642250991921
 20
152.3171575723127091
 30
0.0
 40
0.0195404655730405
 50
309.9119307848931157
 51
13.2018374832689407
  0
ARC
  5
2A2DA
  8
0
 10
3123.8354092228828449
 20
152.3220420929717989
 30
0.0
 40
0.0484572422601305
 50
350.5294890000785131
 51
38.6654026249876992
  0
ARC
  5
2A2DB
  8
0
 10
3123.82294171623289
 20
152.3120660910759057
 30
0.0
 40
0.064424688388718
 50
38.6654026249864273
 51
82.4654028658740401
  0
ARC
  5
2A2DC
  8
0
 10
3123.8212969905630416
 20
152.299631186055791
 30
0.0
 40
0.0769678931383846
 50
82.4654028658740401
 51
128.7555521142531063
  0
ARC
  5
2A2DD
  8
0
 10
3123.8026735709490822
 20
152.3228308802322886
 30
0.0
 40
0.0472179760291364
 50
128.7555521142521116
 51
200.4197273141774076
  0
ARC
  5
2A2DE
  8
0
 10
3123.8128310374399916
 20
152.3266123896505064
 30
0.0
 40
0.0580565155521089
 50
200.4197273141774076
 51
243.1680778813455959
  0
ARC
  5
2A2DF
  8
0
 10
3123.8194958127351128
 20
152.3397881565365992
 30
0.0
 40
0.0728220180079248
 50
243.1680778813455959
 51
306.9241645298903904
  0
ARC
  5
2A2E0
  8
0
 10
3123.8320071121879664
 20
152.3231392988134019
 30
0.0
 40
0.0519961428160376
 50
306.9241645298903904
 51
349.9537592248693727
  0
ARC
  5
2A2E1
  8
0
 10
3123.8369958181820039
 20
152.3526770196228881
 30
0.0
 40
0.0602159939425495
 50
320.1216279724063156
 51
349.6470669532976103
  0
ARC
  5
2A2E2
  8
0
 10
3123.8461948466078866
 20
152.3509964920986022
 30
0.0
 40
0.0508647214760567
 50
349.6470669532976103
 51
21.9665542178461308
  0
ARC
  5
2A2E3
  8
0
 10
3123.831373175835779
 20
152.3450182103375994
 30
0.0
 40
0.0668466418018999
 50
21.9665542178461308
 51
56.8610032652314104
  0
ARC
  5
2A2E4
  8
0
 10
3123.8203625762639604
 20
152.3281530871425105
 30
0.0
 40
0.0869877858438523
 50
56.8610032652095896
 51
100.3782694556841051
  0
ARC
  5
2A2E5
  8
0
 10
3123.8206429800220576
 20
152.3266220169456062
 30
0.0
 40
0.0885443211680643
 50
100.3782694556841051
 51
134.6862463078965106
  0
ARC
  5
2A2E6
  8
0
 10
3123.7951207556070585
 20
152.3524253044681984
 30
0.0
 40
0.0522511594695935
 50
134.6862463078965106
 51
172.8164286140597881
  0
ARC
  5
2A2E7
  8
0
 10
3123.8021040720818746
 20
152.3515451406707086
 30
0.0
 40
0.059289724472353
 50
172.8164286140597881
 51
219.433075129531602
  0
LINE
  5
2A2E8
  8
0
 10
3123.8836496339490623
 20
152.3174631119030096
 30
0.0
 11
3123.8935658511941256
 21
152.3695223609149991
 31
0.0
  0
ARC
  5
2A2E9
  8
0
 10
3123.7985376494389129
 20
152.3947900144709138
 30
0.0
 40
0.1063819563673368
 50
326.4203657035137098
 51
337.676556845485095
  0
LINE
  5
2A2EA
  8
0
 10
3123.7557331270691066
 20
152.3177189345501858
 30
0.0
 11
3123.7459901076072128
 21
152.3702119031594862
 31
0.0
  0
ARC
  5
2A2EB
  8
0
 10
3123.8062672029259375
 20
152.3781108985535013
 30
0.0
 40
0.0679849417791287
 50
201.1232384341585089
 51
217.2699027394444897
  0
ARC
  5
2A2EC
  8
0
 10
3123.4185570899321647
 20
152.5453209128916967
 30
0.0
 40
0.0255798350541456
 50
19.2612508583356998
 51
91.9432184961061552
  0
ARC
  5
2A2ED
  8
0
 10
3123.4186924417667797
 20
152.5413315955813971
 30
0.0
 40
0.0295714478510929
 50
91.9432184961061552
 51
145.2519117537461
  0
ARC
  5
2A2EE
  8
0
 10
3123.4109618660550041
 20
152.5491958436074924
 30
0.0
 40
0.0188495359605226
 50
151.5126252543668954
 51
219.4252678966448116
  0
ARC
  5
2A2EF
  8
0
 10
3123.4149667355559359
 20
152.5519851556082074
 30
0.0
 40
0.0237177099216007
 50
218.4860753032839966
 51
241.7579097554526868
  0
ARC
  5
2A2F0
  8
0
 10
3123.417660729506224
 20
152.5570005826702982
 30
0.0
 40
0.0294108735427872
 50
241.757909755451891
 51
276.2632562869451931
  0
ARC
  5
2A2F1
  8
0
 10
3123.4177247812322094
 20
152.5564169782672082
 30
0.0
 40
0.0288237647598669
 50
276.2632562869451931
 51
309.9119307848908988
  0
ARC
  5
2A2F2
  8
0
 10
3123.4236810329339278
 20
152.5492963947619103
 30
0.0
 40
0.0195404655730405
 50
309.9119307848931157
 51
13.2018374832689407
  0
ARC
  5
2A2F3
  8
0
 10
3123.4333260307171258
 20
152.554180915421
 30
0.0
 40
0.0484572422601305
 50
350.5294890000785131
 51
38.6654026249876992
  0
ARC
  5
2A2F4
  8
0
 10
3123.4208585240689899
 20
152.5442049135251921
 30
0.0
 40
0.064424688388718
 50
38.6654026249864273
 51
82.4654028658740401
  0
ARC
  5
2A2F5
  8
0
 10
3123.4192137983977773
 20
152.5317700085049921
 30
0.0
 40
0.0769678931383846
 50
82.4654028658740401
 51
128.7555521142531063
  0
ARC
  5
2A2F6
  8
0
 10
3123.4005903787838179
 20
152.5549697026816034
 30
0.0
 40
0.0472179760291364
 50
128.7555521142521116
 51
200.4197273141774076
  0
ARC
  5
2A2F7
  8
0
 10
3123.4107478452738178
 20
152.5587512120997928
 30
0.0
 40
0.0580565155521089
 50
200.4197273141774076
 51
243.1680778813455959
  0
ARC
  5
2A2F8
  8
0
 10
3123.417412620568939
 20
152.571926978985914
 30
0.0
 40
0.0728220180079248
 50
243.1680778813455959
 51
306.9241645298903904
  0
ARC
  5
2A2F9
  8
0
 10
3123.4299239200231568
 20
152.5552781212626883
 30
0.0
 40
0.0519961428160376
 50
306.9241645298903904
 51
349.9537592248693727
  0
ARC
  5
2A2FA
  8
0
 10
3123.4349126260171943
 20
152.5848158420720893
 30
0.0
 40
0.0602159939425495
 50
320.1216279724063156
 51
349.6470669532976103
  0
ARC
  5
2A2FB
  8
0
 10
3123.444111654443077
 20
152.5831353145478886
 30
0.0
 40
0.0508647214760567
 50
349.6470669532976103
 51
21.9665542178461308
  0
ARC
  5
2A2FC
  8
0
 10
3123.4292899836709694
 20
152.5771570327868858
 30
0.0
 40
0.0668466418018999
 50
21.9665542178461308
 51
56.8610032652314104
  0
ARC
  5
2A2FD
  8
0
 10
3123.4182793840977865
 20
152.5602919095917969
 30
0.0
 40
0.0869877858438523
 50
56.8610032652095896
 51
100.3782694556841051
  0
ARC
  5
2A2FE
  8
0
 10
3123.4185597878558838
 20
152.5587608393948926
 30
0.0
 40
0.0885443211680643
 50
100.3782694556841051
 51
134.6862463078965106
  0
ARC
  5
2A2FF
  8
0
 10
3123.3930375634417942
 20
152.5845641269175132
 30
0.0
 40
0.0522511594695935
 50
134.6862463078965106
 51
172.8164286140597881
  0
ARC
  5
2A300
  8
0
 10
3123.400020879917065
 20
152.583683963119995
 30
0.0
 40
0.059289724472353
 50
172.8164286140597881
 51
219.433075129531602
  0
LINE
  5
2A301
  8
0
 10
3123.4815664417837979
 20
152.5496019343522107
 30
0.0
 11
3123.4914826590279517
 21
152.601661183364314
 31
0.0
  0
ARC
  5
2A302
  8
0
 10
3123.3964544572741033
 20
152.6269288369200865
 30
0.0
 40
0.1063819563673368
 50
326.4203657035137098
 51
337.676556845485095
  0
LINE
  5
2A303
  8
0
 10
3123.3536499349038422
 20
152.5498577569995007
 30
0.0
 11
3123.343906915441039
 21
152.602350725608801
 31
0.0
  0
ARC
  5
2A304
  8
0
 10
3123.4041840107611279
 20
152.6102497210027877
 30
0.0
 40
0.0679849417791287
 50
201.1232384341585089
 51
217.2699027394444897
  0
ARC
  5
2A305
  8
0
 10
3124.0331569101490459
 20
151.915658312917401
 30
0.0
 40
0.0255798350541456
 50
19.2612508583356998
 51
91.9432184961061552
  0
ARC
  5
2A306
  8
0
 10
3124.0332922619832061
 20
151.9116689956071866
 30
0.0
 40
0.0295714478510929
 50
91.9432184961061552
 51
145.2519117537461
  0
ARC
  5
2A307
  8
0
 10
3124.0255616862700663
 20
151.9195332436331967
 30
0.0
 40
0.0188495359605226
 50
151.5126252543668954
 51
219.4252678966448116
  0
ARC
  5
2A308
  8
0
 10
3124.0295665557719076
 20
151.9223225556339969
 30
0.0
 40
0.0237177099216007
 50
218.4860753032839966
 51
241.7579097554526868
  0
ARC
  5
2A309
  8
0
 10
3124.0322605497221957
 20
151.9273379826960024
 30
0.0
 40
0.0294108735427872
 50
241.757909755451891
 51
276.2632562869451931
  0
ARC
  5
2A30A
  8
0
 10
3124.0323246014481811
 20
151.9267543782929124
 30
0.0
 40
0.0288237647598669
 50
276.2632562869451931
 51
309.9119307848908988
  0
ARC
  5
2A30B
  8
0
 10
3124.0382808531498995
 20
151.9196337947875861
 30
0.0
 40
0.0195404655730405
 50
309.9119307848931157
 51
13.2018374832689407
  0
ARC
  5
2A30C
  8
0
 10
3124.047925850934007
 20
151.9245183154467895
 30
0.0
 40
0.0484572422601305
 50
350.5294890000785131
 51
38.6654026249876992
  0
ARC
  5
2A30D
  8
0
 10
3124.0354583442840521
 20
151.9145423135508111
 30
0.0
 40
0.064424688388718
 50
38.6654026249864273
 51
82.4654028658740401
  0
ARC
  5
2A30E
  8
0
 10
3124.0338136186142037
 20
151.9021074085306964
 30
0.0
 40
0.0769678931383846
 50
82.4654028658740401
 51
128.7555521142531063
  0
ARC
  5
2A30F
  8
0
 10
3124.0151901989997896
 20
151.9253071027073076
 30
0.0
 40
0.0472179760291364
 50
128.7555521142521116
 51
200.4197273141774076
  0
ARC
  5
2A310
  8
0
 10
3124.0253476654911537
 20
151.9290886121254971
 30
0.0
 40
0.0580565155521089
 50
200.4197273141774076
 51
243.1680778813455959
  0
ARC
  5
2A311
  8
0
 10
3124.0320124407858202
 20
151.9422643790115899
 30
0.0
 40
0.0728220180079248
 50
243.1680778813455959
 51
306.9241645298903904
  0
ARC
  5
2A312
  8
0
 10
3124.0445237402391285
 20
151.9256155212883925
 30
0.0
 40
0.0519961428160376
 50
306.9241645298903904
 51
349.9537592248693727
  0
ARC
  5
2A313
  8
0
 10
3124.049512446233166
 20
151.9551532420979072
 30
0.0
 40
0.0602159939425495
 50
320.1216279724063156
 51
349.6470669532976103
  0
ARC
  5
2A314
  8
0
 10
3124.0587114746590487
 20
151.9534727145735928
 30
0.0
 40
0.0508647214760567
 50
349.6470669532976103
 51
21.9665542178461308
  0
ARC
  5
2A315
  8
0
 10
3124.0438898038860316
 20
151.94749443281259
 30
0.0
 40
0.0668466418018999
 50
21.9665542178461308
 51
56.8610032652314104
  0
ARC
  5
2A316
  8
0
 10
3124.0328792043151225
 20
151.9306293096175011
 30
0.0
 40
0.0869877858438523
 50
56.8610032652095896
 51
100.3782694556841051
  0
ARC
  5
2A317
  8
0
 10
3124.0331596080732197
 20
151.9290982394205116
 30
0.0
 40
0.0885443211680643
 50
100.3782694556841051
 51
134.6862463078965106
  0
ARC
  5
2A318
  8
0
 10
3124.0076373836582206
 20
151.9549015269431891
 30
0.0
 40
0.0522511594695935
 50
134.6862463078965106
 51
172.8164286140597881
  0
ARC
  5
2A319
  8
0
 10
3124.0146207001330367
 20
151.954021363145614
 30
0.0
 40
0.059289724472353
 50
172.8164286140597881
 51
219.433075129531602
  0
LINE
  5
2A31A
  8
0
 10
3124.0961662620002244
 20
151.9199393343778866
 30
0.0
 11
3124.1060824792448329
 21
151.9719985833899898
 31
0.0
  0
ARC
  5
2A31B
  8
0
 10
3124.011054277490075
 20
151.9972662369457908
 30
0.0
 40
0.1063819563673368
 50
326.4203657035137098
 51
337.676556845485095
  0
LINE
  5
2A31C
  8
0
 10
3123.9682497551198139
 20
151.9201951570250912
 30
0.0
 11
3123.9585067356579202
 21
151.9726881256343916
 31
0.0
  0
ARC
  5
2A31D
  8
0
 10
3124.0187838309761901
 20
151.980587121028492
 30
0.0
 40
0.0679849417791287
 50
201.1232384341585089
 51
217.2699027394444897
  0
ARC
  5
2A31E
  8
0
 10
3123.4992418445499425
 20
150.8453418194542053
 30
0.0
 40
0.0420590590897079
 50
38.4187745612049412
 51
107.0680483733877963
  0
ARC
  5
2A31F
  8
0
 10
3123.499900231915035
 20
150.8431974435985126
 30
0.0
 40
0.0443022313373366
 50
107.0680483733877963
 51
154.2805902309191879
  0
ARC
  5
2A320
  8
0
 10
3123.4867444500227975
 20
150.8540092034295981
 30
0.0
 40
0.0280491097828503
 50
162.5443356265222974
 51
234.9631751415948031
  0
ARC
  5
2A321
  8
0
 10
3123.4971132626251347
 20
150.8682246782884135
 30
0.0
 40
0.0456424498849537
 50
234.5505913556320081
 51
313.4871620209519278
  0
ARC
  5
2A322
  8
0
 10
3123.5095328483121193
 20
150.8553956994259124
 30
0.0
 40
0.0277881948752947
 50
313.1119733666424736
 51
35.3611369516963876
  0
ARC
  5
2A323
  8
0
 10
3123.5262126190050367
 20
150.8633559680035887
 30
0.0
 40
0.0866312339315576
 50
319.5111689493638778
 51
11.8682159862051808
  0
ARC
  5
2A324
  8
0
 10
3123.5226120669899501
 20
150.8577253923681099
 30
0.0
 40
0.0914372975453921
 50
14.8583391852709497
 51
56.3599420093484511
  0
ARC
  5
2A325
  8
0
 10
3123.5001706851730887
 20
150.822075434480098
 30
0.0
 40
0.1335532945893323
 50
56.8172396759580423
 51
121.2376300009553063
  0
ARC
  5
2A326
  8
0
 10
3123.4737916085978213
 20
150.8579600812061017
 30
0.0
 40
0.089278394353289
 50
118.704804468497997
 51
210.2867938217669916
  0
ARC
  5
2A327
  8
0
 10
3123.5225284966868458
 20
150.8619844936436891
 30
0.0
 40
0.0886092418281308
 50
302.698203214565126
 51
321.7329346780326773
  0
ARC
  5
2A328
  8
0
 10
3123.4942875117958465
 20
150.9059773830823872
 30
0.0
 40
0.1408866513737705
 50
256.7434356845777756
 51
302.698203214565126
  0
ARC
  5
2A329
  8
0
 10
3123.4874418393369524
 20
150.8769197740768959
 30
0.0
 40
0.111033546467795
 50
215.1886443888845974
 51
256.7434356845777756
  0
ARC
  5
2A32A
  8
0
 10
3123.5232492865661698
 20
150.8840954051048868
 30
0.0
 40
0.1015335136477515
 50
318.4976873215076125
 51
339.6599167548442892
  0
ARC
  5
2A32B
  8
0
 10
3123.5424593609600379
 20
150.8769741008572964
 30
0.0
 40
0.0810459580978998
 50
339.6599167548442892
 51
23.2644432501148302
  0
ARC
  5
2A32C
  8
0
 10
3123.5251859580589553
 20
150.8695477026791991
 30
0.0
 40
0.0998481345056472
 50
23.2644432501163401
 51
59.7740632672792387
  0
ARC
  5
2A32D
  8
0
 10
3123.5011080838607995
 20
150.8282208157509103
 30
0.0
 40
0.1476775774160275
 50
59.7740632672792387
 51
93.7711263524362835
  0
ARC
  5
2A32E
  8
0
 10
3123.5012057042031302
 20
150.8267397848991038
 30
0.0
 40
0.1491618220438097
 50
93.7711263524362835
 51
122.7420386874461968
  0
ARC
  5
2A32F
  8
0
 10
3123.478791720820027
 20
150.8615968693086984
 30
0.0
 40
0.1077202609654002
 50
122.7420386874461968
 51
144.2215198536931098
  0
ARC
  5
2A330
  8
0
 10
3123.4667141240452111
 20
150.8703006128513948
 30
0.0
 40
0.0928332365645158
 50
144.2215198536931098
 51
189.9403315112315909
  0
ARC
  5
2A331
  8
0
 10
3123.4517283712812059
 20
150.867674308920698
 30
0.0
 40
0.0776190899158105
 50
189.9403315112315909
 51
224.8487166975133107
  0
ARC
  5
2A332
  8
0
 10
3124.0463972701040802
 20
151.1590668778657118
 30
0.0
 40
0.0420590590897079
 50
38.4187745612049412
 51
107.0680483733877963
  0
ARC
  5
2A333
  8
0
 10
3124.0470556574691727
 20
151.1569225020099907
 30
0.0
 40
0.0443022313373366
 50
107.0680483733877963
 51
154.2805902309191879
  0
ARC
  5
2A334
  8
0
 10
3124.0338998755769353
 20
151.1677342618411899
 30
0.0
 40
0.0280491097828503
 50
162.5443356265222974
 51
234.9631751415948031
  0
ARC
  5
2A335
  8
0
 10
3124.0442686881779082
 20
151.1819497366998917
 30
0.0
 40
0.0456424498849537
 50
234.5505913556320081
 51
313.4871620209519278
  0
ARC
  5
2A336
  8
0
 10
3124.0566882738648928
 20
151.1691207578373906
 30
0.0
 40
0.0277881948752947
 50
313.1119733666424736
 51
35.3611369516963876
  0
ARC
  5
2A337
  8
0
 10
3124.0733680445591745
 20
151.1770810264150953
 30
0.0
 40
0.0866312339315576
 50
319.5111689493638778
 51
11.8682159862051808
  0
ARC
  5
2A338
  8
0
 10
3124.0697674925431784
 20
151.1714504507797017
 30
0.0
 40
0.0914372975453921
 50
14.8583391852709497
 51
56.3599420093484511
  0
ARC
  5
2A339
  8
0
 10
3124.0473261107272265
 20
151.1358004928916898
 30
0.0
 40
0.1335532945893323
 50
56.8172396759580423
 51
121.2376300009553063
  0
ARC
  5
2A33A
  8
0
 10
3124.0209470341519591
 20
151.1716851396176082
 30
0.0
 40
0.089278394353289
 50
118.704804468497997
 51
210.2867938217669916
  0
ARC
  5
2A33B
  8
0
 10
3124.0696839222409835
 20
151.1757095520553094
 30
0.0
 40
0.0886092418281308
 50
302.698203214565126
 51
321.7329346780326773
  0
ARC
  5
2A33C
  8
0
 10
3124.0414429373490748
 20
151.2197024414940074
 30
0.0
 40
0.1408866513737705
 50
256.7434356845777756
 51
302.698203214565126
  0
ARC
  5
2A33D
  8
0
 10
3124.0345972648910902
 20
151.1906448324884025
 30
0.0
 40
0.111033546467795
 50
215.1886443888845974
 51
256.7434356845777756
  0
ARC
  5
2A33E
  8
0
 10
3124.0704047121198528
 20
151.1978204635165071
 30
0.0
 40
0.1015335136477515
 50
318.4976873215076125
 51
339.6599167548442892
  0
ARC
  5
2A33F
  8
0
 10
3124.0896147865141756
 20
151.190699159268803
 30
0.0
 40
0.0810459580978998
 50
339.6599167548442892
 51
23.2644432501148302
  0
ARC
  5
2A340
  8
0
 10
3124.0723413836130931
 20
151.1832727610907057
 30
0.0
 40
0.0998481345056472
 50
23.2644432501163401
 51
59.7740632672792387
  0
ARC
  5
2A341
  8
0
 10
3124.0482635094140278
 20
151.1419458741625022
 30
0.0
 40
0.1476775774160275
 50
59.7740632672792387
 51
93.7711263524362835
  0
ARC
  5
2A342
  8
0
 10
3124.0483611297559037
 20
151.1404648433106956
 30
0.0
 40
0.1491618220438097
 50
93.7711263524362835
 51
122.7420386874461968
  0
ARC
  5
2A343
  8
0
 10
3124.0259471463741647
 20
151.1753219277202902
 30
0.0
 40
0.1077202609654002
 50
122.7420386874461968
 51
144.2215198536931098
  0
ARC
  5
2A344
  8
0
 10
3124.0138695495988941
 20
151.1840256712629014
 30
0.0
 40
0.0928332365645158
 50
144.2215198536931098
 51
189.9403315112315909
  0
ARC
  5
2A345
  8
0
 10
3123.9988837968348889
 20
151.1813993673322045
 30
0.0
 40
0.0776190899158105
 50
189.9403315112315909
 51
224.8487166975133107
  0
ARC
  5
2A346
  8
0
 10
3124.3154508689071918
 20
151.6854185068216054
 30
0.0
 40
0.0420590590897079
 50
38.4187745612049412
 51
107.0680483733877963
  0
ARC
  5
2A347
  8
0
 10
3124.3161092562718295
 20
151.6832741309659127
 30
0.0
 40
0.0443022313373366
 50
107.0680483733877963
 51
154.2805902309191879
  0
ARC
  5
2A348
  8
0
 10
3124.3029534743800468
 20
151.6940858907969982
 30
0.0
 40
0.0280491097828503
 50
162.5443356265222974
 51
234.9631751415948031
  0
ARC
  5
2A349
  8
0
 10
3124.3133222869801102
 20
151.7083013656558137
 30
0.0
 40
0.0456424498849537
 50
234.5505913556320081
 51
313.4871620209519278
  0
ARC
  5
2A34A
  8
0
 10
3124.3257418726670949
 20
151.6954723867933126
 30
0.0
 40
0.0277881948752947
 50
313.1119733666424736
 51
35.3611369516963876
  0
ARC
  5
2A34B
  8
0
 10
3124.3424216433618312
 20
151.7034326553709889
 30
0.0
 40
0.0866312339315576
 50
319.5111689493638778
 51
11.8682159862051808
  0
ARC
  5
2A34C
  8
0
 10
3124.3388210913458352
 20
151.69780207973551
 30
0.0
 40
0.0914372975453921
 50
14.8583391852709497
 51
56.3599420093484511
  0
ARC
  5
2A34D
  8
0
 10
3124.3163797095289738
 20
151.6621521218474982
 30
0.0
 40
0.1335532945893323
 50
56.8172396759580423
 51
121.2376300009553063
  0
ARC
  5
2A34E
  8
0
 10
3124.2900006329550706
 20
151.6980367685735018
 30
0.0
 40
0.089278394353289
 50
118.704804468497997
 51
210.2867938217669916
  0
ARC
  5
2A34F
  8
0
 10
3124.338737521044095
 20
151.7020611810110893
 30
0.0
 40
0.0886092418281308
 50
302.698203214565126
 51
321.7329346780326773
  0
ARC
  5
2A350
  8
0
 10
3124.3104965361521863
 20
151.7460540704497873
 30
0.0
 40
0.1408866513737705
 50
256.7434356845777756
 51
302.698203214565126
  0
ARC
  5
2A351
  8
0
 10
3124.3036508636942017
 20
151.7169964614442961
 30
0.0
 40
0.111033546467795
 50
215.1886443888845974
 51
256.7434356845777756
  0
ARC
  5
2A352
  8
0
 10
3124.3394583109220548
 20
151.724172092472287
 30
0.0
 40
0.1015335136477515
 50
318.4976873215076125
 51
339.6599167548442892
  0
ARC
  5
2A353
  8
0
 10
3124.3586683853159229
 20
151.7170507882246966
 30
0.0
 40
0.0810459580978998
 50
339.6599167548442892
 51
23.2644432501148302
  0
ARC
  5
2A354
  8
0
 10
3124.3413949824162046
 20
151.7096243900465993
 30
0.0
 40
0.0998481345056472
 50
23.2644432501163401
 51
59.7740632672792387
  0
ARC
  5
2A355
  8
0
 10
3124.3173171082171393
 20
151.6682975031183105
 30
0.0
 40
0.1476775774160275
 50
59.7740632672792387
 51
93.7711263524362835
  0
ARC
  5
2A356
  8
0
 10
3124.3174147285590152
 20
151.666816472266504
 30
0.0
 40
0.1491618220438097
 50
93.7711263524362835
 51
122.7420386874461968
  0
ARC
  5
2A357
  8
0
 10
3124.295000745175912
 20
151.7016735566760985
 30
0.0
 40
0.1077202609654002
 50
122.7420386874461968
 51
144.2215198536931098
  0
ARC
  5
2A358
  8
0
 10
3124.2829231484020056
 20
151.710377300218795
 30
0.0
 40
0.0928332365645158
 50
144.2215198536931098
 51
189.9403315112315909
  0
ARC
  5
2A359
  8
0
 10
3124.267937395637091
 20
151.7077509962880981
 30
0.0
 40
0.0776190899158105
 50
189.9403315112315909
 51
224.8487166975133107
  0
ARC
  5
2A35A
  8
0
 10
3124.2196773192499677
 20
152.2585617150795088
 30
0.0
 40
0.0420590590897079
 50
38.4187745612049412
 51
107.0680483733877963
  0
ARC
  5
2A35B
  8
0
 10
3124.2203357066150602
 20
152.2564173392237876
 30
0.0
 40
0.0443022313373366
 50
107.0680483733877963
 51
154.2805902309191879
  0
ARC
  5
2A35C
  8
0
 10
3124.2071799247219133
 20
152.2672290990549016
 30
0.0
 40
0.0280491097828503
 50
162.5443356265222974
 51
234.9631751415948031
  0
ARC
  5
2A35D
  8
0
 10
3124.2175487373237956
 20
152.2814445739136886
 30
0.0
 40
0.0456424498849537
 50
234.5505913556320081
 51
313.4871620209519278
  0
ARC
  5
2A35E
  8
0
 10
3124.2299683230107803
 20
152.2686155950511875
 30
0.0
 40
0.0277881948752947
 50
313.1119733666424736
 51
35.3611369516963876
  0
ARC
  5
2A35F
  8
0
 10
3124.2466480937050619
 20
152.2765758636288922
 30
0.0
 40
0.0866312339315576
 50
319.5111689493638778
 51
11.8682159862051808
  0
ARC
  5
2A360
  8
0
 10
3124.2430475416899753
 20
152.2709452879934133
 30
0.0
 40
0.0914372975453921
 50
14.8583391852709497
 51
56.3599420093484511
  0
ARC
  5
2A361
  8
0
 10
3124.2206061598722044
 20
152.2352953301054015
 30
0.0
 40
0.1335532945893323
 50
56.8172396759580423
 51
121.2376300009553063
  0
ARC
  5
2A362
  8
0
 10
3124.1942270832978465
 20
152.2711799768314052
 30
0.0
 40
0.089278394353289
 50
118.704804468497997
 51
210.2867938217669916
  0
ARC
  5
2A363
  8
0
 10
3124.242963971386871
 20
152.2752043892689926
 30
0.0
 40
0.0886092418281308
 50
302.698203214565126
 51
321.7329346780326773
  0
ARC
  5
2A364
  8
0
 10
3124.2147229864949622
 20
152.3191972787076907
 30
0.0
 40
0.1408866513737705
 50
256.7434356845777756
 51
302.698203214565126
  0
ARC
  5
2A365
  8
0
 10
3124.2078773140369776
 20
152.2901396697021994
 30
0.0
 40
0.111033546467795
 50
215.1886443888845974
 51
256.7434356845777756
  0
ARC
  5
2A366
  8
0
 10
3124.243684761266195
 20
152.2973153007301903
 30
0.0
 40
0.1015335136477515
 50
318.4976873215076125
 51
339.6599167548442892
  0
ARC
  5
2A367
  8
0
 10
3124.2628948356600631
 20
152.2901939964825999
 30
0.0
 40
0.0810459580978998
 50
339.6599167548442892
 51
23.2644432501148302
  0
ARC
  5
2A368
  8
0
 10
3124.2456214327589805
 20
152.2827675983045026
 30
0.0
 40
0.0998481345056472
 50
23.2644432501163401
 51
59.7740632672792387
  0
ARC
  5
2A369
  8
0
 10
3124.2215435585599153
 20
152.2414407113762138
 30
0.0
 40
0.1476775774160275
 50
59.7740632672792387
 51
93.7711263524362835
  0
ARC
  5
2A36A
  8
0
 10
3124.2216411789017911
 20
152.2399596805244073
 30
0.0
 40
0.1491618220438097
 50
93.7711263524362835
 51
122.7420386874461968
  0
ARC
  5
2A36B
  8
0
 10
3124.1992271955200522
 20
152.2748167649340019
 30
0.0
 40
0.1077202609654002
 50
122.7420386874461968
 51
144.2215198536931098
  0
ARC
  5
2A36C
  8
0
 10
3124.1871495987447815
 20
152.2835205084766983
 30
0.0
 40
0.0928332365645158
 50
144.2215198536931098
 51
189.9403315112315909
  0
ARC
  5
2A36D
  8
0
 10
3124.1721638459798669
 20
152.2808942045460014
 30
0.0
 40
0.0776190899158105
 50
189.9403315112315909
 51
224.8487166975133107
  0
ARC
  5
2A36E
  8
0
 10
3123.7950725222108304
 20
152.6997505408344011
 30
0.0
 40
0.0420590590897079
 50
38.4187745612049412
 51
107.0680483733877963
  0
ARC
  5
2A36F
  8
0
 10
3123.7957309095750134
 20
152.6976061649787084
 30
0.0
 40
0.0443022313373366
 50
107.0680483733877963
 51
154.2805902309191879
  0
ARC
  5
2A370
  8
0
 10
3123.7825751276827759
 20
152.7084179248099076
 30
0.0
 40
0.0280491097828503
 50
162.5443356265222974
 51
234.9631751415948031
  0
ARC
  5
2A371
  8
0
 10
3123.7929439402842036
 20
152.7226333996686094
 30
0.0
 40
0.0456424498849537
 50
234.5505913556320081
 51
313.4871620209519278
  0
ARC
  5
2A372
  8
0
 10
3123.8053635259720977
 20
152.7098044208061083
 30
0.0
 40
0.0277881948752947
 50
313.1119733666424736
 51
35.3611369516963876
  0
ARC
  5
2A373
  8
0
 10
3123.8220432966659246
 20
152.717764689383813
 30
0.0
 40
0.0866312339315576
 50
319.5111689493638778
 51
11.8682159862051808
  0
ARC
  5
2A374
  8
0
 10
3123.8184427446499285
 20
152.7121341137483057
 30
0.0
 40
0.0914372975453921
 50
14.8583391852709497
 51
56.3599420093484511
  0
ARC
  5
2A375
  8
0
 10
3123.7960013628330671
 20
152.6764841558604076
 30
0.0
 40
0.1335532945893323
 50
56.8172396759580423
 51
121.2376300009553063
  0
ARC
  5
2A376
  8
0
 10
3123.769622286259164
 20
152.7123688025862975
 30
0.0
 40
0.089278394353289
 50
118.704804468497997
 51
210.2867938217669916
  0
ARC
  5
2A377
  8
0
 10
3123.8183591743481884
 20
152.7163932150239134
 30
0.0
 40
0.0886092418281308
 50
302.698203214565126
 51
321.7329346780326773
  0
ARC
  5
2A378
  8
0
 10
3123.7901181894558249
 20
152.7603861044626967
 30
0.0
 40
0.1408866513737705
 50
256.7434356845777756
 51
302.698203214565126
  0
ARC
  5
2A379
  8
0
 10
3123.7832725169969308
 20
152.7313284954570918
 30
0.0
 40
0.111033546467795
 50
215.1886443888845974
 51
256.7434356845777756
  0
ARC
  5
2A37A
  8
0
 10
3123.8190799642261481
 20
152.7385041264851964
 30
0.0
 40
0.1015335136477515
 50
318.4976873215076125
 51
339.6599167548442892
  0
ARC
  5
2A37B
  8
0
 10
3123.8382900386200163
 20
152.7313828222374923
 30
0.0
 40
0.0810459580978998
 50
339.6599167548442892
 51
23.2644432501148302
  0
ARC
  5
2A37C
  8
0
 10
3123.8210166357198432
 20
152.723956424059395
 30
0.0
 40
0.0998481345056472
 50
23.2644432501163401
 51
59.7740632672792387
  0
ARC
  5
2A37D
  8
0
 10
3123.7969387615207779
 20
152.6826295371311062
 30
0.0
 40
0.1476775774160275
 50
59.7740632672792387
 51
93.7711263524362835
  0
ARC
  5
2A37E
  8
0
 10
3123.7970363818631085
 20
152.6811485062794134
 30
0.0
 40
0.1491618220438097
 50
93.7711263524362835
 51
122.7420386874461968
  0
ARC
  5
2A37F
  8
0
 10
3123.7746223984800054
 20
152.7160055906890079
 30
0.0
 40
0.1077202609654002
 50
122.7420386874461968
 51
144.2215198536931098
  0
ARC
  5
2A380
  8
0
 10
3123.7625448017051895
 20
152.7247093342315907
 30
0.0
 40
0.0928332365645158
 50
144.2215198536931098
 51
189.9403315112315909
  0
ARC
  5
2A381
  8
0
 10
3123.7475590489420938
 20
152.7220830303008938
 30
0.0
 40
0.0776190899158105
 50
189.9403315112315909
 51
224.8487166975133107
  0
LINE
  5
2A382
  8
0
 10
3124.5322545779981738
 20
160.4944886997245987
 30
0.0
 11
3124.3684362374360717
 21
160.4944886997245987
 31
0.0
  0
LINE
  5
2A383
  8
0
 10
3124.2514475013967967
 20
160.4944886997245987
 30
0.0
 11
3124.1588378436968014
 21
160.4944886997245987
 31
0.0
  0
LINE
  5
2A384
  8
0
 10
3123.9119357604981815
 20
160.4944886997245987
 30
0.0
 11
3123.7014994295977885
 21
160.4944886997245987
 31
0.0
  0
LINE
  5
2A385
  8
0
 10
3123.5345253121968199
 20
160.4944886997245987
 30
0.0
 11
3123.3649707086970011
 21
160.4944886997245987
 31
0.0
  0
LINE
  5
2A386
  8
0
 10
3123.2330419794980116
 20
160.4944886997245987
 30
0.0
 11
3123.0229041615971255
 21
160.4944886997245987
 31
0.0
  0
LINE
  5
2A387
  8
0
 10
3122.9082388298970727
 20
160.4944886997245987
 30
0.0
 11
3122.8156291722971218
 21
160.4944886997245987
 31
0.0
  0
LINE
  5
2A388
  8
0
 10
3122.7771049690968539
 20
160.4944886997245987
 30
0.0
 11
3122.6844953113982228
 21
160.4944886997245987
 31
0.0
  0
LINE
  5
2A389
  8
0
 10
3122.5834356802970433
 20
160.4944886997245987
 30
0.0
 11
3122.4908260226970924
 21
160.4944886997245987
 31
0.0
  0
LINE
  5
2A38A
  8
0
 10
3122.4093741970968949
 20
160.4944886997245987
 30
0.0
 11
3122.166022873097063
 21
160.4944886997245987
 31
0.0
  0
LINE
  5
2A38B
  8
0
 10
3121.9567450100971655
 20
160.4944886997245987
 30
0.0
 11
3121.8412197233969891
 21
160.4944886997245987
 31
0.0
  0
LINE
  5
2A38C
  8
0
 10
3121.6237348227969051
 20
160.4944886997245987
 30
0.0
 11
3121.5164165737969597
 21
160.4944886997245987
 31
0.0
  0
LINE
  5
2A38D
  8
0
 10
3124.5473990109971965
 20
160.5535438179246057
 30
0.0
 11
3124.5400519642998916
 21
160.5012668643443021
 31
0.0
  0
ARC
  5
2A38E
  8
0
 10
3124.5323729975621063
 20
160.5022264892648138
 30
0.0
 40
0.0077386956368946
 50
269.1232106316840031
 51
352.8767903483819737
  0
LINE
  5
2A38F
  8
0
 10
3124.3535232061981333
 20
160.5535438179246057
 30
0.0
 11
3124.3608702528767935
 21
160.5012668643445011
 31
0.0
  0
ARC
  5
2A390
  8
0
 10
3124.3686716876850369
 20
160.5023632845025929
 30
0.0
 40
0.0078781039752777
 50
187.9999999864670031
 51
268.287365241048974
  0
ARC
  5
2A391
  8
0
 10
3124.2514475010871138
 20
160.5023627157557087
 30
0.0
 40
0.0078740160396216
 50
269.9973259391466058
 51
351.9999985171430126
  0
LINE
  5
2A392
  8
0
 10
3124.2592448877148854
 20
160.5012668643246059
 30
0.0
 11
3124.2665919357650637
 21
160.5535438177464869
 31
0.0
  0
ARC
  5
2A393
  8
0
 10
3124.1588378439942062
 20
160.502362715728907
 30
0.0
 40
0.0078740160042301
 50
188.0000013220027881
 51
269.9999978427155725
  0
LINE
  5
2A394
  8
0
 10
3124.1510404573978121
 20
160.5012668643246059
 30
0.0
 11
3124.143693409496791
 21
160.5535438177558092
 31
0.0
  0
ARC
  5
2A395
  8
0
 10
3123.9119357602430682
 20
160.5023627157945896
 30
0.0
 40
0.0078740160705561
 50
269.9993309505529737
 51
351.9999984134503279
  0
LINE
  5
2A396
  8
0
 10
3123.9197331468999437
 20
160.5012668643452116
 30
0.0
 11
3123.9270801950679015
 21
160.5535438179246057
 31
0.0
  0
ARC
  5
2A397
  8
0
 10
3123.701499429912019
 20
160.502362715864308
 30
0.0
 40
0.007874016139688
 50
188.0000021788380877
 51
269.9999977136125153
  0
LINE
  5
2A398
  8
0
 10
3123.6937020431969358
 20
160.5012668643246059
 30
0.0
 11
3123.6863549944750957
 21
160.5535438179246057
 31
0.0
  0
ARC
  5
2A399
  8
0
 10
3123.7941090871981942
 20
160.5023627155246118
 30
0.0
 40
0.0078740157000112
 50
270.0000000000259774
 51
351.9999998675060056
  0
LINE
  5
2A39A
  8
0
 10
3123.8019064735149186
 20
160.5012668643246059
 30
0.0
 11
3123.8067175950181991
 21
160.5354997720216943
 31
0.0
  0
ARC
  5
2A39B
  8
0
 10
3123.8194110665299377
 20
160.5024352435358139
 30
0.0
 40
0.007968472475686
 50
188.4314047434336885
 51
265.7483664095390736
  0
LINE
  5
2A39C
  8
0
 10
3123.8115287163977882
 20
160.5012668643246059
 30
0.0
 11
3123.8041816697677859
 21
160.5535438179246057
 31
0.0
  0
ARC
  5
2A39D
  8
0
 10
3123.5345253118362052
 20
160.5023627159177977
 30
0.0
 40
0.0078740161932412
 50
269.999879651266383
 51
351.9999975261151235
  0
LINE
  5
2A39E
  8
0
 10
3123.5423226985981273
 20
160.5012668643304892
 30
0.0
 11
3123.5496697475941801
 21
160.5535438179246057
 31
0.0
  0
ARC
  5
2A39F
  8
0
 10
3123.3649707086970011
 20
160.5023627155246118
 30
0.0
 40
0.0078740157000077
 50
188.0000000000420926
 51
270.0
  0
LINE
  5
2A3A0
  8
0
 10
3123.3571733223770934
 20
160.5012668643425968
 30
0.0
 11
3123.3498262756838812
 21
160.5535438179246057
 31
0.0
  0
ARC
  5
2A3A1
  8
0
 10
3123.4575803660331985
 20
160.5023627158070099
 30
0.0
 40
0.0078740160824076
 50
270.0000019240912934
 51
351.9999982143953048
  0
LINE
  5
2A3A2
  8
0
 10
3123.4653777526978047
 20
160.5012668643288123
 30
0.0
 11
3123.4727248010531184
 21
160.5535438179246057
 31
0.0
  0
ARC
  5
2A3A3
  8
0
 10
3123.2330419792388057
 20
160.502362715706397
 30
0.0
 40
0.0078740159817627
 50
270.0000018845134946
 51
351.9999988201067822
  0
LINE
  5
2A3A4
  8
0
 10
3123.2408393658151908
 20
160.5012668643246059
 30
0.0
 11
3123.2481864136079821
 21
160.5535438179246057
 31
0.0
  0
ARC
  5
2A3A5
  8
0
 10
3123.0229041616071299
 20
160.5023627156305963
 30
0.0
 40
0.0078740158060029
 50
188.0000008029398941
 51
269.9999999266028112
  0
LINE
  5
2A3A6
  8
0
 10
3123.0151067751971823
 20
160.5012668643246059
 30
0.0
 11
3123.0077597277559107
 21
160.5535438179246057
 31
0.0
  0
ARC
  5
2A3A7
  8
0
 10
3123.1404323221509003
 20
160.5023627157941064
 30
0.0
 40
0.0078740160694757
 50
188.0000017347132939
 51
269.9999981577217909
  0
LINE
  5
2A3A8
  8
0
 10
3123.1326349354990271
 20
160.5012668643119866
 30
0.0
 11
3123.1310097404330008
 21
160.5128307278683906
 31
0.0
  0
LINE
  5
2A3A9
  8
0
 10
3123.129384545396988
 20
160.5012668643246059
 30
0.0
 11
3123.1367315920970213
 21
160.5535438179246057
 31
0.0
  0
ARC
  5
2A3AA
  8
0
 10
3123.1215871587460242
 20
160.5023627156971031
 30
0.0
 40
0.007874015972444
 50
269.9999974596534003
 51
351.999998879055795
  0
ARC
  5
2A3AB
  8
0
 10
3122.9082388296501449
 20
160.5023627156930104
 30
0.0
 40
0.007874015968407
 50
269.9998395327116896
 51
351.9999989048155271
  0
LINE
  5
2A3AC
  8
0
 10
3122.9160362162151614
 20
160.5012668643246059
 30
0.0
 11
3122.9233832639288266
 21
160.5535438179246057
 31
0.0
  0
ARC
  5
2A3AD
  8
0
 10
3122.8156291722971218
 20
160.5023627155246118
 30
0.0
 40
0.0078740157000041
 50
188.0000000000098055
 51
269.9999999999478746
  0
LINE
  5
2A3AE
  8
0
 10
3122.8078317859772142
 20
160.5012668643425968
 30
0.0
 11
3122.8004847392849115
 21
160.5535438179246057
 31
0.0
  0
ARC
  5
2A3AF
  8
0
 10
3122.7771049687107734
 20
160.5023627159474984
 30
0.0
 40
0.0078740162228499
 50
270.0000020847730866
 51
351.999997406470186
  0
LINE
  5
2A3B0
  8
0
 10
3122.7849023554990708
 20
160.5012668643398115
 30
0.0
 11
3122.7922494046051725
 21
160.5535438179246057
 31
0.0
  0
ARC
  5
2A3B1
  8
0
 10
3122.684495311756109
 20
160.5023627158213912
 30
0.0
 40
0.0078740160968209
 50
188.0000019076832132
 51
269.9999973876630861
  0
LINE
  5
2A3B2
  8
0
 10
3122.6766979250801342
 20
160.5012668643246059
 30
0.0
 11
3122.6693508766102241
 21
160.5535438179246057
 31
0.0
  0
ARC
  5
2A3B3
  8
0
 10
3122.5834356800219211
 20
160.5023627158188049
 30
0.0
 40
0.0078740160942021
 50
269.9999255947782899
 51
351.9999981525006092
  0
LINE
  5
2A3B4
  8
0
 10
3122.591233066697896
 20
160.5012668643304892
 30
0.0
 11
3122.5985801151109627
 21
160.5535438179246057
 31
0.0
  0
ARC
  5
2A3B5
  8
0
 10
3122.4908260229890402
 20
160.5023627158379895
 30
0.0
 40
0.0078740161133979
 50
188.0000019689703947
 51
269.9999978798962275
  0
LINE
  5
2A3B6
  8
0
 10
3122.4830286362980587
 20
160.5012668643246059
 30
0.0
 11
3122.4756815895971158
 21
160.5535438179246057
 31
0.0
  0
ARC
  5
2A3B7
  8
0
 10
3122.4093741967931237
 20
160.5023627157376893
 30
0.0
 40
0.0078740160131081
 50
269.9998792394915199
 51
351.9999986219668813
  0
LINE
  5
2A3B8
  8
0
 10
3122.4245186300981914
 20
160.5535438179246057
 30
0.0
 11
3122.4171715833967937
 21
160.5012668643246059
 31
0.0
  0
ARC
  5
2A3B9
  8
0
 10
3122.3167645396952139
 20
160.5023627158456918
 30
0.0
 40
0.0078740161211286
 50
188.000002061442899
 51
269.9999978309908215
  0
LINE
  5
2A3BA
  8
0
 10
3122.3089671529969564
 20
160.5012668643246059
 30
0.0
 11
3122.3023422742057846
 21
160.5484053139855973
 31
0.0
  0
LINE
  5
2A3BB
  8
0
 10
3122.3030644454961475
 20
160.5535438179246057
 30
0.0
 11
3122.2957173988152135
 21
160.5012668643246059
 31
0.0
  0
ARC
  5
2A3BC
  8
0
 10
3122.2879200125180432
 20
160.5023627155011923
 30
0.0
 40
0.0078740156765947
 50
269.9999998519548967
 51
352.0000000156369993
  0
ARC
  5
2A3BD
  8
0
 10
3122.1660228734058364
 20
160.5023627157632973
 30
0.0
 40
0.0078740160386417
 50
188.000001539679289
 51
269.9999977556914814
  0
LINE
  5
2A3BE
  8
0
 10
3122.1582254867789743
 20
160.5012668643246059
 30
0.0
 11
3122.1508784386519437
 21
160.5535438179246057
 31
0.0
  0
ARC
  5
2A3BF
  8
0
 10
3122.1953103547971295
 20
160.5023627155246118
 30
0.0
 40
0.0078740157000041
 50
188.0000000000113971
 51
269.9999999999739089
  0
LINE
  5
2A3C0
  8
0
 10
3122.1875129684772219
 20
160.5012668643425968
 30
0.0
 11
3122.1801659217849192
 21
160.5535438179246057
 31
0.0
  0
ARC
  5
2A3C1
  8
0
 10
3121.9567450098061272
 20
160.5023627157430894
 30
0.0
 40
0.0078740160184879
 50
269.999902427934785
 51
351.9999985878924917
  0
LINE
  5
2A3C2
  8
0
 10
3121.9645423964147994
 20
160.5012668643246059
 30
0.0
 11
3121.9718894444240505
 21
160.5535438179246057
 31
0.0
  0
ARC
  5
2A3C3
  8
0
 10
3121.8412197236830252
 20
160.5023627157167994
 30
0.0
 40
0.0078740159921829
 50
188.0000012458039862
 51
269.9999979189527721
  0
LINE
  5
2A3C4
  8
0
 10
3121.8334223370970903
 20
160.5012668643246059
 30
0.0
 11
3121.8260752892438177
 21
160.5535438179246057
 31
0.0
  0
ARC
  5
2A3C5
  8
0
 10
3121.8641353527541469
 20
160.5023627157038106
 30
0.0
 40
0.0078740159792083
 50
188.0000011637424109
 51
269.9999981316667004
  0
LINE
  5
2A3C6
  8
0
 10
3121.8563379661791259
 20
160.5012668643246059
 30
0.0
 11
3121.8489909184017961
 21
160.5535438179246057
 31
0.0
  0
ARC
  5
2A3C7
  8
0
 10
3121.6237348225508867
 20
160.5023627156924135
 30
0.0
 40
0.0078740159678361
 50
270.0000017964472931
 51
351.9999989081994727
  0
LINE
  5
2A3C8
  8
0
 10
3121.6315322091149937
 20
160.5012668643246059
 30
0.0
 11
3121.6388792568259305
 21
160.5535438179246057
 31
0.0
  0
ARC
  5
2A3C9
  8
0
 10
3121.5164165740739008
 20
160.5023627157056012
 30
0.0
 40
0.0078740159809954
 50
188.000001175036914
 51
269.9999979897185085
  0
LINE
  5
2A3CA
  8
0
 10
3121.5086191874970609
 20
160.5012668643246059
 30
0.0
 11
3121.5012721397101814
 21
160.5535438179246057
 31
0.0
  0
ARC
  5
2A3CB
  8
0
 10
3121.5300222744190251
 20
160.5023627156438124
 30
0.0
 40
0.0078740158192012
 50
188.0000007353741012
 51
269.9999998430961909
  0
LINE
  5
2A3CC
  8
0
 10
3121.5222248879949802
 20
160.5012668643452116
 30
0.0
 11
3121.5148778406191923
 21
160.5535438179246057
 31
0.0
  0
ARC
  5
2A3CE
  8
0
 10
3120.8677710972469868
 20
155.2335744626246026
 30
0.0
 40
0.0078740157000022
 50
90.0
 51
179.4999998364023099
  0
LINE
  5
2A3CF
  8
0
 10
3120.8639025050470082
 20
155.2414484784245872
 30
0.0
 11
3121.6119340010468477
 21
155.2414484784245872
 31
0.0
  0
LINE
  5
2A3D0
  8
0
 10
3121.6119340010468477
 20
155.0052280059246073
 30
0.0
 11
3120.8639025050470082
 21
155.0052280059246073
 31
0.0
  0
ARC
  5
2A3D1
  8
0
 10
3121.609989442747974
 20
155.0131020217245919
 30
0.0
 40
0.0078740156999998
 50
271.0669354293212905
 51
0.0
  0
LINE
  5
2A3D2
  8
0
 10
3121.6178634584471183
 20
155.0131020217245919
 30
0.0
 11
3121.6159391247288113
 21
155.233643175502209
 31
0.0
  0
ARC
  5
2A3D3
  8
0
 10
3121.6080654088477786
 20
155.2335744626246026
 30
0.0
 40
0.007874015699998
 50
0.5000000001070765
 51
90.0
  0
LINE
  5
2A3D4
  8
0
 10
3120.8598973813650446
 20
155.2336431755246053
 30
0.0
 11
3120.8579733474471141
 21
155.0131707346245946
 31
0.0
  0
ARC
  5
2A3D5
  8
0
 10
3120.8658470633531579
 20
155.0131020217484092
 30
0.0
 40
0.007874015723816
 50
179.5000000112304122
 51
269.9999999604223149
  0
ARC
  5
2A3D6
  8
0
 10
3120.8677710972469868
 20
135.3123146200246083
 30
0.0
 40
0.0078740157000022
 50
90.0
 51
179.4999998364023099
  0
LINE
  5
2A3D7
  8
0
 10
3120.8639025050470082
 20
135.3201886358245929
 30
0.0
 11
3121.6119340009981897
 21
135.3201886358245929
 31
0.0
  0
LINE
  5
2A3D8
  8
0
 10
3121.6119340010468477
 20
135.083968163324613
 30
0.0
 11
3120.8639025050470082
 21
135.083968163324613
 31
0.0
  0
ARC
  5
2A3D9
  8
0
 10
3121.609989442747974
 20
135.0918421791245976
 30
0.0
 40
0.0078740156999998
 50
271.0669354293212905
 51
0.0
  0
LINE
  5
2A3DA
  8
0
 10
3121.6178634584471183
 20
135.0918421791245976
 30
0.0
 11
3121.6159391247288113
 21
135.3123833329021863
 31
0.0
  0
ARC
  5
2A3DB
  8
0
 10
3121.6080654088477786
 20
135.3123146200246083
 30
0.0
 40
0.007874015699998
 50
0.5000000001070765
 51
90.0
  0
LINE
  5
2A3DC
  8
0
 10
3120.8598973813650446
 20
135.3123833329246111
 30
0.0
 11
3120.8579733474471141
 21
135.0919108920246003
 31
0.0
  0
ARC
  5
2A3DD
  8
0
 10
3120.8658470633531579
 20
135.0918421791483865
 30
0.0
 40
0.007874015723816
 50
179.5000000112304122
 51
269.9999999604223149
  0
ARC
  5
2A3DE
  8
0
 10
3103.7704858568217787
 20
122.8355816302554047
 30
0.0
 40
21.766159481042429
 50
352.8850669719237771
 51
359.576938126388427
  0
ARC
  5
2A3DF
  8
0
 10
3108.2355971591241541
 20
122.2782407802826015
 30
0.0
 40
17.2663986246206314
 50
342.4761061259713983
 51
352.8850669719237771
  0
ARC
  5
2A3E0
  8
0
 10
3118.8309531670779506
 20
118.9326794145332968
 30
0.0
 40
6.1553973291795634
 50
324.4204199651435943
 51
342.4761061259713983
  0
ARC
  5
2A3E1
  8
0
 10
3122.6138371333781834
 20
116.2264392074190056
 30
0.0
 40
1.5041666145094179
 50
295.0424464897981807
 51
324.4204199651435943
  0
ARC
  5
2A3E2
  8
0
 10
3122.9089712560257794
 20
116.1564985330986985
 30
0.0
 40
1.384748202249221
 50
258.0407702869454738
 51
267.5765548410442989
  0
ARC
  5
2A3E3
  8
0
 10
3122.7745233943128369
 20
116.0358982959377983
 30
0.0
 40
1.2651878448951259
 50
273.4390516886393812
 51
292.1008508986091101
  0
LINE
  5
2A3E4
  8
0
 10
3120.7457523685470733
 20
122.685097695321204
 30
0.0
 11
3120.7457523693369694
 21
122.6598487231878067
 31
0.0
  0
ARC
  5
2A3E5
  8
0
 10
3120.3586054720231004
 20
122.661542181591102
 30
0.0
 40
0.3871506010599964
 50
350.1922019495092968
 51
359.7493783338067033
  0
ARC
  5
2A3E6
  8
0
 10
3119.269390278820083
 20
122.8498349845598057
 30
0.0
 40
1.4925210895180061
 50
346.6454473652318029
 51
350.1922019495092968
  0
ARC
  5
2A3E7
  8
0
 10
3121.2853798487008135
 20
122.3712480568889021
 30
0.0
 40
0.5794971037435978
 50
166.6454473652318029
 51
177.1476193617056083
  0
ARC
  5
2A3E8
  8
0
 10
3120.7142829485119364
 20
122.3997027326807938
 30
0.0
 40
0.0076917715020263
 50
177.1476193617056083
 51
271.4100777903860831
  0
LINE
  5
2A3E9
  8
0
 10
3120.7077034867470502
 20
122.3920132903245985
 30
0.0
 11
3121.7681330193481699
 21
122.3920132903245985
 31
0.0
  0
LINE
  5
2A3EA
  8
0
 10
3121.7681330193481699
 20
122.3920132903245985
 30
0.0
 11
3121.7674460213611383
 21
122.352655203219399
 31
0.0
  0
LINE
  5
2A3EB
  8
0
 10
3121.7674458120468444
 20
122.3526432116245957
 30
0.0
 11
3120.7083906939469671
 21
122.3526432116245957
 31
0.0
  0
LINE
  5
2A3EC
  8
0
 10
3120.7083906939469671
 20
122.3526432116245957
 30
0.0
 11
3120.7077034867470502
 21
122.3920132903245985
 31
0.0
  0
ARC
  5
2A3ED
  8
0
 10
3120.7142962057469049
 20
122.3447691958245969
 30
0.0
 40
0.0078740157000023
 50
90.0
 51
179.9999999999870113
  0
LINE
  5
2A3EE
  8
0
 10
3120.7064221900482153
 20
122.3447691958245969
 30
0.0
 11
3120.706422190046851
 21
121.8235163844523044
 31
0.0
  0
CIRCLE
  5
2A3EF
  8
0
 10
3121.2379182530480648
 20
121.5062036298245971
 30
0.0
 40
0.5314960630000004
  0
ARC
  5
2A3F0
  8
0
 10
3120.6956683674861779
 20
121.2968374345119003
 30
0.0
 40
0.0501363811774093
 50
1.205849349658124
 51
14.4772911861302305
  0
LINE
  5
2A3F1
  8
0
 10
3120.7457936454729861
 20
121.2978925289737049
 30
0.0
 11
3120.7457922687472092
 21
120.9354177794753014
 31
0.0
  0
ARC
  5
2A3F2
  8
0
 10
3120.7919601317798879
 20
120.9425480675819955
 30
0.0
 40
0.0467152242009144
 50
188.7795118390708922
 51
265.6754221983549087
  0
LINE
  5
2A3F3
  8
0
 10
3120.7884375013481986
 20
120.8959658472937946
 30
0.0
 11
3121.6906741585471536
 21
120.8959658472937946
 31
0.0
  0
ARC
  5
2A3F4
  8
0
 10
3121.6891538198760827
 20
120.9368562043746067
 30
0.0
 40
0.0409186110697583
 50
272.1293255548774823
 51
357.8729477890486237
  0
LINE
  5
2A3F5
  8
0
 10
3121.730044237247057
 20
120.9353374881246026
 30
0.0
 11
3121.7300442407458831
 21
121.2978768026246001
 31
0.0
  0
ARC
  5
2A3F6
  8
0
 10
3121.7713702183009445
 20
121.2978768022257015
 30
0.0
 40
0.0413259775540125
 50
163.121485209827199
 51
179.999999446988511
  0
ARC
  5
2A3F7
  8
0
 10
3336.4293502463260666
 20
121.6686667078599982
 30
0.0
 40
215.7229836331698891
 50
179.958872098186788
 51
180.0414404321496988
  0
ARC
  5
2A3F8
  8
0
 10
3121.7614416625187914
 20
122.3447120503244037
 30
0.0
 40
0.0079728582269591
 50
0.4106712956546635
 51
84.1376453345276332
  0
LINE
  5
2A3F9
  8
0
 10
3121.7694143159469604
 20
122.3447691958245969
 30
0.0
 11
3121.7694143160470048
 21
121.8367298156576055
 31
0.0
  0
ARC
  5
2A3FA
  8
0
 10
3302.5618002205687844
 20
121.8437902743765022
 30
0.0
 40
180.7923860423873066
 50
180.0022375637317964
 51
180.0585156803444136
  0
ARC
  5
2A3FB
  8
0
 10
3087.035828886453146
 20
121.6236754014056061
 30
0.0
 40
34.7336976924399465
 50
359.8194216469735807
 51
0.0585156803444603
  0
LINE
  5
2A3FC
  8
0
 10
3121.7300841375467826
 20
122.6850985691246052
 30
0.0
 11
3121.7300841375467826
 21
122.6598708145245951
 31
0.0
  0
ARC
  5
2A3FD
  8
0
 10
3122.1086473331588422
 20
122.6598708145245951
 30
0.0
 40
0.3785631956117035
 50
179.9999999999984084
 51
191.1735996241272062
  0
ARC
  5
2A3FE
  8
0
 10
3129.3036362924108289
 20
124.0810720676732046
 30
0.0
 40
7.7125715897786327
 50
191.1735996241272062
 51
192.0856806206082013
  0
ARC
  5
2A3FF
  8
0
 10
3121.3225681757949133
 20
122.3848163104896969
 30
0.0
 40
0.4469242994613865
 50
1.93247085196447
 51
10.4995899496920799
  0
ARC
  5
2A400
  8
0
 10
3121.7614111302218589
 20
122.3998399866278959
 30
0.0
 40
0.0078273068601767
 50
270.7156445278192791
 51
0.3463801810521859
  0
LINE
  5
2A401
  8
0
 10
3121.6873933186138856
 20
120.895967409324598
 30
0.0
 11
3121.6324051046572094
 21
119.5762502726246055
 31
0.0
  0
ARC
  5
2A402
  8
0
 10
3121.6127371306629357
 20
119.5770697716120026
 30
0.0
 40
0.0196850394871575
 50
270.0000002433025088
 51
357.6140557630806143
  0
LINE
  5
2A403
  8
0
 10
3121.6127371307470639
 20
119.5573847321249019
 30
0.0
 11
3120.8630993753508847
 21
119.5573847321249019
 31
0.0
  0
ARC
  5
2A404
  8
0
 10
3120.8630993818301249
 20
119.5770697782724028
 30
0.0
 40
0.0196850461475191
 50
182.3859628697811956
 51
269.9999811397523786
  0
LINE
  5
2A405
  8
0
 10
3120.8434314014480151
 20
119.5762502726116026
 30
0.0
 11
3120.7884372426819937
 21
120.8961038633468945
 31
0.0
  0
ARC
  5
2A406
  8
0
 10
3134.9579210282690838
 20
119.5450030961239065
 30
0.0
 40
13.4346500858020601
 50
179.9471950822739927
 51
185.3859865301201069
  0
ARC
  5
2A407
  8
0
 10
3130.4020711162502266
 20
119.1154726906000008
 30
0.0
 40
8.8585966781027761
 50
185.3859865301201069
 51
194.9557571912191918
  0
ARC
  5
2A408
  8
0
 10
3125.9269139252119203
 20
117.9200609124263934
 30
0.0
 40
4.2265300546729563
 50
194.9557571912191918
 51
207.9234436527019909
  0
ARC
  5
2A409
  8
0
 10
3123.7761848863601699
 20
116.7801815447304961
 30
0.0
 40
1.7924059059365129
 50
207.9234436527019909
 51
225.2914836053230943
  0
ARC
  5
2A40A
  8
0
 10
3122.9701194049130208
 20
115.9658725824624952
 30
0.0
 40
0.6466133215607127
 50
225.2914836053230943
 51
245.1857659980800861
  0
ARC
  5
2A40B
  8
0
 10
3122.8668874045938537
 20
115.7426037510857952
 30
0.0
 40
0.4006340196794484
 50
245.1857659980800861
 51
265.2452635788732209
  0
ARC
  5
2A40C
  8
0
 10
3104.8436668173308135
 20
122.8076104007866007
 30
0.0
 40
20.1224907777871493
 50
357.3116769893861147
 51
359.6322506607738205
  0
ARC
  5
2A40D
  8
0
 10
3102.8579603268331084
 20
122.9008483548454933
 30
0.0
 40
22.1103850361630201
 50
353.8427642653920202
 51
357.3116769893861147
  0
ARC
  5
2A40E
  8
0
 10
3106.5375114887369818
 20
122.5038997007609964
 30
0.0
 40
18.4094844718337711
 50
349.5718433147226278
 51
353.8427642653920202
  0
ARC
  5
2A40F
  8
0
 10
3109.8619531067811295
 20
121.8920615832694949
 30
0.0
 40
15.0292096377703892
 50
342.0912454510923908
 51
349.5718433147226278
  0
ARC
  5
2A410
  8
0
 10
3117.8206385409298491
 20
119.3201332477793954
 30
0.0
 40
6.6652698243434907
 50
331.8067365648917075
 51
342.0912454510923908
  0
ARC
  5
2A411
  8
0
 10
3120.8925703285772215
 20
117.6734428711618961
 30
0.0
 40
3.1798209143178409
 50
323.1955892666301793
 51
331.8067365648917075
  0
ARC
  5
2A412
  8
0
 10
3122.0840651656558293
 20
116.7819477867996056
 30
0.0
 40
1.691727022042343
 50
307.7197970374986085
 51
323.1955892666301793
  0
ARC
  5
2A413
  8
0
 10
3122.812914593827827
 20
115.8395999378818004
 30
0.0
 40
0.5004080230721828
 50
284.7611865820833259
 51
307.7197970374986085
  0
ARC
  5
2A414
  8
0
 10
3122.843931491773219
 20
115.7218828599915952
 30
0.0
 40
0.3786732359934584
 50
268.4484818657030019
 51
284.7611865820833259
  0
ARC
  5
2A415
  8
0
 10
3136.2504676754820139
 20
119.5772548606592949
 30
0.0
 40
15.2979207218737994
 50
180.0744202325602998
 51
183.6111543228471987
  0
ARC
  5
2A416
  8
0
 10
3131.8068612380930062
 20
119.296818325601194
 30
0.0
 40
10.8454738866376008
 50
183.6111543228471987
 51
190.0702364162258959
  0
ARC
  5
2A417
  8
0
 10
3128.3984960877378398
 20
118.6915225843605981
 30
0.0
 40
7.3837783580685619
 50
190.0702364162258959
 51
199.1848088160251962
  0
ARC
  5
2A418
  8
0
 10
3125.0104807864399845
 20
117.5126979548924027
 30
0.0
 40
3.796540536447008
 50
199.1848088160251962
 51
212.608396769649687
  0
ARC
  5
2A419
  8
0
 10
3123.4452756992768627
 20
116.5113843116911028
 30
0.0
 40
1.9384512014203421
 50
212.608396769649687
 51
231.3153165587314106
  0
ARC
  5
2A41A
  8
0
 10
3122.8957574911892152
 20
115.8250975696993947
 30
0.0
 40
1.0592699042724081
 50
231.3153165587314106
 51
255.0241641967112969
  0
ARC
  5
2A41B
  8
0
 10
3125.3935695899849634
 20
124.4340268755334051
 30
0.0
 40
0.010143305394881
 50
90.3029647675931813
 51
169.7697117777350968
  0
LINE
  5
2A41C
  8
0
 10
3125.3935159551469951
 20
124.4441700391246002
 30
0.0
 11
3127.0285966069018286
 21
124.4317513360717982
 31
0.0
  0
ARC
  5
2A41D
  8
0
 10
3127.0287268469501214
 20
124.4127964024317947
 30
0.0
 40
0.0189553367177904
 50
43.4450037649535616
 51
90.3843546145166528
  0
LINE
  5
2A41E
  8
0
 10
3127.0424890803801645
 20
124.4258311913107065
 30
0.0
 11
3127.1130357237871067
 21
124.3546177045814005
 31
0.0
  0
ARC
  5
2A41F
  8
0
 10
3127.1051323814890566
 20
124.3470175213645064
 30
0.0
 40
0.0109718740538796
 50
11.8352454800721993
 51
44.2329214317132298
  0
ARC
  5
2A420
  8
0
 10
3211.8567706754997744
 20
144.8442644288118117
 30
0.0
 40
89.0139506048522122
 50
182.4945315952811029
 51
183.866957339244891
  0
ARC
  5
2A421
  8
0
 10
3173.8178748761661154
 20
142.2730709172795969
 30
0.0
 40
50.888255467499981
 50
183.8669573392432994
 51
186.4772681437914059
  0
ARC
  5
2A422
  8
0
 10
3236.6771903012509028
 20
149.4097234895392887
 30
0.0
 40
114.1513991267232058
 50
186.4772681437914059
 51
187.7960923169287923
  0
ARC
  5
2A423
  8
0
 10
3199.115303200784183
 20
144.2669948267084123
 30
0.0
 40
76.2390921453782084
 50
187.7960923169287923
 51
189.0746420853747054
  0
ARC
  5
2A424
  8
0
 10
2211.2754988209289877
 20
-13.5109240830869606
 30
0.0
 40
924.1215182410647913
 50
8.9618041380304092
 51
9.0746420853747036
  0
ARC
  5
2A425
  8
0
 10
2813.4314889039601439
 20
81.4497654091307055
 30
0.0
 40
314.523807499208317
 50
8.3028792645552425
 51
8.9618041380304092
  0
ARC
  5
2A426
  8
0
 10
3098.0664182771261039
 20
122.9881191341406037
 30
0.0
 40
26.8738851118537916
 50
4.6529585719886599
 51
8.3028792645552425
  0
ARC
  5
2A427
  8
0
 10
2902.2287220998528028
 20
107.0491937685778936
 30
0.0
 40
223.3591328680921038
 50
4.4681867964657407
 51
4.6529585719886599
  0
ARC
  5
2A428
  8
0
 10
3083.2818705189729371
 20
121.4146884464820033
 30
0.0
 40
42.3091642241779127
 50
4.3884980768528257
 51
8.8133935053821411
  0
ARC
  5
2A429
  8
0
 10
2127.2650660725739726
 20
-26.8133755704503507
 30
0.0
 40
1009.7489242847769901
 50
8.8133935053821411
 51
9.0579874966712612
  0
ARC
  5
2A42A
  8
0
 10
3215.3005058730241217
 20
146.6434845524740069
 30
0.0
 40
92.0261891505641501
 50
186.0222910943321892
 51
189.0579874966711884
  0
ARC
  5
2A42B
  8
0
 10
3182.3952967041627744
 20
143.1720638855890968
 30
0.0
 40
58.9383733886721899
 50
182.1190768223137866
 51
186.0222910943321892
  0
ARC
  5
2A42C
  8
0
 10
3180.4750243199018769
 20
143.1010104651186055
 30
0.0
 40
57.0167869039371382
 50
180.0386463846168965
 51
182.1190768223137866
  0
ARC
  5
2A42D
  8
0
 10
3127.1086445046489644
 20
124.3202028749938961
 30
0.0
 40
0.0078008781892661
 50
4.2572208738737842
 51
22.1240532437340995
  0
ARC
  5
2A42E
  8
0
 10
3117.1055966840349356
 20
123.5642831240245982
 30
0.0
 40
10.0393700611626606
 50
355.6784823439356273
 51
4.3215176472853569
  0
ARC
  5
2A42F
  8
0
 10
3127.1087527718400452
 20
122.8083553121520026
 30
0.0
 40
0.0076923113290428
 50
337.7242734735514205
 51
355.7427791173589071
  0
LINE
  5
2A430
  8
0
 10
3127.0424889765481566
 20
124.425831087278695
 30
0.0
 11
3127.0424889765481566
 21
122.6936569972245934
 31
0.0
  0
ENDSEC
  0
EOF
