  0
SECTION
  2
HEADER
  9
$ACADVER
  1
AC1009
  9
$INSBASE
 10
5121.9331633239762596
 20
35.6834181648591624
 30
0.0
  9
$EXTMIN
 10
5113.7165239460628072
 20
35.6825226636296691
 30
-0.0015258207003583
  9
$EXTMAX
 10
5123.4884985360768042
 20
47.9773745097871469
 30
0.0000000349246037
  9
$LIMMIN
 10
0.0
 20
0.0
  9
$LIMMAX
 10
11.6929133858000007
 20
8.2677165353999982
  9
$ORTHOMODE
 70
     0
  9
$REGENMODE
 70
     1
  9
$FILLMODE
 70
     1
  9
$QTEXTMODE
 70
     0
  9
$MIRRTEXT
 70
     0
  9
$DRAGMODE
 70
     2
  9
$LTSCALE
 40
0.6431102362
  9
$OSMODE
 70
  4095
  9
$ATTMODE
 70
     1
  9
$TEXTSIZE
 40
0.2
  9
$TRACEWID
 40
0.05
  9
$TEXTSTYLE
  7
STANDARD
  9
$CLAYER
  8
0
  9
$CELTYPE
  6
BYLAYER
  9
$CECOLOR
 62
   256
  9
$DIMSCALE
 40
1.0
  9
$DIMASZ
 40
0.1875
  9
$DIMEXO
 40
0.0625
  9
$DIMDLI
 40
0.4443307087
  9
$DIMRND
 40
0.0
  9
$DIMDLE
 40
0.0
  9
$DIMEXE
 40
0.125
  9
$DIMTP
 40
0.01
  9
$DIMTM
 40
0.01
  9
$DIMTXT
 40
2.0
  9
$DIMCEN
 40
0.1052362205
  9
$DIMTSZ
 40
0.0
  9
$DIMTOL
 70
     1
  9
$DIMLIM
 70
     0
  9
$DIMTIH
 70
     1
  9
$DIMTOH
 70
     1
  9
$DIMSE1
 70
     0
  9
$DIMSE2
 70
     0
  9
$DIMTAD
 70
     0
  9
$DIMZIN
 70
     0
  9
$DIMBLK
  1

  9
$DIMASO
 70
     1
  9
$DIMSHO
 70
     1
  9
$DIMPOST
  1
\X
  9
$DIMAPOST
  1

  9
$DIMALT
 70
     1
  9
$DIMALTD
 70
     2
  9
$DIMALTF
 40
25.3999999999999986
  9
$DIMLFAC
 40
1.0
  9
$DIMTOFL
 70
     0
  9
$DIMTVP
 40
0.0
  9
$DIMTIX
 70
     0
  9
$DIMSOXD
 70
     0
  9
$DIMSAH
 70
     0
  9
$DIMBLK1
  1

  9
$DIMBLK2
  1

  9
$DIMSTYLE
  2
STANDARD
  9
$DIMCLRD
 70
     0
  9
$DIMCLRE
 70
     0
  9
$DIMCLRT
 70
     0
  9
$DIMTFAC
 40
1.0
  9
$DIMGAP
 40
0.09
  9
$LUNITS
 70
     2
  9
$LUPREC
 70
     4
  9
$SKETCHINC
 40
0.1
  9
$FILLETRAD
 40
0.0
  9
$AUNITS
 70
     0
  9
$AUPREC
 70
     0
  9
$MENU
  1
.
  9
$ELEVATION
 40
0.0
  9
$PELEVATION
 40
0.0
  9
$THICKNESS
 40
0.0
  9
$LIMCHECK
 70
     0
  9
$BLIPMODE
 70
     0
  9
$CHAMFERA
 40
0.0
  9
$CHAMFERB
 40
0.0
  9
$SKPOLY
 70
     0
  9
$TDCREATE
 40
2458060.468368056230247
  9
$TDUPDATE
 40
2460516.6614120369777083
  9
$TDINDWG
 40
0.5834677083000001
  9
$TDUSRTIMER
 40
0.5834677083000001
  9
$USRTIMER
 70
     1
  9
$ANGBASE
 50
0.0
  9
$ANGDIR
 70
     0
  9
$PDMODE
 70
     0
  9
$PDSIZE
 40
0.3125
  9
$PLINEWID
 40
0.0
  9
$COORDS
 70
     1
  9
$SPLFRAME
 70
     0
  9
$SPLINETYPE
 70
     6
  9
$SPLINESEGS
 70
     8
  9
$ATTDIA
 70
     1
  9
$ATTREQ
 70
     1
  9
$HANDLING
 70
     1
  9
$HANDSEED
  5
24A37
  9
$SURFTAB1
 70
     6
  9
$SURFTAB2
 70
     6
  9
$SURFTYPE
 70
     6
  9
$SURFU
 70
     6
  9
$SURFV
 70
     6
  9
$UCSNAME
  2

  9
$UCSORG
 10
0.0
 20
0.0
 30
0.0
  9
$UCSXDIR
 10
1.0
 20
0.0
 30
0.0
  9
$UCSYDIR
 10
0.0
 20
1.0
 30
0.0
  9
$PUCSNAME
  2

  9
$PUCSORG
 10
0.0
 20
0.0
 30
0.0
  9
$PUCSXDIR
 10
1.0
 20
0.0
 30
0.0
  9
$PUCSYDIR
 10
0.0
 20
1.0
 30
0.0
  9
$USERI1
 70
     0
  9
$USERI2
 70
     0
  9
$USERI3
 70
     0
  9
$USERI4
 70
     0
  9
$USERI5
 70
     0
  9
$USERR1
 40
0.0
  9
$USERR2
 40
0.0
  9
$USERR3
 40
0.0
  9
$USERR4
 40
0.0
  9
$USERR5
 40
0.0
  9
$WORLDVIEW
 70
     1
  9
$SHADEDGE
 70
     3
  9
$SHADEDIF
 70
    70
  9
$TILEMODE
 70
     1
  9
$MAXACTVP
 70
    64
  9
$PLIMCHECK
 70
     0
  9
$PEXTMIN
 10
1.0000000000000000E+20
 20
1.0000000000000000E+20
 30
1.0000000000000000E+20
  9
$PEXTMAX
 10
-1.0000000000000000E+20
 20
-1.0000000000000000E+20
 30
-1.0000000000000000E+20
  9
$PLIMMIN
 10
0.0
 20
0.0
  9
$PLIMMAX
 10
12.0
 20
9.0
  9
$UNITMODE
 70
     0
  9
$VISRETAIN
 70
     1
  9
$PLINEGEN
 70
     0
  9
$PSLTSCALE
 70
     1
  0
ENDSEC
  0
SECTION
  2
TABLES
  0
TABLE
  2
VPORT
 70
     1
  0
VPORT
  2
*ACTIVE
 70
     0
 10
0.0
 20
0.0
 11
1.0
 21
1.0
 12
1326.2446010848200331
 22
-78.3507078463970572
 13
0.0
 23
0.0
 14
1.0
 24
1.0
 15
0.0
 25
0.0
 16
0.0
 26
0.0
 36
5.1040778033513332
 17
3792.35791015625
 27
120.1806564331053977
 37
0.0
 40
12.3785852298997501
 41
2.1579545454545448
 42
50.0
 43
0.0
 44
0.0
 50
0.0
 51
0.0
 71
     0
 72
   100
 73
     1
 74
     1
 75
     0
 76
     0
 77
     0
 78
     0
  0
ENDTAB
  0
TABLE
  2
LTYPE
 70
     2
  0
LTYPE
  2
CONTINUOUS
 70
     0
  3
Solid line
 72
    65
 73
     0
 40
0.0
  0
LTYPE
  2
PHANTOM2
 70
     0
  3
___ _ _ ___ _ _ ___ _ _ ___ _ _
 72
    65
 73
     6
 40
1.25
 49
0.625
 49
-0.125
 49
0.125
 49
-0.125
 49
0.125
 49
-0.125
  0
ENDTAB
  0
TABLE
  2
LAYER
 70
     2
  0
LAYER
  2
0
 70
     0
 62
   255
  6
CONTINUOUS
  0
LAYER
  2
DEFPOINTS
 70
     0
 62
     7
  6
CONTINUOUS
  0
ENDTAB
  0
TABLE
  2
STYLE
 70
     1
  0
STYLE
  2
STANDARD
 70
     0
 40
0.0
 41
0.8
 50
0.0
 71
     0
 42
0.2
  3
txt
  4

  0
ENDTAB
  0
TABLE
  2
VIEW
 70
     0
  0
ENDTAB
  0
TABLE
  2
UCS
 70
     0
  0
ENDTAB
  0
TABLE
  2
APPID
 70
     9
  0
APPID
  2
ACAD
 70
     0
  0
APPID
  2
ACAD_MLEADERVER
 70
     0
  0
APPID
  2
ACAD_EXEMPT_FROM_CAD_STANDARDS
 70
     0
  0
APPID
  2
ACAD_NAV_VCDISPLAY
 70
     0
  0
APPID
  2
ACAECLAYERSTANDARD
 70
     0
  0
APPID
  2
ACCMTRANSPARENCY
 70
     0
  0
APPID
  2
ACAD_DSTYLE_DIMJAG
 70
     0
  0
APPID
  2
ACAD_DSTYLE_DIMTALN
 70
     0
  0
APPID
  2
ACDBATTR
 70
     0
  0
ENDTAB
  0
TABLE
  2
DIMSTYLE
 70
     1
  0
DIMSTYLE
  2
STANDARD
 70
     0
  3

  4

  5

  6

  7

 40
1.0
 41
0.1875
 42
0.0625
 43
0.38
 44
0.125
 45
0.0
 46
0.0
 47
0.01
 48
0.01
140
0.15625
141
0.09
142
0.0
143
25.3999999999999986
144
1.0
145
0.0
146
1.0
147
0.09
 71
     1
 72
     0
 73
     1
 74
     1
 75
     0
 76
     0
 77
     0
 78
     4
170
     0
171
     2
172
     0
173
     0
174
     0
175
     0
176
     0
177
     0
178
     0
  0
ENDTAB
  0
ENDSEC
  0
SECTION
  2
BLOCKS
  0
BLOCK
  8
0
  2
$MODEL_SPACE
 70
     0
 10
0.0
 20
0.0
 30
0.0
  3
$MODEL_SPACE
  1

  0
ENDBLK
  5
21
  8
0
  0
BLOCK
 67
     1
  8
0
  2
$PAPER_SPACE
 70
     0
 10
0.0
 20
0.0
 30
0.0
  3
$PAPER_SPACE
  1

  0
ENDBLK
  5
1D
 67
     1
  8
0
  0
ENDSEC
  0
SECTION
  2
ENTITIES
  0
ATTDEF
  5
238D9
  8
DEFPOINTS
 10
5121.929186931320146
 20
35.6872088742895528
 30
0.0
 40
0.001
  1
K-32456T-7
  3

  2
MODELNUMBER
 70
     0
1001
ACDBATTR
1070
     0
1070
     1
  0
ATTDEF
  5
238DA
  8
DEFPOINTS
 10
5121.929186931320146
 20
35.6855422076228876
 30
0.0
 40
0.001
  1
PARALLEL
  3

  2
TRADENAME
 70
     0
1001
ACDBATTR
1070
     0
1070
     1
  0
ATTDEF
  5
238DB
  8
DEFPOINTS
 10
5121.929186931320146
 20
35.6838755409562225
 30
0.0
 40
0.001
  1
KITCHEN SINK FAUCET
  3

  2
PRODUCT
 70
     0
1001
ACDBATTR
1070
     0
1070
     1
  0
LINE
  5
24860
  8
0
 10
5120.7717609618257484
 20
35.6834181648591624
 30
0.0
 11
5123.0945656861258612
 21
35.6834181648591624
 31
0.0
  0
LINE
  5
24861
  8
0
 10
5120.7717609618257484
 20
35.8802685585591732
 30
0.0
 11
5123.0945656861258612
 21
35.8802685585591732
 31
0.0
  0
LINE
  5
24862
  8
0
 10
5120.7520609618259186
 20
35.8605685585591729
 30
0.0
 11
5120.7520609618259186
 21
35.7031181648591627
 31
0.0
  0
LINE
  5
24863
  8
0
 10
5121.1457617492260397
 20
35.9058646215591608
 30
0.0
 11
5121.1457617492260397
 21
35.8802685585591732
 31
0.0
  0
LINE
  5
24864
  8
0
 10
5121.1516672610259775
 20
35.9117646215591719
 30
0.0
 11
5122.7146648987263688
 21
35.9117646215591719
 31
0.0
  0
LINE
  5
24865
  8
0
 10
5121.1555617492258534
 20
36.0692449364591567
 30
0.0
 11
5122.7107648987257562
 21
36.0692449364591567
 31
0.0
  0
ARC
  5
24866
  8
0
 10
5120.7717609618257484
 20
35.8605685585591729
 30
0.0
 40
0.0197
 50
90.0
 51
180.0000000000057128
  0
ARC
  5
24867
  8
0
 10
5120.7717609618257484
 20
35.7031181648591627
 30
0.0
 40
0.0197
 50
179.9999999999934914
 51
270.0
  0
ARC
  5
24868
  8
0
 10
5121.1516617492270598
 20
35.9058646215591608
 30
0.0
 40
0.0059
 50
90.0
 51
179.9999999999849081
  0
LINE
  5
24869
  8
0
 10
5121.1457617492260397
 20
35.9215646215591633
 30
0.0
 11
5121.1457617492260397
 21
36.0594449364591725
 31
0.0
  0
ARC
  5
2486A
  8
0
 10
5121.1555617492258534
 20
35.9215646215591633
 30
0.0
 40
0.0098
 50
179.9999999999857039
 51
270.0
  0
ARC
  5
2486B
  8
0
 10
5121.1555617492258534
 20
36.0594449364591725
 30
0.0
 40
0.0098
 50
90.0
 51
180.0000000000169109
  0
LINE
  5
2486C
  8
0
 10
5121.1457617492260397
 20
36.0790449364591694
 30
0.0
 11
5121.1457617492260397
 21
42.5634557397797195
 31
0.0
  0
LINE
  5
2486D
  8
0
 10
5121.1457617492260397
 20
42.6144780073591676
 30
0.0
 11
5121.1457771180257623
 21
42.9969829861591677
 31
0.0
  0
ARC
  5
2486E
  8
0
 10
5121.1555617492258534
 20
36.0790449364591694
 30
0.0
 40
0.0098
 50
179.9999999999857039
 51
270.0
  0
LINE
  5
2486F
  8
0
 10
5121.1555831816313002
 20
42.5732557163435601
 30
0.0
 11
5122.7107434663212189
 21
42.5732557163435601
 31
0.0
  0
LINE
  5
24870
  8
0
 10
5121.1555617492258534
 20
42.604678007359162
 30
0.0
 11
5122.7107648987257562
 21
42.604678007359162
 31
0.0
  0
LINE
  5
24871
  8
0
 10
5121.1516672610259775
 20
42.5967780073591626
 30
0.0
 11
5121.1516672610259775
 21
42.5811470221125035
 31
0.0
  0
ARC
  5
24872
  8
0
 10
5121.159567261025586
 20
42.5967780073591626
 30
0.0
 40
0.0079
 50
90.0
 51
179.9999999999807017
  0
ARC
  5
24873
  8
0
 10
5121.159567261025586
 20
42.5811470221125035
 30
0.0
 40
0.0079
 50
180.0000000000192983
 51
269.874695165692799
  0
ARC
  5
24874
  8
0
 10
5121.1555617492258534
 20
42.5634557397797195
 30
0.0
 40
0.0098
 50
89.8746951656927706
 51
180.0000000000050875
  0
ARC
  5
24875
  8
0
 10
5121.1555617492258534
 20
42.6144780073591676
 30
0.0
 40
0.0098
 50
179.9999999999843112
 51
270.0
  0
LINE
  5
24876
  8
0
 10
5116.2794837491246653
 20
44.5227819882591689
 30
0.0
 11
5120.7935451770263171
 21
43.3133170825591591
 31
0.0
  0
ARC
  5
24877
  8
0
 10
5120.906425322657924
 20
43.0026903148984019
 30
0.0
 40
0.2394198311479808
 50
358.6340445316507157
 51
37.9042628843748375
  0
ARC
  5
24878
  8
0
 10
5120.8220164243266481
 20
42.9369696937023306
 30
0.0
 40
0.3463967546780676
 50
37.9042628843748375
 51
65.8559144352390433
  0
ARC
  5
24879
  8
0
 10
5120.5078234558477561
 20
42.236029954779859
 30
0.0
 40
1.1145332913968491
 50
65.8559144352390433
 51
75.1458152877409589
  0
LINE
  5
2487A
  8
0
 10
5121.1458302932260267
 20
44.5466121929591665
 30
0.0
 11
5121.1458302932260267
 21
46.3035394246591565
 31
0.0
  0
LINE
  5
2487B
  8
0
 10
5121.1555617492258534
 20
46.3920795821591625
 30
0.0
 11
5121.8564782627881868
 21
46.3920795821591625
 31
0.0
  0
ARC
  5
2487C
  8
0
 10
5121.8564782627881868
 20
46.7857795821591722
 30
0.0
 40
0.3937
 50
270.0
 51
291.9952536263124898
  0
LINE
  5
2487D
  8
0
 10
5121.1556302932258404
 20
46.3133394246591621
 30
0.0
 11
5122.7107223791254
 21
46.3133394246591621
 31
0.0
  0
ARC
  5
2487E
  8
0
 10
5121.9248602918523829
 20
46.160878031335919
 30
0.0
 40
0.7552513093633161
 50
162.1727175712954079
 51
167.6095241385802979
  0
ARC
  5
2487F
  8
0
 10
5121.1556302932258404
 20
46.3035394246591565
 30
0.0
 40
0.0098
 50
90.0
 51
180.0000000000102887
  0
LINE
  5
24880
  8
0
 10
5121.1457617492260397
 20
46.4018795821591681
 30
0.0
 11
5121.1457617492260397
 21
47.9473787469022383
 31
0.0
  0
ARC
  5
24881
  8
0
 10
5121.1555617492258534
 20
46.401879582159161
 30
0.0
 40
0.0098
 50
179.9999999999895977
 51
270.0
  0
ARC
  5
24882
  8
0
 10
5121.1949163192502965
 20
46.3212394246591401
 30
0.0
 40
0.0079
 50
167.6095241383729046
 51
270.000000000104194
  0
ARC
  5
24883
  8
0
 10
5121.9331423943813206
 20
9.5731556161507001
 30
0.0
 40
38.4016011314141608
 50
88.8541538259928956
 51
91.1458461740070902
  0
ARC
  5
24884
  8
0
 10
5121.1654626130712131
 20
47.9473783941360807
 30
0.0
 40
0.0197008638489848
 50
90.7402505834986925
 51
179.99897405451091
  0
LINE
  5
24885
  8
0
 10
5121.1652080887351985
 20
47.9670776137591517
 30
0.0
 11
5122.7010767000256237
 21
47.9670776137591588
 31
0.0
  0
LINE
  5
24886
  8
0
 10
5123.114265686125691
 20
35.8605685585591729
 30
0.0
 11
5123.114265686125691
 21
35.7031181648591627
 31
0.0
  0
LINE
  5
24887
  8
0
 10
5122.7205648987255699
 20
35.9058646215591608
 30
0.0
 11
5122.7205648987255699
 21
35.8802685585591732
 31
0.0
  0
ARC
  5
24888
  8
0
 10
5123.0945656861258612
 20
35.8605685585591729
 30
0.0
 40
0.0197
 50
359.9999999999940883
 51
90.0
  0
ARC
  5
24889
  8
0
 10
5123.0945656861258612
 20
35.7031181648591627
 30
0.0
 40
0.0197
 50
270.0
 51
0.0000000000065138
  0
ARC
  5
2488A
  8
0
 10
5122.7146648987263688
 20
35.9058646215591608
 30
0.0
 40
0.0059
 50
0.0000000000150631
 51
90.0
  0
LINE
  5
2488B
  8
0
 10
5122.7205648987255699
 20
35.9215646215591633
 30
0.0
 11
5122.7205648987255699
 21
36.0594449364591725
 31
0.0
  0
ARC
  5
2488C
  8
0
 10
5122.7107648987257562
 20
35.9215646215591633
 30
0.0
 40
0.0098
 50
270.0
 51
0.0000000000142489
  0
ARC
  5
2488D
  8
0
 10
5122.7107648987257562
 20
36.0594449364591725
 30
0.0
 40
0.0098
 50
359.9999999999831175
 51
90.0
  0
LINE
  5
2488E
  8
0
 10
5122.7205648987255699
 20
36.0790449364591694
 30
0.0
 11
5122.7205648987255699
 21
42.5634557397797195
 31
0.0
  0
ARC
  5
2488F
  8
0
 10
5122.7107648987257562
 20
36.0790449364591694
 30
0.0
 40
0.0098
 50
270.0
 51
0.0000000000142489
  0
LINE
  5
24890
  8
0
 10
5122.7146593869247226
 20
42.5967780073591626
 30
0.0
 11
5122.7146593869247226
 21
42.5811470221125035
 31
0.0
  0
ARC
  5
24891
  8
0
 10
5122.7067593869260236
 20
42.5967780073591626
 30
0.0
 40
0.0079
 50
0.0000000000193378
 51
90.0
  0
ARC
  5
24892
  8
0
 10
5122.7067593869260236
 20
42.5811470221125035
 30
0.0
 40
0.0079
 50
270.125304834307201
 51
359.9999999999806732
  0
ARC
  5
24893
  8
0
 10
5122.7107648987257562
 20
42.5634557397797195
 30
0.0
 40
0.0098
 50
359.9999999999947136
 51
90.1253048343072152
  0
ARC
  5
24894
  8
0
 10
5122.7107648987257562
 20
42.6144780073591676
 30
0.0
 40
0.0098
 50
270.0
 51
0.0000000000154702
  0
LINE
  5
24895
  8
0
 10
5122.7204963547255829
 20
42.6145205270591703
 30
0.0
 11
5122.7204963547255829
 21
46.3035394246591565
 31
0.0
  0
ARC
  5
24896
  8
0
 10
5121.9414663561001362
 20
46.160878031335919
 30
0.0
 40
0.7552513093633161
 50
12.3904758614197394
 51
38.7354316919755632
  0
ARC
  5
24897
  8
0
 10
5122.7106963547257692
 20
46.3035394246591565
 30
0.0
 40
0.0098
 50
359.9999999999895977
 51
90.0
  0
LINE
  5
24898
  8
0
 10
5122.7205648987255699
 20
46.7168488127012722
 30
0.0
 11
5122.7205648987255699
 21
47.9473787469022383
 31
0.0
  0
ARC
  5
24899
  8
0
 10
5122.6714103287022226
 20
46.3212394246591401
 30
0.0
 40
0.0079
 50
269.999999999895806
 51
12.3904758616271007
  0
ARC
  5
2489A
  8
0
 10
5122.7008648893206555
 20
47.9473787430619325
 30
0.0
 40
0.0197000094040729
 50
0.0000111692142291
 51
89.3839549538673452
  0
LINE
  5
2489B
  8
0
 10
5122.0039306388907789
 20
46.4207350824312428
 30
0.0
 11
5122.7144100883269857
 21
46.7077237638591569
 31
0.0
  0
ARC
  5
2489C
  8
0
 10
5122.71071995373768
 20
46.7168509678762618
 30
0.0
 40
0.0098449452227367
 50
292.0135159770911173
 51
359.9874572759114812
  0
LINE
  5
2489D
  8
0
 10
5120.8879243026258337
 20
44.3476028163591707
 30
0.0
 11
5115.8066559805765792
 21
45.7091244385071604
 31
0.0
  0
LINE
  5
2489E
  8
0
 10
5115.7825285070357495
 20
45.6951944348093591
 30
0.0
 11
5115.5227150840892136
 21
44.7255575409227077
 31
0.0
  0
ARC
  5
2489F
  8
0
 10
5115.8015572458125462
 20
45.6900956996157319
 30
0.0
 40
0.0197
 50
75.0000012758326022
 51
164.999999984587987
  0
LINE
  5
248A0
  8
0
 10
5115.5245806899256422
 20
44.747887502659168
 30
0.0
 11
5115.7780808152247118
 21
45.6939628496435404
 31
0.0
  0
LINE
  5
248A1
  8
0
 10
5115.7469998469969141
 20
45.7253877300368927
 30
0.0
 11
5115.6957951473950743
 21
45.7122696344735004
 31
0.0
  0
ARC
  5
248A2
  8
0
 10
5115.753353114071615
 20
45.7005886172004878
 30
0.0
 40
0.0256
 50
344.999999994608288
 51
104.3695144675807995
  0
ARC
  5
248A3
  8
0
 10
5126.9909729788905679
 20
42.1640923210968523
 30
0.0
 40
11.8393667268267908
 50
162.4419134212575102
 51
167.381961660700199
  0
ARC
  5
248A4
  8
0
 10
5115.7624290706271495
 20
45.6506051775591715
 30
0.0
 40
0.007874015699988
 50
344.9999999963794153
 51
45.338663833126553
  0
LINE
  5
248A5
  8
0
 10
5115.4826045073878049
 20
44.735615118409001
 30
0.0
 11
5115.4431316780874113
 21
44.7752157926606031
 31
0.0
  0
ARC
  5
248A6
  8
0
 10
5115.4998621359018216
 20
44.7545109000585981
 30
0.0
 40
0.0255905511100155
 50
227.5943639946115127
 51
344.9998252342647902
  0
ARC
  5
248A7
  8
0
 10
5115.52761922976606
 20
44.7787681483781981
 30
0.0
 40
0.0091273340084366
 50
353.1620887249454768
 51
41.3509558125801391
  0
ARC
  5
248A8
  8
0
 10
5115.5349237833715961
 20
44.8023803348742575
 30
0.0
 40
0.0080911244696574
 50
285.5539748924371111
 51
345.7094285487498269
  0
LINE
  5
248A9
  8
0
 10
5115.5227150840892136
 20
44.7255575409227077
 30
0.0
 11
5115.781308802024796
 21
44.6562675629591581
 31
0.0
  0
LINE
  5
248AA
  8
0
 10
5115.8041263918612458
 20
44.6501536082371686
 30
0.0
 11
5115.8324944459245671
 21
44.6425537934591574
 31
0.0
  0
ARC
  5
248AB
  8
0
 10
5115.5731292755190225
 20
44.1976326540166227
 30
0.0
 40
0.5196382315617449
 50
58.1293683761129003
 51
74.1641917650722036
  0
LINE
  5
248AC
  8
0
 10
5115.7149289630124258
 20
44.697549387410568
 30
0.0
 11
5115.5476032427741302
 21
44.7423841750279507
 31
0.0
  0
ARC
  5
248AD
  8
0
 10
5115.5556172575961682
 20
44.7632826340152477
 30
0.0
 40
0.0223823596075779
 50
175.3653965076391046
 51
249.019481893067109
  0
LINE
  5
248AE
  8
0
 10
5115.8497668384106873
 20
44.6379244536284787
 30
0.0
 11
5116.0817351491259615
 21
44.5757685658591569
 31
0.0
  0
ARC
  5
248AF
  8
0
 10
5116.052762532676752
 20
44.072144089000389
 30
0.0
 40
0.5044571599616561
 50
63.2924948910241199
 51
86.7075051258692184
  0
LINE
  5
248B0
  8
0
 10
5116.1131774400246286
 20
44.5714195199591572
 30
0.0
 11
5116.1586624227811626
 21
44.5592318555186608
 31
0.0
  0
ARC
  5
248B1
  8
0
 10
5116.1140085140323208
 20
44.5761900359925676
 30
0.0
 40
0.0048423658710102
 50
216.1694986744257108
 51
260.1176509645080728
  0
ARC
  5
248B2
  8
0
 10
5116.1886635633745755
 20
44.6701148377668176
 30
0.0
 40
0.1148699446732339
 50
254.8602149834377997
 51
274.1526291525111105
  0
ARC
  5
248B3
  8
0
 10
5115.852290893951249
 20
44.6466615126329103
 30
0.0
 40
0.0090943420004931
 50
238.2096132530232069
 51
253.8864832704670107
  0
ARC
  5
248B4
  8
0
 10
5115.8350821504136547
 20
44.6522196150212309
 30
0.0
 40
0.0100062141185974
 50
255.0124146466910986
 51
299.4472636744462761
  0
ARC
  5
248B5
  8
0
 10
5115.8062512886335753
 20
44.6580200560630516
 30
0.0
 40
0.0081483855880252
 50
242.4270843365731025
 51
254.8839360609188986
  0
ARC
  5
248B6
  8
0
 10
5115.5700146834133193
 20
44.1796490738582719
 30
0.0
 40
0.525376470399684
 50
63.7382247916744404
 51
69.0179818917825401
  0
ARC
  5
248B7
  8
0
 10
5115.5837110934389784
 20
44.2153618424157102
 30
0.0
 40
0.4871273725609202
 50
69.0180281037824699
 51
75.2340176148367448
  0
ARC
  5
248B8
  8
0
 10
5120.6217037265050749
 20
63.329341531922438
 30
0.0
 40
19.2796525711149407
 50
254.7660121663442965
 51
255.2340176148368016
  0
ARC
  5
248B9
  8
0
 10
5115.5892693624937237
 20
44.850237321344153
 30
0.0
 40
0.1275590026957279
 50
249.7823557310373985
 51
254.7660121663442965
  0
ARC
  5
248BA
  8
0
 10
5115.5630698759323423
 20
44.7790968137702734
 30
0.0
 40
0.0517474935823288
 50
234.550121013074488
 51
249.7823557310373985
  0
ARC
  5
248BB
  8
0
 10
5115.5393392578644125
 20
44.7457660787004698
 30
0.0
 40
0.0108319692167443
 50
201.370976221505714
 51
234.5501210130738912
  0
ARC
  5
248BC
  8
0
 10
5115.5399170548598704
 20
44.7459178031638629
 30
0.0
 40
0.0114255362899341
 50
171.755778609062304
 51
201.023654088396114
  0
ARC
  5
248BD
  8
0
 10
5115.7843487796753834
 20
44.6672739186946117
 30
0.0
 40
0.0114184644625201
 50
254.5597401159969024
 51
296.2223630814992816
  0
ARC
  5
248BE
  8
0
 10
5120.9482432346731002
 20
44.5379387540336467
 30
0.0
 40
0.199665076399883
 50
252.4161884045778947
 51
295.3401288671366842
  0
ARC
  5
248BF
  8
0
 10
5120.9507621178681802
 20
44.5344618258947023
 30
0.0
 40
0.1954462188365298
 50
295.1089970699092078
 51
3.5642232333896842
  0
LINE
  5
248C0
  8
0
 10
5113.7212004580660505
 20
42.8643573469891379
 30
0.0
 11
5114.7310978950536082
 21
46.6333458924672684
 31
0.0
  0
LINE
  5
248C1
  8
0
 10
5113.7351304616549896
 20
42.8402298730227926
 30
0.0
 11
5114.7618731073753224
 21
42.5651150103090004
 31
0.0
  0
ARC
  5
248C2
  8
0
 10
5113.7402291968437567
 20
42.8592586118008683
 30
0.0
 40
0.0197
 50
165.0000000007767937
 51
255.000000002110994
  0
LINE
  5
248C3
  8
0
 10
5114.7860006633172816
 20
42.5790453198537335
 30
0.0
 11
5114.9040624363151437
 21
43.0196861944538398
 31
0.0
  0
ARC
  5
248C4
  8
0
 10
5114.76697184256318
 20
42.5841437490870831
 30
0.0
 40
0.0197
 50
255.0000000021101982
 51
345.0009212330278956
  0
ARC
  5
248C5
  8
0
 10
5090.2891908619449168
 20
51.3347920737574483
 30
0.0
 40
25.9282682575904317
 50
344.9044546342466901
 51
345.001790406451903
  0
ARC
  5
248C6
  8
0
 10
5115.6175972135533812
 20
44.5489717864153718
 30
0.0
 40
0.2933931229630306
 50
148.0539912077736062
 51
165.0126269709217866
  0
ARC
  5
248C7
  8
0
 10
5115.4409763616786222
 20
44.6591054594959402
 30
0.0
 40
0.0852480983700491
 50
97.0365543820519036
 51
148.0539912077736062
  0
ARC
  5
248C8
  8
0
 10
5115.4295373707445833
 20
44.7517797265445907
 30
0.0
 40
0.0081294700636632
 50
277.0365543820519179
 51
350.2830655655401983
  0
LINE
  5
248C9
  8
0
 10
5113.8254918453931168
 20
42.8160176132710504
 30
0.0
 11
5113.8279041615260212
 21
42.7297930087591595
 31
0.0
  0
LINE
  5
248CA
  8
0
 10
5113.8512032016787998
 20
42.7248882601180284
 30
0.0
 11
5113.8491319318836759
 21
42.8096832711866924
 31
0.0
  0
LINE
  5
248CB
  8
0
 10
5113.92687549362563
 20
42.7059854108591566
 30
0.0
 11
5113.9258339666266693
 21
42.7891310229189727
 31
0.0
  0
LINE
  5
248CC
  8
0
 10
5114.0127526706446588
 20
42.6895023796449777
 30
0.0
 11
5114.0439782481889779
 21
42.7549520111209205
 31
0.0
  0
LINE
  5
248CD
  8
0
 10
5114.0435317285564452
 20
42.6774939487759184
 30
0.0
 11
5114.043993891125865
 21
42.7574701665372316
 31
0.0
  0
LINE
  5
248CE
  8
0
 10
5114.1342000846270821
 20
42.6571642677591569
 30
0.0
 11
5114.1680933197421837
 21
42.7242178248910704
 31
0.0
  0
ARC
  5
248CF
  8
0
 10
5113.9290012988467424
 20
43.1261640503128021
 30
0.0
 40
0.4090606724643127
 50
255.6913914262823084
 51
259.136374154245118
  0
ARC
  5
248D0
  8
0
 10
5113.7833456785992894
 20
42.4065537695640131
 30
0.0
 40
0.326712027472631
 50
78.0180163083468869
 51
82.1635163673595486
  0
ARC
  5
248D1
  8
0
 10
5113.8632477164246666
 20
42.7427356361085273
 30
0.0
 40
0.0215313530741204
 50
235.986084712093799
 51
257.3627656741995793
  0
ARC
  5
248D2
  8
0
 10
5113.9644055723983911
 20
43.1021132339885895
 30
0.0
 40
0.3948451088851519
 50
254.4471880844621126
 51
260.2254003838958738
  0
ARC
  5
248D3
  8
0
 10
5113.9244858626434507
 20
42.8446982426694092
 30
0.0
 40
0.134460436100259
 50
258.3664340425268051
 51
270.9955041155342883
  0
ARC
  5
248D4
  8
0
 10
5113.826974412691925
 20
42.3877361459224602
 30
0.0
 40
0.3393564440627349
 50
72.8928847069572186
 51
79.8872056819646161
  0
ARC
  5
248D5
  8
0
 10
5113.8344336774989642
 20
42.4295581251176586
 30
0.0
 40
0.2968744646448687
 50
79.8872056819646161
 51
84.2694863757070038
  0
ARC
  5
248D6
  8
0
 10
5113.8568722997497389
 20
42.6531591344809016
 30
0.0
 40
0.0721504046138864
 50
84.2694863757070038
 51
92.2332194288993321
  0
ARC
  5
248D7
  8
0
 10
5113.8546953647410191
 20
42.7089825869699027
 30
0.0
 40
0.0162845215202937
 50
92.2332194288993321
 51
102.3830726246857949
  0
ARC
  5
248D8
  8
0
 10
5113.8698221422928327
 20
42.5950024047065625
 30
0.0
 40
0.1264523039847643
 50
70.2401832882428181
 51
90.8934257719420202
  0
ARC
  5
248D9
  8
0
 10
5113.909945937502016
 20
42.836502182569177
 30
0.0
 40
0.122521390151187
 50
249.905054021370006
 51
271.2285550388345996
  0
ARC
  5
248DA
  8
0
 10
5113.9370646531178863
 20
42.7153530576646503
 30
0.0
 40
0.0138409456983106
 50
222.5946198441372985
 51
252.7683060157748116
  0
ARC
  5
248DB
  8
0
 10
5114.288309518645292
 20
43.8478238774895104
 30
0.0
 40
1.1995319312904551
 50
252.7683060157748116
 51
253.8643218690586139
  0
ARC
  5
248DC
  8
0
 10
5114.0075747464679807
 20
42.9095357659488172
 30
0.0
 40
0.2203669986731352
 50
256.1824104571711018
 51
264.2250010573372947
  0
ARC
  5
248DD
  8
0
 10
5113.9696729048682755
 20
42.4299228083687865
 30
0.0
 40
0.2608390006285955
 50
82.8157502483220895
 51
86.5430896454498537
  0
ARC
  5
248DE
  8
0
 10
5114.0070739209459134
 20
42.7266382721890281
 30
0.0
 40
0.0382243747180259
 50
262.8157502483221037
 51
273.7615960217224256
  0
ARC
  5
248DF
  8
0
 10
5114.0091254998578734
 20
42.6954339961918166
 30
0.0
 40
0.0069527291497742
 50
273.7615960217224256
 51
301.445696489014324
  0
LINE
  5
248E0
  8
0
 10
5113.9164431318813513
 20
42.7104785594698981
 30
0.0
 11
5113.9163163144257851
 21
42.7101890953591692
 31
0.0
  0
LINE
  5
248E1
  8
0
 10
5113.9163163144257851
 20
42.7101890953591692
 30
0.0
 11
5113.9268392452131593
 21
42.7088791394713567
 31
0.0
  0
LINE
  5
248E2
  8
0
 10
5113.9266322746670994
 20
42.7089049043738171
 30
0.0
 11
5113.9266763256246122
 21
42.705160698559169
 31
0.0
  0
ARC
  5
248E3
  8
0
 10
5113.9286247183690648
 20
42.7062096462309668
 30
0.0
 40
0.002212809412503
 50
208.2964952667477974
 51
244.9425585030191996
  0
ARC
  5
248E4
  8
0
 10
5113.9433021794902743
 20
42.7362237755969474
 30
0.0
 40
0.0356232062803314
 50
244.0027573642225036
 51
253.0924027686158979
  0
ARC
  5
248E5
  8
0
 10
5114.0093134220733191
 20
42.6972644405989996
 30
0.0
 40
0.0098443283463499
 50
263.6902845840936038
 51
288.3681809105294747
  0
ARC
  5
248E6
  8
0
 10
5114.1120262946769799
 20
43.6261818520869369
 30
0.0
 40
0.9444231059589986
 50
262.7588038134738895
 51
263.6902845840936038
  0
LINE
  5
248E7
  8
0
 10
5114.0124155868261369
 20
42.6879216693591701
 30
0.0
 11
5114.0439740360443466
 21
42.7542739520977477
 31
0.0
  0
ARC
  5
248E8
  8
0
 10
5113.9306683494842218
 20
42.7007954562514271
 30
0.0
 40
0.0064281711540128
 50
96.9659913020633013
 51
126.1596011351656017
  0
ARC
  5
248E9
  8
0
 10
5113.9156631420837584
 20
42.3398363891466332
 30
0.0
 40
0.3676151345110006
 50
83.7625472957380737
 51
87.7822723088778361
  0
ARC
  5
248EA
  8
0
 10
5113.9281880937278402
 20
42.4642546439664912
 30
0.0
 40
0.2425749379650211
 50
73.5605304719573638
 51
83.5104908659768483
  0
ARC
  5
248EB
  8
0
 10
5114.382335582234191
 20
43.7836820571251693
 30
0.0
 40
1.1531157851025471
 50
250.4694098213458915
 51
251.0500081979716072
  0
ARC
  5
248EC
  8
0
 10
5114.0045408336636683
 20
42.6833675993408903
 30
0.0
 40
0.0102503559108746
 50
36.7621408939155714
 51
71.0500081980213452
  0
ARC
  5
248ED
  8
0
 10
5113.9499277558506947
 20
42.5847649922808387
 30
0.0
 40
0.1178884143454611
 50
66.886581717510694
 51
93.148799205765485
  0
ARC
  5
248EE
  8
0
 10
5113.989747784181418
 20
42.8110040448217219
 30
0.0
 40
0.1179904211199645
 50
246.8981367564747131
 51
273.1372441534347786
  0
ARC
  5
248EF
  8
0
 10
5114.0527462316640595
 20
42.6819147568908122
 30
0.0
 40
0.0102201082127971
 50
205.6301224427313912
 51
244.1207111438380934
  0
ARC
  5
248F0
  8
0
 10
5114.1018030347213426
 20
42.783036266563478
 30
0.0
 40
0.1226128555090761
 50
244.1207111438380934
 51
255.1808815854925001
  0
ARC
  5
248F1
  8
0
 10
5114.1290252465478261
 20
42.8859291734007826
 30
0.0
 40
0.2290459288189593
 50
255.1808815854925001
 51
262.2974188032542884
  0
ARC
  5
248F2
  8
0
 10
5114.3148958539513842
 20
43.9731437855809517
 30
0.0
 40
1.3319189490263139
 50
260.642166763141006
 51
261.4320367461806995
  0
ARC
  5
248F3
  8
0
 10
5114.1269300655430925
 20
42.7313146154211694
 30
0.0
 40
0.0759500257152142
 50
262.0787833948742218
 51
271.0952415409079777
  0
ARC
  5
248F4
  8
0
 10
5114.1279351944067457
 20
42.6722100611107322
 30
0.0
 40
0.0168375197258571
 50
271.5199339049116247
 51
285.5225868793510244
  0
ARC
  5
248F5
  8
0
 10
5114.1320233556180028
 20
42.6585131573936991
 30
0.0
 40
0.0025607913656048
 50
279.3914356027669896
 51
328.2140626998311177
  0
LINE
  5
248F6
  8
0
 10
5114.1339466572262609
 20
42.6560294957591566
 30
0.0
 11
5114.168275045097289
 21
42.7241691317012524
 31
0.0
  0
ARC
  5
248F7
  8
0
 10
5114.1297053201906238
 20
42.6622371503526381
 30
0.0
 40
0.00751823884887
 50
264.4348448192970977
 51
304.3425720830639989
  0
ARC
  5
248F8
  8
0
 10
5114.128759561303923
 20
42.7200105909824117
 30
0.0
 40
0.0652566023863555
 50
262.7652393015150096
 51
270.1902276070982225
  0
ARC
  5
248F9
  8
0
 10
5114.2004939360904245
 20
43.2073685844934232
 30
0.0
 40
0.5578542342917509
 50
259.4470311849383961
 51
261.7599104051358836
  0
ARC
  5
248FA
  8
0
 10
5114.051775786527287
 20
42.6628969387477923
 30
0.0
 40
0.0167641639685655
 50
81.9929798596876651
 51
119.456769401255201
  0
ARC
  5
248FB
  8
0
 10
5113.8345604688629464
 20
41.05816703475125
 30
0.0
 40
1.636128184337712
 50
80.9583802995424264
 51
82.2882713026999539
  0
ARC
  5
248FC
  8
0
 10
5114.0692656330684258
 20
42.5331021138200285
 30
0.0
 40
0.1426356327754678
 50
69.0119087213563489
 51
80.9583802995424264
  0
ARC
  5
248FD
  8
0
 10
5114.0903754717346601
 20
42.5881293062290069
 30
0.0
 40
0.0836982321457743
 50
60.8416596878841318
 51
69.01190872135642
  0
ARC
  5
248FE
  8
0
 10
5114.1281115957317525
 20
42.6557655818612318
 30
0.0
 40
0.0062470808586237
 50
12.9378685122480306
 51
60.8416596878836415
  0
ARC
  5
248FF
  8
0
 10
5114.0629471882730286
 20
42.5437524461201733
 30
0.0
 40
0.1297829099990273
 50
64.9976304302310126
 51
91.2945096914912568
  0
ARC
  5
24900
  8
0
 10
5114.1142272731576668
 20
42.7880673305869124
 30
0.0
 40
0.126744275021744
 50
244.6765381732961941
 51
271.615601948432527
  0
LINE
  5
24901
  8
0
 10
5114.043280984626108
 20
42.6764066734591694
 30
0.0
 11
5114.04386667462677
 21
42.7540482225300167
 31
0.0
  0
ARC
  5
24902
  8
0
 10
5114.0481090542371021
 20
42.6785611960918487
 30
0.0
 40
0.0052869862812151
 50
204.0487837836228948
 51
239.668390290476907
  0
ARC
  5
24903
  8
0
 10
5114.075619983004799
 20
42.7255809388154475
 30
0.0
 40
0.0597636547501909
 50
239.668390290476907
 51
253.3888435117218023
  0
LINE
  5
24904
  8
0
 10
5114.1833634545246241
 20
42.6429831148591632
 30
0.0
 11
5114.1855534345058913
 21
42.7195394012132823
 31
0.0
  0
LINE
  5
24905
  8
0
 10
5114.2396272303249134
 20
42.6201150054591622
 30
0.0
 11
5114.2149086560257274
 21
42.6267383274591722
 31
0.0
  0
ARC
  5
24906
  8
0
 10
5114.2465520266478052
 20
42.7494066621841071
 30
0.0
 40
0.1266839502404297
 50
245.2927076163304037
 51
255.5353874752468926
  0
ARC
  5
24907
  8
0
 10
5114.2108585106007013
 20
42.6718294024789131
 30
0.0
 40
0.0412892296119843
 50
231.6886477337399128
 51
245.2927076163306026
  0
ARC
  5
24908
  8
0
 10
5114.188342086303237
 20
42.6433613204281272
 30
0.0
 40
0.004992976420412
 50
184.3441708972243021
 51
231.9094998580362983
  0
ARC
  5
24909
  8
0
 10
5114.1868165634732577
 20
42.6409949359698075
 30
0.0
 40
0.0039845724672316
 50
113.6648684121591941
 51
150.0681699570702108
  0
ARC
  5
2490A
  8
0
 10
5114.1933679739868239
 20
42.6106973125884068
 30
0.0
 40
0.0349119246911779
 50
80.3050425817170606
 51
103.501242479623599
  0
ARC
  5
2490B
  8
0
 10
5114.130071999804386
 20
42.2402042827823934
 30
0.0
 40
0.410772890318936
 50
77.5249625977085373
 51
80.3050425817170606
  0
LINE
  5
2490C
  8
0
 10
5114.2178520602246863
 20
42.6377232615591595
 30
0.0
 11
5114.2425706369176623
 21
42.6310999388183305
 31
0.0
  0
LINE
  5
2490D
  8
0
 10
5114.2405799641255726
 20
42.6236706565591632
 30
0.0
 11
5114.2158613898482145
 21
42.6302939786409425
 31
0.0
  0
ARC
  5
2490E
  8
0
 10
5114.2064400279414258
 20
42.5891014470566489
 30
0.0
 40
0.0499431209116668
 50
76.791189083904186
 51
97.7024301131264679
  0
ARC
  5
2490F
  8
0
 10
5114.2258596583578765
 20
42.669500999791083
 30
0.0
 40
0.0404617830494289
 50
229.8054709899178931
 51
255.6937921083302001
  0
LINE
  5
24910
  8
0
 10
5114.2188047940271645
 20
42.6412789125591587
 30
0.0
 11
5114.2311436847867299
 21
42.6379727167438887
 31
0.0
  0
LINE
  5
24911
  8
0
 10
5114.2750685698883899
 20
42.6184108032599198
 30
0.0
 11
5114.3114501347627083
 21
42.6858054820546116
 31
0.0
  0
ARC
  5
24912
  8
0
 10
5114.2735574348544105
 20
42.7421705848651072
 30
0.0
 40
0.1266839502404297
 50
254.4646125290308873
 51
264.7072923879280779
  0
ARC
  5
24913
  8
0
 10
5114.2656802966548639
 20
42.6571399491800278
 30
0.0
 40
0.0412892296119843
 50
264.7072923879280779
 51
278.3113522705427272
  0
ARC
  5
24914
  8
0
 10
5114.2709460510768622
 20
42.6212276547786999
 30
0.0
 40
0.004992976420412
 50
278.0905001461998154
 51
325.6558291070340942
  0
ARC
  5
24915
  8
0
 10
5114.2710840003719568
 20
42.6184155443078865
 30
0.0
 40
0.0039845724672316
 50
359.9318300471928751
 51
36.335131592100872
  0
ARC
  5
24916
  8
0
 10
5114.2502615007470013
 20
42.5954527380407129
 30
0.0
 40
0.0349119246911779
 50
46.4987575246281395
 51
69.6949574225076134
  0
ARC
  5
24917
  8
0
 10
5114.119830907470714
 20
42.2429483752023884
 30
0.0
 40
0.410772890318936
 50
69.6949574225076134
 51
72.4750374065655336
  0
LINE
  5
24918
  8
0
 10
5114.2435233683845581
 20
42.634655590522577
 30
0.0
 11
5114.2311844776222642
 21
42.6379617863367812
 31
0.0
  0
ARC
  5
24919
  8
0
 10
5114.228142839299835
 20
42.5832861962214935
 30
0.0
 40
0.0499431209116668
 50
52.2975696017915297
 51
73.2088106310340976
  0
ARC
  5
2491A
  8
0
 10
5114.25152472285572
 20
42.662624065361463
 30
0.0
 40
0.0404617819799672
 50
254.306203556058307
 51
280.194528896818781
  0
LINE
  5
2491B
  8
0
 10
5114.6714709310590479
 20
42.5893382004471235
 30
0.0
 11
5114.626269501747629
 21
42.5158716605757192
 31
0.0
  0
LINE
  5
2491C
  8
0
 10
5114.6036395667706529
 20
42.5232735437303475
 30
0.0
 11
5114.6478308445675793
 21
42.5956725425315028
 31
0.0
  0
LINE
  5
2491D
  8
0
 10
5114.5286540149545544
 20
42.544739342042547
 30
0.0
 11
5114.5711288098245859
 21
42.6162247907992366
 31
0.0
  0
LINE
  5
2491E
  8
0
 10
5114.4460406824437086
 20
42.5734032067900472
 30
0.0
 11
5114.4517233547830983
 21
42.6456970390886525
 31
0.0
  0
LINE
  5
2491F
  8
0
 10
5114.4133810209532385
 20
42.5783931295544491
 30
0.0
 11
5114.4529688853090192
 21
42.6478856471183292
 31
0.0
  0
LINE
  5
24920
  8
0
 10
5114.3246950807697431
 20
42.6061212873788691
 30
0.0
 11
5114.328869456709981
 21
42.6811379888272171
 31
0.0
  0
ARC
  5
24921
  8
0
 10
5114.7369023333603764
 20
42.9096876205450428
 30
0.0
 40
0.4090606724643127
 50
250.8636258450052026
 51
254.3086085729291881
  0
ARC
  5
24922
  8
0
 10
5114.503238660315219
 20
42.2136590264711771
 30
0.0
 40
0.326712027472631
 50
67.8364836318325928
 51
71.9819836908946371
  0
ARC
  5
24923
  8
0
 10
5114.6021323990216843
 20
42.5447520821018301
 30
0.0
 40
0.0215313530741204
 50
252.637234325025986
 51
274.0139152871420833
  0
ARC
  5
24924
  8
0
 10
5114.6942159249019824
 20
42.9065611394024629
 30
0.0
 40
0.3948451088851519
 50
249.7745996153240071
 51
255.5528119147670054
  0
ARC
  5
24925
  8
0
 10
5114.600079911998364
 20
42.6636733627284883
 30
0.0
 40
0.134460436100259
 50
239.0044958836786861
 51
251.6335659567363052
  0
ARC
  5
24926
  8
0
 10
5114.4560462564350019
 20
42.2191768534058411
 30
0.0
 40
0.3393564440627349
 50
70.1127943172371033
 51
77.1071152922544201
  0
ARC
  5
24927
  8
0
 10
5114.4704973332181908
 20
42.2591253822285822
 30
0.0
 40
0.2968744646448687
 50
65.7305136235395366
 51
70.1127943172370465
  0
ARC
  5
24928
  8
0
 10
5114.5628654210058812
 20
42.4639888477735425
 30
0.0
 40
0.0721504046138864
 50
57.7667805703558628
 51
65.7305136235394514
  0
ARC
  5
24929
  8
0
 10
5114.5926624282719786
 20
42.5112449082508022
 30
0.0
 40
0.0162845215202937
 50
47.6169273745592392
 51
57.766780570355202
  0
ARC
  5
2492A
  8
0
 10
5114.5225721635006266
 20
42.420098563659721
 30
0.0
 40
0.1264523039847643
 50
59.1065742273127768
 51
79.7598167110083125
  0
ARC
  5
2492B
  8
0
 10
5114.6085738264891916
 20
42.6493054039004491
 30
0.0
 40
0.122521390151187
 50
238.7714449604042954
 51
260.094945977899215
  0
ARC
  5
2492C
  8
0
 10
5114.5245137673937279
 20
42.5579465418957668
 30
0.0
 40
0.0138409456983106
 50
257.2316939834515779
 51
287.4053801550649041
  0
ARC
  5
2492D
  8
0
 10
5114.786562200825756
 20
43.7143174736691194
 30
0.0
 40
1.1995319312904551
 50
256.1356781301871024
 51
257.2316939834515779
  0
ARC
  5
2492E
  8
0
 10
5114.5605415894742691
 20
42.761368746920148
 30
0.0
 40
0.2203669986731352
 50
245.7749989418601899
 51
253.8175895420779966
  0
ARC
  5
2492F
  8
0
 10
5114.3535590683541159
 20
42.3270608208744221
 30
0.0
 40
0.2608390006285955
 50
63.4569103537893326
 51
67.1842497508811931
  0
ARC
  5
24930
  8
0
 10
5114.4695265702175675
 20
42.6027244582757803
 30
0.0
 40
0.0382243747180259
 50
236.2384039774931068
 51
247.1842497508814063
  0
ARC
  5
24931
  8
0
 10
5114.4521477127618709
 20
42.5767265520122535
 30
0.0
 40
0.0069527291497742
 50
208.5543035101989062
 51
236.2384039774954942
  0
LINE
  5
24932
  8
0
 10
5114.5399352795520826
 20
42.543414342010017
 30
0.0
 11
5114.5399003746342714
 21
42.5431002500088908
 31
0.0
  0
LINE
  5
24933
  8
0
 10
5114.5399003746342714
 20
42.5431002500088908
 30
0.0
 11
5114.5301322713066838
 21
42.547227260325883
 31
0.0
  0
LINE
  5
24934
  8
0
 10
5114.530324395507705
 20
42.5471460881129531
 30
0.0
 11
5114.5284141433521654
 21
42.5439255362399322
 31
0.0
  0
ARC
  5
24935
  8
0
 10
5114.5272512595765875
 20
42.5458081479420684
 30
0.0
 40
0.002212809412503
 50
265.0574414962155743
 51
301.7035047324923198
  0
ARC
  5
24936
  8
0
 10
5114.52954727006545
 20
42.5791398770064191
 30
0.0
 40
0.0356232062803314
 50
256.9075972306121116
 51
265.9972426350075239
  0
ARC
  5
24937
  8
0
 10
5114.4529001895543843
 20
42.5784057244764114
 30
0.0
 40
0.0098443283463499
 50
221.6318190887095909
 51
246.3097154151676023
  0
ARC
  5
24938
  8
0
 10
5114.8284069383398673
 20
43.4342282371394433
 30
0.0
 40
0.9444231059589986
 50
246.3097154151676023
 51
247.2411961857374934
  0
LINE
  5
24939
  8
0
 10
5114.4455422504506714
 20
42.5718657296172509
 30
0.0
 11
5114.4513879730948247
 21
42.6451077166770673
 31
0.0
  0
ARC
  5
2493A
  8
0
 10
5114.5227743281247967
 20
42.5421411374365235
 30
0.0
 40
0.0064281711540128
 50
23.8403988640793187
 51
53.0340086971625766
  0
ARC
  5
2493B
  8
0
 10
5114.3552896853643688
 20
42.2220388119005605
 30
0.0
 40
0.3676151345110006
 50
62.2177276903403182
 51
66.2374527035009066
  0
ARC
  5
2493C
  8
0
 10
5114.406651886471991
 20
42.3360506570897073
 30
0.0
 40
0.2425749379650211
 50
66.4895091332776076
 51
76.4394695272835634
  0
ARC
  5
2493D
  8
0
 10
5114.6730623309567818
 20
43.7057820595844788
 30
0.0
 40
1.1531157851025471
 50
258.9499918012647868
 51
259.5305901778584143
  0
ARC
  5
2493E
  8
0
 10
5114.450084951728968
 20
42.563984412709793
 30
0.0
 40
0.0102503559108746
 50
78.9499918012134856
 51
113.2378591053094965
  0
ARC
  5
2493F
  8
0
 10
5114.4480799609609676
 20
42.4512855112104432
 30
0.0
 40
0.1178884143454611
 50
56.8512007934823771
 51
83.1134182817083058
  0
ARC
  5
24940
  8
0
 10
5114.5267143311220934
 20
42.6671242922026011
 30
0.0
 40
0.1179904211199645
 50
236.8627558458009901
 51
263.101863242756508
  0
ARC
  5
24941
  8
0
 10
5114.4076114312383652
 20
42.586828913240339
 30
0.0
 40
0.0102201082127971
 50
265.8792888554224874
 51
304.3698775565072197
  0
ARC
  5
24942
  8
0
 10
5114.4156877483983408
 20
42.6989311110150709
 30
0.0
 40
0.1226128555090761
 50
254.8191184137128005
 51
265.8792888554224874
  0
ARC
  5
24943
  8
0
 10
5114.4435590748280447
 20
42.8016500881185493
 30
0.0
 40
0.2290459288189593
 50
247.7025811959408941
 51
254.8191184137128005
  0
ARC
  5
24944
  8
0
 10
5114.8261977131051026
 20
43.8361408653283391
 30
0.0
 40
1.3319189490263139
 50
248.567963253068001
 51
249.3578332360930858
  0
ARC
  5
24945
  8
0
 10
5114.3680662758133622
 20
42.6667023626115807
 30
0.0
 40
0.0759500257152142
 50
238.9047584583275921
 51
247.9212166043656111
  0
ARC
  5
24946
  8
0
 10
5114.3376435315267372
 20
42.6160188815315166
 30
0.0
 40
0.0168375197258571
 50
224.4774131199179976
 51
238.4800660943394064
  0
ARC
  5
24947
  8
0
 10
5114.3272546282050826
 20
42.6062010955654884
 30
0.0
 40
0.0025607913656048
 50
181.785937299404992
 51
230.6085643964435121
  0
LINE
  5
24948
  8
0
 10
5114.3243471693358515
 20
42.6050118322993683
 30
0.0
 11
5114.3286877313412333
 21
42.681186681965201
 31
0.0
  0
ARC
  5
24949
  8
0
 10
5114.3311241022502145
 20
42.6082671503581025
 30
0.0
 40
0.00751823884887
 50
205.657427916189107
 51
245.5651551799427068
  0
ARC
  5
2494A
  8
0
 10
5114.3608298737881341
 20
42.6578275381633034
 30
0.0
 40
0.0652566023863555
 50
239.8097723921165993
 51
247.2347606976846066
  0
ARC
  5
2494B
  8
0
 10
5114.5423850796596525
 20
43.1157591286721171
 30
0.0
 40
0.5578542342917509
 50
248.240089594094286
 51
250.5529688142667055
  0
ARC
  5
2494C
  8
0
 10
5114.3989429523071522
 20
42.569873777035717
 30
0.0
 40
0.0167641639685655
 50
30.5432305979714585
 51
68.0070201395669187
  0
ARC
  5
2494D
  8
0
 10
5113.7846919834755681
 20
41.0715292551386923
 30
0.0
 40
1.636128184337712
 50
67.7117286965360279
 51
69.0416196996970939
  0
ARC
  5
2494E
  8
0
 10
5114.3188988884276114
 20
42.4662130846402022
 30
0.0
 40
0.1426356327754678
 50
69.0416196996970939
 51
80.9880912778911437
  0
ARC
  5
2494F
  8
0
 10
5114.3281308280784287
 20
42.524422950498959
 30
0.0
 40
0.0836982321457743
 50
80.9880912778911437
 51
89.1583403113375965
  0
ARC
  5
24950
  8
0
 10
5114.3292685238739068
 20
42.6018657454122476
 30
0.0
 40
0.0062470808586237
 50
89.1583403113375965
 51
137.0621314869952982
  0
ARC
  5
24951
  8
0
 10
5114.3296959882836745
 20
42.4722773205730988
 30
0.0
 40
0.1297829099990273
 50
58.7054903077533581
 51
85.0023695690394732
  0
ARC
  5
24952
  8
0
 10
5114.4074435743013964
 20
42.7095002594855728
 30
0.0
 40
0.126744275021744
 50
238.3843980507919014
 51
265.3234618259513127
  0
LINE
  5
24953
  8
0
 10
5114.4130545339075979
 20
42.577326149543822
 30
0.0
 11
5114.4513680860263776
 21
42.6448585484284806
 31
0.0
  0
ARC
  5
24954
  8
0
 10
5114.4099505642898293
 20
42.581606055682002
 30
0.0
 40
0.0052869862812151
 50
270.3316097087409275
 51
305.9512162156070758
  0
ARC
  5
24955
  8
0
 10
5114.409635272459127
 20
42.6360818117441127
 30
0.0
 40
0.0597636547501909
 50
256.6111564875344015
 51
270.3316097087409275
  0
LINE
  5
24956
  8
0
 10
5114.7455498845383772
 20
46.6416897524854122
 30
0.0
 11
5115.7875133658617415
 21
46.3624964791143199
 31
0.0
  0
ARC
  5
24957
  8
0
 10
5111.9766163358581252
 20
34.2239621037047996
 30
0.0
 40
12.72269440630782
 50
72.5703012323122465
 51
77.4296987668860197
  0
ARC
  5
24958
  8
0
 10
5114.7424958198043896
 20
46.6302918277351992
 30
0.0
 40
0.0118
 50
74.9999999998426432
 51
165.0000000007507879
  0
ARC
  5
24959
  8
0
 10
5115.7844115941798009
 20
46.3510363814578028
 30
0.0
 40
0.0118724397602622
 50
345.3473563908655137
 51
74.8552704215754545
  0
LINE
  5
2495A
  8
0
 10
5115.6754100883254068
 20
45.8983664817591688
 30
0.0
 11
5115.7958979084760358
 21
46.348033148245392
 31
0.0
  0
ARC
  5
2495B
  8
0
 10
5115.8556791336695824
 20
45.8370386221727628
 30
0.0
 40
0.1904154276066101
 50
161.211601552975111
 51
195.6001229882357961
  0
ARC
  5
2495C
  8
0
 10
5115.7472128633544344
 20
45.8067540443719068
 30
0.0
 40
0.077800653049405
 50
195.6001229882355972
 51
233.2140773375840013
  0
ARC
  5
2495D
  8
0
 10
5115.6960614669405913
 20
45.7383638891494613
 30
0.0
 40
0.0076023926118199
 50
339.5201212794440835
 51
53.1221761494554272
  0
LINE
  5
2495E
  8
0
 10
5115.1799908548728126
 20
43.9448072900889173
 30
0.0
 11
5115.418626775123812
 21
44.4565636016550627
 31
0.0
  0
ARC
  5
2495F
  8
0
 10
5114.8099560653363369
 20
43.8859843126051814
 30
0.0
 40
0.8417772220515992
 50
43.9066791552135172
 51
52.0875418037811073
  0
ARC
  5
24960
  8
0
 10
5115.4079222228056096
 20
44.4615542784290696
 30
0.0
 40
0.0118107702960724
 50
335.0041238161252863
 51
43.9066791552522986
  0
LINE
  5
24961
  8
0
 10
5115.3253866333188853
 20
44.5458521970933532
 30
0.0
 11
5115.3086909599724095
 21
44.5585597918142398
 31
0.0
  0
LINE
  5
24962
  8
0
 10
5115.3086909599724095
 20
44.5585597918142398
 30
0.0
 11
5115.3035744813423662
 21
44.5599307747290467
 31
0.0
  0
LINE
  5
24963
  8
0
 10
5115.3253866333188853
 20
44.5458521970933532
 30
0.0
 11
5115.3271917709262198
 21
44.5501048712591725
 31
0.0
  0
ARC
  5
24964
  8
0
 10
5115.3951536975228009
 20
44.5174994485119271
 30
0.0
 40
0.1009315128246723
 50
142.6284193932089011
 51
155.2132710390355044
  0
ARC
  5
24965
  8
0
 10
5115.3171950613332228
 20
44.5865339946183994
 30
0.0
 40
0.0080910384133238
 50
253.8302108352114033
 51
275.9493705102933063
  0
ARC
  5
24966
  8
0
 10
5115.3174572260522837
 20
44.5840182817157995
 30
0.0
 40
0.0055617021865747
 50
275.94937051029342
 51
342.0861983663752994
  0
ARC
  5
24967
  8
0
 10
5115.6627243039565656
 20
44.3936887120606016
 30
0.0
 40
0.3957587752155678
 50
155.1802857677849943
 51
166.3526065350021099
  0
ARC
  5
24968
  8
0
 10
5100.220520438560925
 20
48.1430746668447398
 30
0.0
 40
15.4951051175495795
 50
343.6456011574579179
 51
346.3526065350022805
  0
ARC
  5
24969
  8
0
 10
5128.9410680358669197
 20
39.7149904607551107
 30
0.0
 40
14.4365246020972595
 50
163.6456011574580884
 51
166.3543988260965989
  0
ARC
  5
2496A
  8
0
 10
5115.2251124871982029
 20
43.0260293507587903
 30
0.0
 40
0.3271043597040801
 50
163.1599065197827088
 51
176.4059431322428111
  0
ARC
  5
2496B
  8
0
 10
5114.9631651745294221
 20
43.0388766008395507
 30
0.0
 40
0.064966628515703
 50
173.2305227398221916
 51
190.6866256792926038
  0
ARC
  5
2496C
  8
0
 10
5114.8983659563791662
 20
43.0212123829696083
 30
0.0
 40
0.0058973837462122
 50
345.001676833416127
 51
41.3830383050447708
  0
ARC
  5
2496D
  8
0
 10
5114.898965450556716
 20
43.0217497916638933
 30
0.0
 40
0.0050923084656456
 50
41.3053816519839074
 51
85.9475729657687566
  0
ARC
  5
2496E
  8
0
 10
5114.902041018825912
 20
43.0578539836591716
 30
0.0
 40
0.011811023600002
 50
255.0000000003279865
 51
345.0000001956569236
  0
LINE
  5
2496F
  8
0
 10
5114.9134495915668595
 20
43.0547970658482768
 30
0.0
 11
5115.0736144345728462
 21
43.6525403977317907
 31
0.0
  0
ARC
  5
24970
  8
0
 10
5116.797114390108618
 20
43.1907302144467735
 30
0.0
 40
1.78429839551219
 50
155.0000003789604079
 51
165.0000073789487089
  0
ENDSEC
  0
EOF
