  0
SECTION
  2
HEADER
  9
$ACADVER
  1
AC1009
  9
$INSBASE
 10
7271.0783233576221392
 20
111.3932976472869001
 30
0.0
  9
$EXTMIN
 10
7269.8972209954708887
 20
103.1806635201619002
 30
0.0
  9
$EXTMAX
 10
7272.2594257197733896
 20
112.5744000094368999
 30
0.0
  9
$LIMMIN
 10
0.0
 20
0.0
  9
$LIMMAX
 10
11.6929133858000007
 20
8.2677165353999982
  9
$ORTHOMODE
 70
     0
  9
$REGENMODE
 70
     1
  9
$FILLMODE
 70
     1
  9
$QTEXTMODE
 70
     0
  9
$MIRRTEXT
 70
     0
  9
$DRAGMODE
 70
     2
  9
$LTSCALE
 40
0.6431102362
  9
$OSMODE
 70
  4095
  9
$ATTMODE
 70
     1
  9
$TEXTSIZE
 40
0.2
  9
$TRACEWID
 40
0.05
  9
$TEXTSTYLE
  7
STANDARD
  9
$CLAYER
  8
0
  9
$CELTYPE
  6
BYLAYER
  9
$CECOLOR
 62
   256
  9
$DIMSCALE
 40
1.0
  9
$DIMASZ
 40
0.1875
  9
$DIMEXO
 40
0.0625
  9
$DIMDLI
 40
0.4443307087
  9
$DIMRND
 40
0.0
  9
$DIMDLE
 40
0.0
  9
$DIMEXE
 40
0.125
  9
$DIMTP
 40
0.01
  9
$DIMTM
 40
0.01
  9
$DIMTXT
 40
2.0
  9
$DIMCEN
 40
0.1052362205
  9
$DIMTSZ
 40
0.0
  9
$DIMTOL
 70
     1
  9
$DIMLIM
 70
     0
  9
$DIMTIH
 70
     1
  9
$DIMTOH
 70
     1
  9
$DIMSE1
 70
     0
  9
$DIMSE2
 70
     0
  9
$DIMTAD
 70
     0
  9
$DIMZIN
 70
     0
  9
$DIMBLK
  1

  9
$DIMASO
 70
     1
  9
$DIMSHO
 70
     1
  9
$DIMPOST
  1
\X
  9
$DIMAPOST
  1

  9
$DIMALT
 70
     1
  9
$DIMALTD
 70
     2
  9
$DIMALTF
 40
25.3999999999999986
  9
$DIMLFAC
 40
1.0
  9
$DIMTOFL
 70
     0
  9
$DIMTVP
 40
0.0
  9
$DIMTIX
 70
     0
  9
$DIMSOXD
 70
     0
  9
$DIMSAH
 70
     0
  9
$DIMBLK1
  1

  9
$DIMBLK2
  1

  9
$DIMSTYLE
  2
STANDARD
  9
$DIMCLRD
 70
     0
  9
$DIMCLRE
 70
     0
  9
$DIMCLRT
 70
     0
  9
$DIMTFAC
 40
1.0
  9
$DIMGAP
 40
0.09
  9
$LUNITS
 70
     2
  9
$LUPREC
 70
     4
  9
$SKETCHINC
 40
0.1
  9
$FILLETRAD
 40
0.0
  9
$AUNITS
 70
     0
  9
$AUPREC
 70
     0
  9
$MENU
  1
.
  9
$ELEVATION
 40
0.0
  9
$PELEVATION
 40
0.0
  9
$THICKNESS
 40
0.0
  9
$LIMCHECK
 70
     0
  9
$BLIPMODE
 70
     0
  9
$CHAMFERA
 40
0.0
  9
$CHAMFERB
 40
0.0
  9
$SKPOLY
 70
     0
  9
$TDCREATE
 40
2458060.468368056230247
  9
$TDUPDATE
 40
2460522.952430556062609
  9
$TDINDWG
 40
0.9587570602
  9
$TDUSRTIMER
 40
0.9587570602
  9
$USRTIMER
 70
     1
  9
$ANGBASE
 50
0.0
  9
$ANGDIR
 70
     0
  9
$PDMODE
 70
     0
  9
$PDSIZE
 40
0.3125
  9
$PLINEWID
 40
0.0
  9
$COORDS
 70
     1
  9
$SPLFRAME
 70
     0
  9
$SPLINETYPE
 70
     6
  9
$SPLINESEGS
 70
     8
  9
$ATTDIA
 70
     1
  9
$ATTREQ
 70
     1
  9
$HANDLING
 70
     1
  9
$HANDSEED
  5
33981
  9
$SURFTAB1
 70
     6
  9
$SURFTAB2
 70
     6
  9
$SURFTYPE
 70
     6
  9
$SURFU
 70
     6
  9
$SURFV
 70
     6
  9
$UCSNAME
  2

  9
$UCSORG
 10
0.0
 20
0.0
 30
0.0
  9
$UCSXDIR
 10
1.0
 20
0.0
 30
0.0
  9
$UCSYDIR
 10
0.0
 20
1.0
 30
0.0
  9
$PUCSNAME
  2

  9
$PUCSORG
 10
0.0
 20
0.0
 30
0.0
  9
$PUCSXDIR
 10
1.0
 20
0.0
 30
0.0
  9
$PUCSYDIR
 10
0.0
 20
1.0
 30
0.0
  9
$USERI1
 70
     0
  9
$USERI2
 70
     0
  9
$USERI3
 70
     0
  9
$USERI4
 70
     0
  9
$USERI5
 70
     0
  9
$USERR1
 40
0.0
  9
$USERR2
 40
0.0
  9
$USERR3
 40
0.0
  9
$USERR4
 40
0.0
  9
$USERR5
 40
0.0
  9
$WORLDVIEW
 70
     1
  9
$SHADEDGE
 70
     3
  9
$SHADEDIF
 70
    70
  9
$TILEMODE
 70
     1
  9
$MAXACTVP
 70
    64
  9
$PLIMCHECK
 70
     0
  9
$PEXTMIN
 10
1.0000000000000000E+20
 20
1.0000000000000000E+20
 30
1.0000000000000000E+20
  9
$PEXTMAX
 10
-1.0000000000000000E+20
 20
-1.0000000000000000E+20
 30
-1.0000000000000000E+20
  9
$PLIMMIN
 10
0.0
 20
0.0
  9
$PLIMMAX
 10
12.0
 20
9.0
  9
$UNITMODE
 70
     0
  9
$VISRETAIN
 70
     1
  9
$PLINEGEN
 70
     0
  9
$PSLTSCALE
 70
     1
  0
ENDSEC
  0
SECTION
  2
TABLES
  0
TABLE
  2
VPORT
 70
     1
  0
VPORT
  2
*ACTIVE
 70
     0
 10
0.0
 20
0.0
 11
1.0
 21
1.0
 12
3359.7129669123100939
 22
-24.7020733377396589
 13
0.0
 23
0.0
 14
1.0
 24
1.0
 15
0.0
 25
0.0
 16
0.0
 26
0.0
 36
60.4960186965801583
 17
3911.3653564453120453
 27
132.5796051025390057
 37
0.0
 40
9.4795240371222889
 41
2.8917682926829258
 42
50.0
 43
0.0
 44
0.0
 50
0.0
 51
0.0
 71
     0
 72
   100
 73
     1
 74
     1
 75
     0
 76
     0
 77
     0
 78
     0
  0
ENDTAB
  0
TABLE
  2
LTYPE
 70
     2
  0
LTYPE
  2
CONTINUOUS
 70
     0
  3
Solid line
 72
    65
 73
     0
 40
0.0
  0
LTYPE
  2
PHANTOM2
 70
     0
  3
___ _ _ ___ _ _ ___ _ _ ___ _ _
 72
    65
 73
     6
 40
1.25
 49
0.625
 49
-0.125
 49
0.125
 49
-0.125
 49
0.125
 49
-0.125
  0
ENDTAB
  0
TABLE
  2
LAYER
 70
     2
  0
LAYER
  2
0
 70
     0
 62
   255
  6
CONTINUOUS
  0
LAYER
  2
DEFPOINTS
 70
     0
 62
     7
  6
CONTINUOUS
  0
ENDTAB
  0
TABLE
  2
STYLE
 70
     1
  0
STYLE
  2
STANDARD
 70
     0
 40
0.0
 41
0.8
 50
0.0
 71
     0
 42
0.2
  3
txt
  4

  0
ENDTAB
  0
TABLE
  2
VIEW
 70
     0
  0
ENDTAB
  0
TABLE
  2
UCS
 70
     0
  0
ENDTAB
  0
TABLE
  2
APPID
 70
    11
  0
APPID
  2
ACAD
 70
     0
  0
APPID
  2
ACAD_MLEADERVER
 70
     0
  0
APPID
  2
ACAD_EXEMPT_FROM_CAD_STANDARDS
 70
     0
  0
APPID
  2
ACAD_NAV_VCDISPLAY
 70
     0
  0
APPID
  2
ACAECLAYERSTANDARD
 70
     0
  0
APPID
  2
ACCMTRANSPARENCY
 70
     0
  0
APPID
  2
ACAD_DSTYLE_DIMJAG
 70
     0
  0
APPID
  2
ACAD_DSTYLE_DIMTALN
 70
     0
  0
APPID
  2
ACDBATTR
 70
     0
  0
APPID
  2
ACADANNOTATIVE
 70
     0
  0
APPID
  2
DCO15
 70
     0
  0
ENDTAB
  0
TABLE
  2
DIMSTYLE
 70
     1
  0
DIMSTYLE
  2
STANDARD
 70
     0
  3

  4

  5

  6

  7

 40
1.0
 41
0.1875
 42
0.0625
 43
0.38
 44
0.125
 45
0.0
 46
0.0
 47
0.01
 48
0.01
140
0.15625
141
0.09
142
0.0
143
25.3999999999999986
144
1.0
145
0.0
146
1.0
147
0.09
 71
     1
 72
     0
 73
     1
 74
     1
 75
     0
 76
     0
 77
     0
 78
     4
170
     0
171
     2
172
     0
173
     0
174
     0
175
     0
176
     0
177
     0
178
     0
  0
ENDTAB
  0
ENDSEC
  0
SECTION
  2
BLOCKS
  0
BLOCK
  8
0
  2
$MODEL_SPACE
 70
     0
 10
0.0
 20
0.0
 30
0.0
  3
$MODEL_SPACE
  1

  0
ENDBLK
  5
21
  8
0
  0
BLOCK
 67
     1
  8
0
  2
$PAPER_SPACE
 70
     0
 10
0.0
 20
0.0
 30
0.0
  3
$PAPER_SPACE
  1

  0
ENDBLK
  5
1D
 67
     1
  8
0
  0
BLOCK
  8
0
  2
_FILLED
 70
     0
 10
0.0
 20
0.0
 30
0.0
  3
_FILLED
  1

  0
SOLID
  5
257AF
  8
0
  6
BYBLOCK
 62
     0
 10
0.0
 20
0.0
 30
0.0
 11
-1.0
 21
0.1666666667
 31
0.0
 12
-1.0
 22
-0.1666666667
 32
0.0
 13
-1.0
 23
-0.1666666667
 33
0.0
  0
ENDBLK
  5
257B0
  8
0
  6
BYBLOCK
 62
     0
  0
ENDSEC
  0
SECTION
  2
ENTITIES
  0
ATTDEF
  5
256E4
  8
DEFPOINTS
 10
7271.0684189492967562
 20
111.3966608060318038
 30
0.0
 40
0.001
  1
K-32457T-7
  3

  2
MODELNUMBER
 70
     0
1001
ACDBATTR
1070
     0
1070
     1
  0
ATTDEF
  5
256E5
  8
DEFPOINTS
 10
7271.0682931396386266
 20
111.3949939656527022
 30
0.0
 40
0.001
  1
PARALLEL
  3

  2
TRADENAME
 70
     0
1001
ACDBATTR
1070
     0
1070
     1
  0
ATTDEF
  5
256E6
  8
DEFPOINTS
 10
7271.0684189492967562
 20
111.3933274726985019
 30
0.0
 40
0.001
  1
KITCHEN SINK FAUCET
  3

  2
PRODUCT
 70
     0
1001
ACDBATTR
1070
     0
1070
     1
  0
LINE
  5
335CE
  8
0
 10
7270.5271422552723379
 20
103.7318446225119004
 30
0.0
 11
7270.5271422552723379
 21
104.7442625893582004
 31
0.0
  0
ARC
  5
335CF
  8
0
 10
7271.0783233576221392
 20
111.3932976472869001
 30
0.0
 40
1.181102362149999
 50
295.9339312253367211
 51
244.0660687746633073
  0
CIRCLE
  5
335D0
  8
0
 10
7271.0783233576221392
 20
111.3932976472869001
 30
0.0
 40
0.7874015747484835
  0
LINE
  5
335D1
  8
0
 10
7270.566492635933173
 20
110.1581844630344023
 30
0.0
 11
7270.5665123377712007
 21
105.1333867224294067
 31
0.0
  0
ARC
  5
335D2
  8
0
 10
7283.8893447194332111
 20
116.0681835315610044
 30
0.0
 40
14.4239895025723808
 50
200.1874113872923999
 51
201.471259258380087
  0
ARC
  5
335D3
  8
0
 10
7268.9498712578943014
 20
110.2021046250791017
 30
0.0
 40
1.625917968864419
 50
15.2221756516209101
 51
21.1406612985200013
  0
ARC
  5
335D4
  8
0
 10
7269.1964236328549305
 20
110.2691939027812964
 30
0.0
 40
1.370400758521586
 50
9.8926819389332739
 51
15.2221756516209101
  0
ARC
  5
335D5
  8
0
 10
7269.4316271344932829
 20
110.3237545829199036
 30
0.0
 40
1.1293995231331311
 50
2.2605124369086509
 51
9.2158766244911376
  0
ARC
  5
335D6
  8
0
 10
7267.0026109405052921
 20
110.1928203142422973
 30
0.0
 40
3.561862159919293
 50
1.748090750500733
 51
2.823919544266138
  0
ARC
  5
335D7
  8
0
 10
7259.7103623365119347
 20
109.9512827198148983
 30
0.0
 40
10.8581017406068998
 50
1.091840401939713
 51
1.848210457413719
  0
ARC
  5
335D8
  8
0
 10
7271.0783233576221392
 20
103.7318446225119004
 30
0.0
 40
0.5511811023500002
 50
180.0
 51
0.0
  0
ARC
  5
335D9
  8
0
 10
7271.0976276295050411
 20
102.9813280121797021
 30
0.0
 40
2.2855255986282268
 50
90.4839440247800155
 51
95.422645468359633
  0
ARC
  5
335DA
  8
0
 10
7271.0206062309762274
 20
103.9349482854222941
 30
0.0
 40
1.3289623936798891
 50
96.0021876758793553
 51
100.8544347267852004
  0
ARC
  5
335DB
  8
0
 10
7270.921946894471148
 20
104.4494823121490015
 30
0.0
 40
0.8050550265439458
 50
100.8544347267852004
 51
108.7079729693668071
  0
ARC
  5
335DC
  8
0
 10
7270.7614476304452182
 20
104.9234397767312004
 30
0.0
 40
0.3046594910069744
 50
108.7079729693668071
 51
119.3266673982066948
  0
ARC
  5
335DD
  8
0
 10
7270.685525442629114
 20
105.0585840996405977
 30
0.0
 40
0.1496492764477756
 50
119.3266673982071069
 51
133.9525979888769029
  0
ARC
  5
335DE
  8
0
 10
7270.6184180141754041
 20
105.1281910288878976
 30
0.0
 40
0.0529614718758165
 50
133.9525979888769029
 51
151.7429232808499933
  0
ARC
  5
335DF
  8
0
 10
7270.6141491626103743
 20
105.1304854450971931
 30
0.0
 40
0.0481150877167213
 50
151.7429232808493111
 51
171.9149291692814927
  0
ARC
  5
335E0
  8
0
 10
7270.6209940804346843
 20
105.1345141319873022
 30
0.0
 40
0.0544934063545371
 50
181.1854722035932923
 51
200.8116493947404138
  0
ARC
  5
335E1
  8
0
 10
7271.0396013355175455
 20
103.8404671030028936
 30
0.0
 40
1.400558521319639
 50
94.4932715886098862
 51
99.6310645097021848
  0
ARC
  5
335E2
  8
0
 10
7270.9581503164799869
 20
104.3204516694263049
 30
0.0
 40
0.9137120850514042
 50
99.6310645097021848
 51
105.5283168058844012
  0
ARC
  5
335E3
  8
0
 10
7270.8375519638721016
 20
104.7544821898930962
 30
0.0
 40
0.4632384949835818
 50
105.5283168058844012
 51
113.7021556293862972
  0
ARC
  5
335E4
  8
0
 10
7270.7380490936548085
 20
104.981132886025307
 30
0.0
 40
0.2157079731516298
 50
113.7021556293862972
 51
124.067563579083199
  0
ARC
  5
335E5
  8
0
 10
7270.683298991501033
 20
105.039368112303606
 30
0.0
 40
0.1373890732584995
 50
118.7502179143102978
 51
139.7037321049756997
  0
ARC
  5
335E6
  8
0
 10
7270.6329178490259437
 20
105.083759584492995
 30
0.0
 40
0.0702646605916594
 50
140.7429176521488898
 51
163.9398825073620003
  0
ARC
  5
335E7
  8
0
 10
7270.6237804985721596
 20
105.0863130466963042
 30
0.0
 40
0.0607775635080947
 50
163.8701178718891924
 51
185.0085387886385035
  0
ARC
  5
335E8
  8
0
 10
7270.6257031944960545
 20
105.0874692751474981
 30
0.0
 40
0.0628015702100812
 50
185.9062667997997949
 51
209.0701478641180984
  0
ARC
  5
335E9
  8
0
 10
7271.0783220988414541
 20
105.3320303904613979
 30
0.0
 40
0.5772623321230065
 50
208.4581487578579981
 51
210.0340024020644876
  0
ARC
  5
335EA
  8
0
 10
7270.8486350587054403
 20
104.6464899899379049
 30
0.0
 40
0.4864611816869257
 50
108.0920259871619038
 51
116.7564274751145064
  0
ARC
  5
335EB
  8
0
 10
7270.7279137346940843
 20
104.8859298750088982
 30
0.0
 40
0.2183099246812879
 50
116.7564274751145064
 51
128.5621440671530991
  0
ARC
  5
335EC
  8
0
 10
7270.640000105479885
 20
104.9962067332222944
 30
0.0
 40
0.0772787520318329
 50
128.5621440671530991
 51
141.1374589765821952
  0
ARC
  5
335ED
  8
0
 10
7270.6572934728847031
 20
104.9822714023065942
 30
0.0
 40
0.0994880744869038
 50
141.1374589765821952
 51
148.2873939740130993
  0
ARC
  5
335EE
  8
0
 10
7270.6154939325260784
 20
105.0107378181167945
 30
0.0
 40
0.0490171615813486
 50
150.9112509726016071
 51
170.5657210571667974
  0
ARC
  5
335EF
  8
0
 10
7270.6001425571021173
 20
105.0121614228915945
 30
0.0
 40
0.033658446516658
 50
168.6724699438632058
 51
180.6232932714422077
  0
ARC
  5
335F0
  8
0
 10
7265.0824398306840521
 20
105.0236310537360964
 30
0.0
 40
5.4840590435797489
 50
358.9039132332628128
 51
359.8763433014697739
  0
ARC
  5
335F1
  8
0
 10
7271.0541961590097344
 20
104.7198456504183071
 30
0.0
 40
0.5276191849740818
 50
157.8746070475523879
 51
177.3475426590912036
  0
ARC
  5
335F2
  8
0
 10
7271.0590858826681142
 20
104.7168113262843008
 30
0.0
 40
0.5332925512000805
 50
136.4682712741085027
 51
157.7704738022210904
  0
ARC
  5
335F3
  8
0
 10
7271.0680553798720211
 20
104.7082901462545976
 30
0.0
 40
0.5456643897540708
 50
116.2808967347615976
 51
136.4682712741085027
  0
ARC
  5
335F4
  8
0
 10
7271.0801340974157938
 20
104.683830190217094
 30
0.0
 40
0.5729441417113561
 50
103.4628354868279985
 51
116.2808967347615976
  0
ARC
  5
335F5
  8
0
 10
7271.0818009231534234
 20
104.6567320000970938
 30
0.0
 40
0.5997040882245082
 50
90.3322487681532351
 51
103.0149551671377992
  0
ARC
  5
335F6
  8
0
 10
7271.0455935293121001
 20
104.7242405863560037
 30
0.0
 40
0.5184798023147954
 50
180.601051168233198
 51
207.5350434232601913
  0
ARC
  5
335F7
  8
0
 10
7271.0590300273370303
 20
104.7312456329187995
 30
0.0
 40
0.5336326949921375
 50
207.5350434232601913
 51
227.6428810621474099
  0
ARC
  5
335F8
  8
0
 10
7271.072740330495435
 20
104.7462829166051961
 30
0.0
 40
0.5539819532922503
 50
227.6428810621474099
 51
247.6056536742682113
  0
ARC
  5
335F9
  8
0
 10
7271.0877488729183824
 20
104.8080299844195054
 30
0.0
 40
0.6168656720219383
 50
248.5017881504919899
 51
269.1245042692830225
  0
LINE
  5
335FA
  8
0
 10
7271.6295044599719404
 20
103.7318446225119004
 30
0.0
 11
7271.6295044599719404
 21
104.7442625893582004
 31
0.0
  0
LINE
  5
335FB
  8
0
 10
7271.5901540793111053
 20
110.1581844630344023
 30
0.0
 11
7271.5901343774730776
 21
105.1333867224294067
 31
0.0
  0
ARC
  5
335FC
  8
0
 10
7258.2673019958110672
 20
116.0681835315610044
 30
0.0
 40
14.4239895025723808
 50
338.5287407416197993
 51
339.8125886127076001
  0
ARC
  5
335FD
  8
0
 10
7273.2067754573490674
 20
110.2021046250791017
 30
0.0
 40
1.625917968864419
 50
158.8593387014799987
 51
164.777824348379113
  0
ARC
  5
335FE
  8
0
 10
7272.9602230823893478
 20
110.2691939027812964
 30
0.0
 40
1.370400758521586
 50
164.777824348379113
 51
170.1073180610667066
  0
ARC
  5
335FF
  8
0
 10
7272.7250195807509954
 20
110.3237545829199036
 30
0.0
 40
1.1293995231331311
 50
170.7841233755088979
 51
177.739487563091302
  0
ARC
  5
33600
  8
0
 10
7275.1540357747389862
 20
110.1928203142422973
 30
0.0
 40
3.561862159919293
 50
177.1760804557337963
 51
178.2519092494991924
  0
ARC
  5
33601
  8
0
 10
7282.4462843787332531
 20
109.9512827198148983
 30
0.0
 40
10.8581017406068998
 50
178.1517895425863003
 51
178.9081595980603083
  0
ARC
  5
33602
  8
0
 10
7271.0590190857392372
 20
102.9813280121797021
 30
0.0
 40
2.2855255986282268
 50
84.5773545316403954
 51
89.5160559752199987
  0
ARC
  5
33603
  8
0
 10
7271.1360404842680509
 20
103.9349482854222941
 30
0.0
 40
1.3289623936798891
 50
79.1455652732147854
 51
83.9978123241206447
  0
ARC
  5
33604
  8
0
 10
7271.2346998207731303
 20
104.4494823121490015
 30
0.0
 40
0.8050550265439458
 50
71.2920270306331787
 51
79.1455652732147854
  0
ARC
  5
33605
  8
0
 10
7271.3951990847972411
 20
104.9234397767312004
 30
0.0
 40
0.3046594910069744
 50
60.6733326017933123
 51
71.2920270306331787
  0
ARC
  5
33606
  8
0
 10
7271.4711212726151643
 20
105.0585840996405977
 30
0.0
 40
0.1496492764477756
 50
46.0474020111230899
 51
60.6733326017929002
  0
ARC
  5
33607
  8
0
 10
7271.5382287010679647
 20
105.1281910288878976
 30
0.0
 40
0.0529614718758165
 50
28.2570767191499499
 51
46.0474020111230899
  0
ARC
  5
33608
  8
0
 10
7271.5424975526329945
 20
105.1304854450971931
 30
0.0
 40
0.0481150877167213
 50
8.0850708307185002
 51
28.2570767191506711
  0
ARC
  5
33609
  8
0
 10
7271.5356526348068655
 20
105.1345141319873022
 30
0.0
 40
0.0544934063545371
 50
339.1883506052594726
 51
358.814527796406594
  0
ARC
  5
3360A
  8
0
 10
7271.1170453797249138
 20
103.8404671030028936
 30
0.0
 40
1.400558521319639
 50
80.3689354902978152
 51
85.5067284113901138
  0
ARC
  5
3360B
  8
0
 10
7271.1984963987633819
 20
104.3204516694263049
 30
0.0
 40
0.9137120850514042
 50
74.471683194115613
 51
80.3689354902978152
  0
ARC
  5
3360C
  8
0
 10
7271.3190947513730862
 20
104.7544821898930962
 30
0.0
 40
0.4632384949835818
 50
66.2978443706137028
 51
74.471683194115613
  0
ARC
  5
3360D
  8
0
 10
7271.4185976215885603
 20
104.981132886025307
 30
0.0
 40
0.2157079731516298
 50
55.9324364209168223
 51
66.2978443706137028
  0
ARC
  5
3360E
  8
0
 10
7271.4733477237432453
 20
105.039368112303606
 30
0.0
 40
0.1373890732584995
 50
40.2962678950242577
 51
61.2497820856896595
  0
ARC
  5
3360F
  8
0
 10
7271.5237288662174251
 20
105.083759584492995
 30
0.0
 40
0.0702646605916594
 50
16.0601174926379997
 51
39.2570823478511315
  0
ARC
  5
33610
  8
0
 10
7271.5328662166712093
 20
105.0863130466963042
 30
0.0
 40
0.0607775635080947
 50
354.9914612113614112
 51
16.1298821281107507
  0
ARC
  5
33611
  8
0
 10
7271.5309435207482238
 20
105.0874692751474981
 30
0.0
 40
0.0628015702100812
 50
330.9298521358819016
 51
354.0937332002001767
  0
ARC
  5
33612
  8
0
 10
7271.0783246164037337
 20
105.3320303904613979
 30
0.0
 40
0.5772623321230065
 50
329.965997597935484
 51
331.5418512421420019
  0
ARC
  5
33613
  8
0
 10
7271.3080116565397475
 20
104.6464899899379049
 30
0.0
 40
0.4864611816869257
 50
63.2435725248854723
 51
71.9079740128381104
  0
ARC
  5
33614
  8
0
 10
7271.428732980550194
 20
104.8859298750088982
 30
0.0
 40
0.2183099246812879
 50
51.437855932846837
 51
63.2435725248854723
  0
ARC
  5
33615
  8
0
 10
7271.5166466097643934
 20
104.9962067332222944
 30
0.0
 40
0.0772787520318329
 50
38.8625410234177835
 51
51.437855932846837
  0
ARC
  5
33616
  8
0
 10
7271.4993532423586657
 20
104.9822714023065942
 30
0.0
 40
0.0994880744869038
 50
31.7126060259868794
 51
38.8625410234177835
  0
ARC
  5
33617
  8
0
 10
7271.5411527827181999
 20
105.0107378181167945
 30
0.0
 40
0.0490171615813486
 50
9.4342789428331688
 51
29.0887490273983289
  0
ARC
  5
33618
  8
0
 10
7271.5565041581430705
 20
105.0121614228915945
 30
0.0
 40
0.033658446516658
 50
359.3767067285577923
 51
11.3275300561359291
  0
ARC
  5
33619
  8
0
 10
7277.0742068845602262
 20
105.0236310537360964
 30
0.0
 40
5.4840590435797489
 50
180.1236566985292882
 51
181.0960867667371019
  0
ARC
  5
3361A
  8
0
 10
7271.1024505562336344
 20
104.7198456504183071
 30
0.0
 40
0.5276191849740818
 50
2.6524573409087751
 51
22.1253929524475801
  0
ARC
  5
3361B
  8
0
 10
7271.0975608325761641
 20
104.7168113262843008
 30
0.0
 40
0.5332925512000805
 50
22.2295261977789202
 51
43.5317287258914334
  0
ARC
  5
3361C
  8
0
 10
7271.0885913353722572
 20
104.7082901462545976
 30
0.0
 40
0.5456643897540708
 50
43.5317287258914334
 51
63.7191032652383811
  0
ARC
  5
3361D
  8
0
 10
7271.076512617827575
 20
104.683830190217094
 30
0.0
 40
0.5729441417113561
 50
63.7191032652383811
 51
76.5371645131719589
  0
ARC
  5
3361E
  8
0
 10
7271.074845792090855
 20
104.6567320000970938
 30
0.0
 40
0.5997040882245082
 50
76.9850448328622008
 51
89.6677512318467649
  0
ARC
  5
3361F
  8
0
 10
7271.1110531859303592
 20
104.7242405863560037
 30
0.0
 40
0.5184798023147954
 50
332.4649565767397803
 51
359.3989488317666883
  0
ARC
  5
33620
  8
0
 10
7271.097616687907248
 20
104.7312456329187995
 30
0.0
 40
0.5336326949921375
 50
312.3571189378525901
 51
332.4649565767397803
  0
ARC
  5
33621
  8
0
 10
7271.0839063847488433
 20
104.7462829166051961
 30
0.0
 40
0.5539819532922503
 50
292.3943463257318172
 51
312.3571189378525901
  0
ARC
  5
33622
  8
0
 10
7271.0688978423249864
 20
104.8080299844195054
 30
0.0
 40
0.6168656720219383
 50
270.8754957307169775
 51
291.4982118495079817
  0
ENDSEC
  0
EOF
