  0
SECTION
  2
HEADER
  9
$ACADVER
  1
AC1009
  9
$INSBASE
 10
2824.5298366087058639
 20
139.7252306586827046
 30
0.0
  9
$EXTMIN
 10
2819.6923798360771798
 20
139.7252306586827046
 30
0.0
  9
$EXTMAX
 10
2825.5926117422927746
 20
145.8839366320354998
 30
0.0
  9
$LIMMIN
 10
0.0
 20
0.0
  9
$LIMMAX
 10
11.6929133858000007
 20
8.2677165353999982
  9
$ORTHOMODE
 70
     0
  9
$REGENMODE
 70
     1
  9
$FILLMODE
 70
     1
  9
$QTEXTMODE
 70
     0
  9
$MIRRTEXT
 70
     0
  9
$DRAGMODE
 70
     2
  9
$LTSCALE
 40
0.6431102362
  9
$OSMODE
 70
  4095
  9
$ATTMODE
 70
     1
  9
$TEXTSIZE
 40
0.2
  9
$TRACEWID
 40
0.05
  9
$TEXTSTYLE
  7
STANDARD
  9
$CLAYER
  8
0
  9
$CELTYPE
  6
BYLAYER
  9
$CECOLOR
 62
   256
  9
$DIMSCALE
 40
1.0
  9
$DIMASZ
 40
0.1875
  9
$DIMEXO
 40
0.0625
  9
$DIMDLI
 40
0.4443307087
  9
$DIMRND
 40
0.0
  9
$DIMDLE
 40
0.0
  9
$DIMEXE
 40
0.125
  9
$DIMTP
 40
0.01
  9
$DIMTM
 40
0.01
  9
$DIMTXT
 40
2.0
  9
$DIMCEN
 40
0.1052362205
  9
$DIMTSZ
 40
0.0
  9
$DIMTOL
 70
     1
  9
$DIMLIM
 70
     0
  9
$DIMTIH
 70
     1
  9
$DIMTOH
 70
     1
  9
$DIMSE1
 70
     0
  9
$DIMSE2
 70
     0
  9
$DIMTAD
 70
     0
  9
$DIMZIN
 70
     0
  9
$DIMBLK
  1

  9
$DIMASO
 70
     1
  9
$DIMSHO
 70
     1
  9
$DIMPOST
  1
\X
  9
$DIMAPOST
  1

  9
$DIMALT
 70
     1
  9
$DIMALTD
 70
     2
  9
$DIMALTF
 40
25.3999999999999986
  9
$DIMLFAC
 40
1.0
  9
$DIMTOFL
 70
     0
  9
$DIMTVP
 40
0.0
  9
$DIMTIX
 70
     0
  9
$DIMSOXD
 70
     0
  9
$DIMSAH
 70
     0
  9
$DIMBLK1
  1

  9
$DIMBLK2
  1

  9
$DIMSTYLE
  2
STANDARD
  9
$DIMCLRD
 70
     0
  9
$DIMCLRE
 70
     0
  9
$DIMCLRT
 70
     0
  9
$DIMTFAC
 40
1.0
  9
$DIMGAP
 40
0.09
  9
$LUNITS
 70
     2
  9
$LUPREC
 70
     4
  9
$SKETCHINC
 40
0.1
  9
$FILLETRAD
 40
0.0
  9
$AUNITS
 70
     0
  9
$AUPREC
 70
     0
  9
$MENU
  1
.
  9
$ELEVATION
 40
0.0
  9
$PELEVATION
 40
0.0
  9
$THICKNESS
 40
0.0
  9
$LIMCHECK
 70
     0
  9
$BLIPMODE
 70
     0
  9
$CHAMFERA
 40
0.0
  9
$CHAMFERB
 40
0.0
  9
$SKPOLY
 70
     0
  9
$TDCREATE
 40
2458060.468368056230247
  9
$TDUPDATE
 40
2459423.6506712958216667
  9
$TDINDWG
 40
0.6927385417
  9
$TDUSRTIMER
 40
0.6927385417
  9
$USRTIMER
 70
     1
  9
$ANGBASE
 50
0.0
  9
$ANGDIR
 70
     0
  9
$PDMODE
 70
     0
  9
$PDSIZE
 40
0.3125
  9
$PLINEWID
 40
0.0
  9
$COORDS
 70
     1
  9
$SPLFRAME
 70
     0
  9
$SPLINETYPE
 70
     6
  9
$SPLINESEGS
 70
     8
  9
$ATTDIA
 70
     1
  9
$ATTREQ
 70
     1
  9
$HANDLING
 70
     1
  9
$HANDSEED
  5
39218
  9
$SURFTAB1
 70
     6
  9
$SURFTAB2
 70
     6
  9
$SURFTYPE
 70
     6
  9
$SURFU
 70
     6
  9
$SURFV
 70
     6
  9
$UCSNAME
  2

  9
$UCSORG
 10
0.0
 20
0.0
 30
0.0
  9
$UCSXDIR
 10
1.0
 20
0.0
 30
0.0
  9
$UCSYDIR
 10
0.0
 20
1.0
 30
0.0
  9
$PUCSNAME
  2

  9
$PUCSORG
 10
0.0
 20
0.0
 30
0.0
  9
$PUCSXDIR
 10
1.0
 20
0.0
 30
0.0
  9
$PUCSYDIR
 10
0.0
 20
1.0
 30
0.0
  9
$USERI1
 70
     0
  9
$USERI2
 70
     0
  9
$USERI3
 70
     0
  9
$USERI4
 70
     0
  9
$USERI5
 70
     0
  9
$USERR1
 40
0.0
  9
$USERR2
 40
0.0
  9
$USERR3
 40
0.0
  9
$USERR4
 40
0.0
  9
$USERR5
 40
0.0
  9
$WORLDVIEW
 70
     1
  9
$SHADEDGE
 70
     3
  9
$SHADEDIF
 70
    70
  9
$TILEMODE
 70
     1
  9
$MAXACTVP
 70
    64
  9
$PLIMCHECK
 70
     0
  9
$PEXTMIN
 10
1.0000000000000000E+20
 20
1.0000000000000000E+20
 30
1.0000000000000000E+20
  9
$PEXTMAX
 10
-1.0000000000000000E+20
 20
-1.0000000000000000E+20
 30
-1.0000000000000000E+20
  9
$PLIMMIN
 10
0.0
 20
0.0
  9
$PLIMMAX
 10
12.0
 20
9.0
  9
$UNITMODE
 70
     0
  9
$VISRETAIN
 70
     1
  9
$PLINEGEN
 70
     0
  9
$PSLTSCALE
 70
     1
  0
ENDSEC
  0
SECTION
  2
TABLES
  0
TABLE
  2
VPORT
 70
     1
  0
VPORT
  2
*ACTIVE
 70
     0
 10
0.0
 20
0.0
 11
1.0
 21
1.0
 12
-480.3522717376038145
 22
-52.459716755329822
 13
0.0
 23
0.0
 14
1.0
 24
1.0
 15
0.0
 25
0.0
 16
0.0
 26
0.0
 36
96.5995694866707311
 17
3303.693115234375
 27
195.2615115758877096
 37
0.0
 40
5.616331057136323
 41
2.8440779610194902
 42
50.0
 43
0.0
 44
0.0
 50
0.0
 51
0.0
 71
     0
 72
   100
 73
     1
 74
     1
 75
     0
 76
     0
 77
     0
 78
     0
  0
ENDTAB
  0
TABLE
  2
LTYPE
 70
     2
  0
LTYPE
  2
CONTINUOUS
 70
     0
  3
Solid line
 72
    65
 73
     0
 40
0.0
  0
LTYPE
  2
PHANTOM2
 70
     0
  3
___ _ _ ___ _ _ ___ _ _ ___ _ _
 72
    65
 73
     6
 40
1.25
 49
0.625
 49
-0.125
 49
0.125
 49
-0.125
 49
0.125
 49
-0.125
  0
ENDTAB
  0
TABLE
  2
LAYER
 70
     2
  0
LAYER
  2
0
 70
     0
 62
   255
  6
CONTINUOUS
  0
LAYER
  2
DEFPOINTS
 70
     0
 62
     7
  6
CONTINUOUS
  0
ENDTAB
  0
TABLE
  2
STYLE
 70
     1
  0
STYLE
  2
STANDARD
 70
     0
 40
0.0
 41
0.8
 50
0.0
 71
     0
 42
0.2
  3
txt
  4

  0
ENDTAB
  0
TABLE
  2
VIEW
 70
     0
  0
ENDTAB
  0
TABLE
  2
UCS
 70
     0
  0
ENDTAB
  0
TABLE
  2
APPID
 70
     9
  0
APPID
  2
ACAD
 70
     0
  0
APPID
  2
ACAD_MLEADERVER
 70
     0
  0
APPID
  2
ACAD_EXEMPT_FROM_CAD_STANDARDS
 70
     0
  0
APPID
  2
ACAD_NAV_VCDISPLAY
 70
     0
  0
APPID
  2
ACAECLAYERSTANDARD
 70
     0
  0
APPID
  2
ACCMTRANSPARENCY
 70
     0
  0
APPID
  2
ACAD_DSTYLE_DIMJAG
 70
     0
  0
APPID
  2
ACAD_DSTYLE_DIMTALN
 70
     0
  0
APPID
  2
ACDBATTR
 70
     0
  0
ENDTAB
  0
TABLE
  2
DIMSTYLE
 70
     1
  0
DIMSTYLE
  2
STANDARD
 70
     0
  3

  4

  5

  6

  7

 40
1.0
 41
0.1875
 42
0.0625
 43
0.38
 44
0.125
 45
0.0
 46
0.0
 47
0.01
 48
0.01
140
0.15625
141
0.09
142
0.0
143
25.3999999999999986
144
1.0
145
0.0
146
1.0
147
0.09
 71
     1
 72
     0
 73
     1
 74
     1
 75
     0
 76
     0
 77
     0
 78
     4
170
     0
171
     2
172
     0
173
     0
174
     0
175
     0
176
     0
177
     0
178
     0
  0
ENDTAB
  0
ENDSEC
  0
SECTION
  2
BLOCKS
  0
BLOCK
  8
0
  2
$MODEL_SPACE
 70
     0
 10
0.0
 20
0.0
 30
0.0
  3
$MODEL_SPACE
  1

  0
ENDBLK
  5
21
  8
0
  0
BLOCK
 67
     1
  8
0
  2
$PAPER_SPACE
 70
     0
 10
0.0
 20
0.0
 30
0.0
  3
$PAPER_SPACE
  1

  0
ENDBLK
  5
1D
 67
     1
  8
0
  0
ENDSEC
  0
SECTION
  2
ENTITIES
  0
ATTDEF
  5
340AC
  8
DEFPOINTS
 10
2824.526471807958842
 20
139.7295054509073964
 30
0.0
 40
0.001
  1
K-33059IN-4ND
  3

  2
MODELNUMBER
 70
     0
1001
ACDBATTR
1070
     0
1070
     1
  0
ATTDEF
  5
340AD
  8
DEFPOINTS
 10
2824.526471807958842
 20
139.7278387842407028
 30
0.0
 40
0.001
  1

  3

  2
TRADENAME
 70
     0
1001
ACDBATTR
1070
     0
1070
     1
  0
ATTDEF
  5
340AE
  8
DEFPOINTS
 10
2824.526471807958842
 20
139.7261721175740945
 30
0.0
 40
0.001
  1
BATHROOM SINK FAUCET
  3

  2
PRODUCT
 70
     0
1001
ACDBATTR
1070
     0
1070
     1
  0
LINE
  5
38F2A
  8
0
 10
2825.5926117422927746
 20
139.7252306586827046
 30
0.0
 11
2823.4670614751198627
 21
139.7252306586827046
 31
0.0
  0
LINE
  5
38F2B
  8
0
 10
2823.4670614751198627
 20
139.7252306586827046
 30
0.0
 11
2823.3753443369928391
 21
141.6394672085826869
 31
0.0
  0
ARC
  5
38F2C
  8
0
 10
2818.2094674991608372
 20
141.466921577898205
 30
0.0
 40
5.1687576358652443
 50
1.9130271123997089
 51
9.5345419773556852
  0
ARC
  5
38F2D
  8
0
 10
2822.0439729612421615
 20
142.1163962392417091
 30
0.0
 40
1.2796531123078361
 50
9.2951355461799956
 51
29.0329096546055183
  0
ARC
  5
38F2E
  8
0
 10
2822.5178015385390609
 20
142.3712843917647035
 30
0.0
 40
0.741698999276116
 50
29.5810380551028409
 51
56.1524941881159165
  0
ARC
  5
38F2F
  8
0
 10
2822.4585075216677978
 20
142.2493395541640098
 30
0.0
 40
0.8762018946433874
 50
57.3738521151388809
 51
85.5282297686365922
  0
LINE
  5
38F30
  8
0
 10
2822.5268231456930152
 20
143.1228741760826892
 30
0.0
 11
2820.7482506973929048
 21
143.3519744975826882
 31
0.0
  0
LINE
  5
38F31
  8
0
 10
2820.7482506973929048
 20
143.3519744975826882
 30
0.0
 11
2820.7437553804920753
 21
143.3527169503826997
 31
0.0
  0
LINE
  5
38F32
  8
0
 10
2820.7437553804920753
 20
143.3527169503826997
 30
0.0
 11
2819.7451179662930372
 21
143.7158697933826943
 31
0.0
  0
ARC
  5
38F33
  8
0
 10
2819.7585657493300459
 20
143.7528499782771121
 30
0.0
 40
0.0393494211322275
 50
194.4768682640595898
 51
250.0162871682935872
  0
ARC
  5
38F34
  8
0
 10
2821.7780732787850866
 20
144.0841410242412053
 30
0.0
 40
2.0856934427081999
 50
173.5869740498812916
 51
189.4133680928970875
  0
ARC
  5
38F35
  8
0
 10
2819.7453526658277951
 20
144.3138535924653922
 30
0.0
 40
0.0400536738534266
 50
91.4087724627418226
 51
175.3477554151317008
  0
LINE
  5
38F36
  8
0
 10
2819.7443679366228935
 20
144.353895159586898
 30
0.0
 11
2825.3636386864432097
 21
143.8617488302826928
 31
0.0
  0
ARC
  5
38F37
  8
0
 10
2825.3581940810418018
 20
143.8231481461288865
 30
0.0
 40
0.0389827724142372
 50
6.0138686487836752
 51
81.9714247515946539
  0
LINE
  5
38F38
  8
0
 10
2825.3969623142929777
 20
143.8272323395327135
 30
0.0
 11
2825.5926117422927746
 21
139.7252306586827046
 31
0.0
  0
LINE
  5
38F39
  8
0
 10
2823.4050800071931917
 20
144.1285565560827138
 30
0.0
 11
2824.3615334886840174
 21
144.0448777195558137
 31
0.0
  0
ARC
  5
38F3A
  8
0
 10
2824.3786953906310373
 20
144.2410391571173989
 30
0.0
 40
0.1969107423801115
 50
265.0000000174454158
 51
284.6631131535588111
  0
LINE
  5
38F3B
  8
0
 10
2824.4285404244919846
 20
144.0505416162826862
 30
0.0
 11
2825.3963901487932162
 21
144.3462763265827107
 31
0.0
  0
ARC
  5
38F3C
  8
0
 10
2825.3901218400201287
 20
144.3705998191537105
 30
0.0
 40
0.0251182002882582
 50
284.4510308985874758
 51
2.5527042118000991
  0
LINE
  5
38F3D
  8
0
 10
2825.4152151148919074
 20
144.3717185424827107
 30
0.0
 11
2825.4152151148919074
 21
144.7946029036097002
 31
0.0
  0
ARC
  5
38F3E
  8
0
 10
2825.3856876963977811
 20
144.7946029058956867
 30
0.0
 40
0.0295274184948245
 50
359.9999955641966949
 51
71.978960411689755
  0
ARC
  5
38F3F
  8
0
 10
2820.4207629947782152
 20
142.8502320611522123
 30
0.0
 40
3.0400233931520511
 50
82.1100966117678581
 51
86.3051867602324734
  0
LINE
  5
38F40
  8
0
 10
2820.838066997443093
 20
145.8614775842326878
 30
0.0
 11
2824.4959260451928458
 21
145.0602674071326987
 31
0.0
  0
ARC
  5
38F41
  8
0
 10
2821.9790427096368148
 20
133.4990180126592065
 30
0.0
 40
11.83204079125872
 50
74.9377134760867563
 51
77.7183416562459968
  0
ARC
  5
38F42
  8
0
 10
2823.3674252951100243
 20
138.6580919976292137
 30
0.0
 40
6.489414977481597
 50
71.7951085638550808
 51
74.9377134760867563
  0
ARC
  5
38F43
  8
0
 10
2820.6166682299772219
 20
145.8548431887091965
 30
0.0
 40
0.0290934433265893
 50
90.0002697350988683
 51
173.3726001687541896
  0
ARC
  5
38F44
  8
0
 10
2820.6956871922911887
 20
145.8321872388154077
 30
0.0
 40
0.1110090330210585
 50
166.4473685048959055
 51
199.1046041275349125
  0
ARC
  5
38F45
  8
0
 10
2820.6913940201989135
 20
145.8382651262757861
 30
0.0
 40
0.1091758394138771
 50
202.8587171740504118
 51
241.1628521160525054
  0
ARC
  5
38F46
  8
0
 10
2820.8534606259190696
 20
146.1508747632119025
 30
0.0
 40
0.4612724194920911
 50
242.2571088919941076
 51
259.5697569451813251
  0
LINE
  5
38F47
  8
0
 10
2820.7699526561877974
 20
145.6972243868476085
 30
0.0
 11
2822.7776150519930525
 21
145.1993086080827027
 31
0.0
  0
ARC
  5
38F48
  8
0
 10
2822.3259652647880102
 20
143.1935847249187077
 30
0.0
 40
2.0559464549876409
 50
70.7386410613685968
 51
77.3097765841842914
  0
ARC
  5
38F49
  8
0
 10
2822.7799659853058074
 20
144.4928155494353064
 30
0.0
 40
0.6796770810623757
 50
45.4864463804357015
 51
70.7386410613685968
  0
ARC
  5
38F4A
  8
0
 10
2822.8888506909211173
 20
144.656625500474604
 30
0.0
 40
0.4879501003034095
 50
8.1759730245278934
 51
41.1141826273414992
  0
ARC
  5
38F4B
  8
0
 10
2880.0701880355850335
 20
148.6613065539050069
 30
0.0
 40
56.8347518583197981
 50
183.9703866002342068
 51
184.1994783446764075
  0
LINE
  5
38F4C
  8
0
 10
2823.3880293024931234
 20
144.4993478619826988
 30
0.0
 11
2823.3880089327931273
 21
144.2819220961827114
 31
0.0
  0
LINE
  5
38F4D
  8
0
 10
2823.3880180057931284
 20
144.2819916416827084
 30
0.0
 11
2823.3854722017931635
 21
144.2647305026827098
 31
0.0
  0
LINE
  5
38F4E
  8
0
 10
2823.3854722017931635
 20
144.2647305026827098
 30
0.0
 11
2823.3854722025930641
 21
144.1499566818827134
 31
0.0
  0
ARC
  5
38F4F
  8
0
 10
2823.4064040103589832
 20
144.1494525308210086
 30
0.0
 40
0.0209378782270021
 50
178.6202747161086961
 51
266.3744922054755762
  0
LINE
  5
38F50
  8
0
 10
2823.7292715639619018
 20
144.0047772363654133
 30
0.0
 11
2823.73482651691711
 21
144.0997074747481861
 31
0.0
  0
ARC
  5
38F51
  8
0
 10
2823.2133949757339906
 20
143.9662582310081973
 30
0.0
 40
2.0761980154319342
 50
359.975998113505625
 51
9.3938670284765404
  0
LINE
  5
38F52
  8
0
 10
2825.289592808992893
 20
143.9653884868826879
 30
0.0
 11
2825.2895521091318187
 21
143.8682323705590136
 31
0.0
  0
LINE
  5
38F53
  8
0
 10
2819.9018978745098138
 20
143.6588570392191002
 30
0.0
 11
2819.8953404086191767
 21
143.6408405497543868
 31
0.0
  0
ARC
  5
38F54
  8
0
 10
2819.9323474305369928
 20
143.6273710953186935
 30
0.0
 40
0.0393820501502474
 50
160.0000000018436026
 51
204.9825857715339907
  0
LINE
  5
38F55
  8
0
 10
2819.8966501148897805
 20
143.6107383706579128
 30
0.0
 11
2819.9015234228918416
 21
143.6002873041701093
 31
0.0
  0
LINE
  5
38F56
  8
0
 10
2820.5304474915919855
 20
143.3713778872827049
 30
0.0
 11
2820.5409023975930722
 21
143.3762497163826879
 31
0.0
  0
ARC
  5
38F57
  8
0
 10
2820.5242839772267871
 20
143.4119127126041917
 30
0.0
 40
0.0393449004945107
 50
294.9848118303146975
 51
340.0151883440794904
  0
ARC
  5
38F58
  8
0
 10
2848.6836839746529222
 20
133.1711820418227887
 30
0.0
 40
29.924372707413621
 50
159.9780928441250865
 51
160.0151883440794904
  0
LINE
  5
38F59
  8
0
 10
2819.9015234228918416
 20
143.6002873041701093
 30
0.0
 11
2820.5304474915919855
 21
143.3713778872827049
 31
0.0
  0
LINE
  5
38F5A
  8
0
 10
2820.1678929846762003
 20
143.503336936136094
 30
0.0
 11
2820.1484549230499397
 21
143.4499313008890056
 31
0.0
  0
ARC
  5
38F5B
  8
0
 10
2820.3963447356218239
 20
143.9815437107662888
 30
0.0
 40
0.5865763332589066
 50
235.9581117693882959
 51
245.0005315407946966
  0
ARC
  5
38F5C
  8
0
 10
2820.4020416826501787
 20
143.989976476976409
 30
0.0
 40
0.5967531083562427
 50
225.8380798686499134
 51
235.9581117693882959
  0
ARC
  5
38F5D
  8
0
 10
2820.4347479816460691
 20
144.023653856092011
 30
0.0
 40
0.6436984793543191
 50
224.3381720731539986
 51
225.8380798686499134
  0
LINE
  5
38F5E
  8
0
 10
2820.1339719278321354
 20
143.5022279261054905
 30
0.0
 11
2820.1332923208451575
 21
143.5028149146170051
 31
0.0
  0
LINE
  5
38F5F
  8
0
 10
2820.1332923208451575
 20
143.5028149146170051
 30
0.0
 11
2820.1169620889918406
 21
143.5077922407826918
 31
0.0
  0
LINE
  5
38F60
  8
0
 10
2820.1169620889918406
 20
143.5077922407826918
 30
0.0
 11
2820.1145689025929642
 21
143.5012170151827036
 31
0.0
  0
LINE
  5
38F61
  8
0
 10
2820.1145689025929642
 20
143.5012170151827036
 30
0.0
 11
2820.128528177086082
 21
143.4897255377094893
 31
0.0
  0
LINE
  5
38F62
  8
0
 10
2820.128528177086082
 20
143.4897255377094893
 30
0.0
 11
2820.1293169398131795
 21
143.489438451554804
 31
0.0
  0
LINE
  5
38F63
  8
0
 10
2820.1293169398131795
 20
143.489438451554804
 30
0.0
 11
2820.1339719278571465
 21
143.50222792608389
 31
0.0
  0
LINE
  5
38F64
  8
0
 10
2820.13329232081378
 20
143.5028149146426131
 30
0.0
 11
2820.1285281772388771
 21
143.4897255376594103
 31
0.0
  0
LINE
  5
38F65
  8
0
 10
2820.110878122556187
 20
143.4910766802971125
 30
0.0
 11
2820.1092192797518692
 21
143.4865190473445011
 31
0.0
  0
LINE
  5
38F66
  8
0
 10
2820.1092192797518692
 20
143.4865190473445011
 30
0.0
 11
2820.1235620127240509
 21
143.4760811129324054
 31
0.0
  0
LINE
  5
38F67
  8
0
 10
2820.1235620127240509
 20
143.4760811129324054
 30
0.0
 11
2820.1243507753138147
 21
143.4757940268256959
 31
0.0
  0
LINE
  5
38F68
  8
0
 10
2820.1243507753138147
 20
143.4757940268256959
 30
0.0
 11
2820.1275647314928392
 21
143.4846242987827054
 31
0.0
  0
LINE
  5
38F69
  8
0
 10
2820.1275647314928392
 20
143.4846242987827054
 30
0.0
 11
2820.1268650857919056
 21
143.4851562315826925
 31
0.0
  0
LINE
  5
38F6A
  8
0
 10
2820.1268650857919056
 20
143.4851562315826925
 30
0.0
 11
2820.110878122556187
 21
143.4910766802971125
 31
0.0
  0
LINE
  5
38F6B
  8
0
 10
2820.1068180492889041
 20
143.4799217207113031
 30
0.0
 11
2820.1058415383390638
 21
143.4772387790989114
 31
0.0
  0
LINE
  5
38F6C
  8
0
 10
2820.1058415383390638
 20
143.4772387790989114
 30
0.0
 11
2820.1205349921888228
 21
143.467764442227292
 31
0.0
  0
LINE
  5
38F6D
  8
0
 10
2820.1205349921888228
 20
143.467764442227292
 30
0.0
 11
2820.1213009797920677
 21
143.46741478238269
 31
0.0
  0
LINE
  5
38F6E
  8
0
 10
2820.1213009797920677
 20
143.46741478238269
 30
0.0
 11
2820.1231973602930339
 21
143.4726250449826921
 31
0.0
  0
LINE
  5
38F6F
  8
0
 10
2820.1231973602930339
 20
143.4726250449826921
 30
0.0
 11
2820.1224796987330592
 21
143.4731074794553933
 31
0.0
  0
LINE
  5
38F70
  8
0
 10
2820.1224796987330592
 20
143.4731074794553933
 30
0.0
 11
2820.1068180492889041
 21
143.4799217207113031
 31
0.0
  0
LINE
  5
38F71
  8
0
 10
2820.1043352105930353
 20
143.4731001774827064
 30
0.0
 11
2820.1046577119927861
 21
143.4739862428826882
 31
0.0
  0
LINE
  5
38F72
  8
0
 10
2820.1046577119927861
 20
143.4739862428826882
 30
0.0
 11
2820.1200013200100329
 21
143.4662981899570866
 31
0.0
  0
LINE
  5
38F73
  8
0
 10
2820.1200013200100329
 20
143.4662981899570866
 30
0.0
 11
2820.1207356985928527
 21
143.4658616850827002
 31
0.0
  0
LINE
  5
38F74
  8
0
 10
2820.1207356985928527
 20
143.4658616850827002
 30
0.0
 11
2820.1201093549930192
 21
143.4641408202826938
 31
0.0
  0
LINE
  5
38F75
  8
0
 10
2820.1201093549930192
 20
143.4641408202826938
 30
0.0
 11
2820.1193590182920161
 21
143.4645334803826984
 31
0.0
  0
LINE
  5
38F76
  8
0
 10
2820.1193590182920161
 20
143.4645334803826984
 30
0.0
 11
2820.1043352105839404
 21
143.4731001774997878
 31
0.0
  0
LINE
  5
38F77
  8
0
 10
2820.1263125317900631
 20
143.5151891835760125
 30
0.0
 11
2820.123528827993141
 21
143.507541020182714
 31
0.0
  0
LINE
  5
38F78
  8
0
 10
2820.123528827993141
 20
143.507541020182714
 30
0.0
 11
2820.1073242062830104
 21
143.5128634571146904
 31
0.0
  0
LINE
  5
38F79
  8
0
 10
2820.1073242062830104
 20
143.5128634571146904
 30
0.0
 11
2820.0938978537928961
 21
143.5258191263826859
 31
0.0
  0
LINE
  5
38F7A
  8
0
 10
2820.0938978537928961
 20
143.5258191263826859
 30
0.0
 11
2820.0953280030989845
 21
143.5297484294987953
 31
0.0
  0
LINE
  5
38F7B
  8
0
 10
2820.1263125317900631
 20
143.5151891835760125
 30
0.0
 11
2820.1206802134847749
 21
143.5205209795421126
 31
0.0
  0
LINE
  5
38F7C
  8
0
 10
2820.1073242061529527
 20
143.5128634571603925
 30
0.0
 11
2820.1113476425298359
 21
143.5239177575799943
 31
0.0
  0
LINE
  5
38F7D
  8
0
 10
2820.0894730041932235
 20
143.5136619522826891
 30
0.0
 11
2820.0874342266929489
 21
143.5080604568827027
 31
0.0
  0
LINE
  5
38F7E
  8
0
 10
2820.0874342266929489
 20
143.5080604568827027
 30
0.0
 11
2820.1012816316929275
 21
143.4962616201827075
 31
0.0
  0
LINE
  5
38F7F
  8
0
 10
2820.1012816316929275
 20
143.4962616201827075
 30
0.0
 11
2820.1171462572960991
 21
143.4900050512152916
 31
0.0
  0
LINE
  5
38F80
  8
0
 10
2820.1171462572960991
 20
143.4900050512152916
 30
0.0
 11
2820.1191600594929696
 21
143.495537927482701
 31
0.0
  0
LINE
  5
38F81
  8
0
 10
2820.1191600594929696
 20
143.495537927482701
 30
0.0
 11
2820.105334153854983
 21
143.5073958332073119
 31
0.0
  0
LINE
  5
38F82
  8
0
 10
2820.105334153854983
 20
143.5073958332073119
 30
0.0
 11
2820.0894730042427909
 21
143.5136619523385093
 31
0.0
  0
LINE
  5
38F83
  8
0
 10
2820.0629552782920655
 20
143.5222004501827087
 30
0.0
 11
2820.0612579795929378
 21
143.5175371602826999
 31
0.0
  0
LINE
  5
38F84
  8
0
 10
2820.0612579795929378
 20
143.5175371602826999
 30
0.0
 11
2820.0749833135578228
 21
143.5054029351196903
 31
0.0
  0
LINE
  5
38F85
  8
0
 10
2820.0749833135578228
 20
143.5054029351196903
 30
0.0
 11
2820.0903928380930665
 21
143.4978959871826873
 31
0.0
  0
LINE
  5
38F86
  8
0
 10
2820.0903928380930665
 20
143.4978959871826873
 30
0.0
 11
2820.0920643150921023
 21
143.5024883327826899
 31
0.0
  0
LINE
  5
38F87
  8
0
 10
2820.0920643150921023
 20
143.5024883327826899
 30
0.0
 11
2820.0783518911930514
 21
143.5146580268826995
 31
0.0
  0
LINE
  5
38F88
  8
0
 10
2820.0783518911930514
 20
143.5146580268826995
 30
0.0
 11
2820.0629552782597784
 21
143.5222004502134041
 31
0.0
  0
LINE
  5
38F89
  8
0
 10
2820.0690154321509908
 20
143.5205573982080125
 30
0.0
 11
2820.0710746434770044
 21
143.5262150350386889
 31
0.0
  0
LINE
  5
38F8A
  8
0
 10
2820.0710746434770044
 20
143.5262150350386889
 30
0.0
 11
2820.0579054003969759
 21
143.5398771063013896
 31
0.0
  0
LINE
  5
38F8B
  8
0
 10
2820.0579054003969759
 20
143.5398771063013896
 30
0.0
 11
2820.0426571000521108
 21
143.5478270147434046
 31
0.0
  0
LINE
  5
38F8C
  8
0
 10
2820.0426571000521108
 20
143.5478270147434046
 30
0.0
 11
2820.0405574032279219
 21
143.5420581453815032
 31
0.0
  0
LINE
  5
38F8D
  8
0
 10
2820.0405574032279219
 20
143.5420581453815032
 30
0.0
 11
2820.053746886234876
 21
143.5284516828386074
 31
0.0
  0
LINE
  5
38F8E
  8
0
 10
2820.053746886234876
 20
143.5284516828386074
 30
0.0
 11
2820.0690154321509908
 21
143.5205573982080125
 31
0.0
  0
LINE
  5
38F8F
  8
0
 10
2820.0691680415579867
 20
143.539269876832293
 30
0.0
 11
2820.0667341329440205
 21
143.532582768024696
 31
0.0
  0
LINE
  5
38F90
  8
0
 10
2820.0667341329440205
 20
143.532582768024696
 30
0.0
 11
2820.0800488489931013
 21
143.5193203802826929
 31
0.0
  0
LINE
  5
38F91
  8
0
 10
2820.0800488489931013
 20
143.5193203802826929
 30
0.0
 11
2820.0960684884471448
 21
143.5134897084830925
 31
0.0
  0
LINE
  5
38F92
  8
0
 10
2820.0960684884471448
 20
143.5134897084830925
 30
0.0
 11
2820.09819656806485
 21
143.5193365592770931
 31
0.0
  0
LINE
  5
38F93
  8
0
 10
2820.09819656806485
 20
143.5193365592770931
 30
0.0
 11
2820.0849134674667766
 21
143.532685809501487
 31
0.0
  0
LINE
  5
38F94
  8
0
 10
2820.0849134674667766
 20
143.532685809501487
 30
0.0
 11
2820.069627185670015
 21
143.539102762042404
 31
0.0
  0
LINE
  5
38F95
  8
0
 10
2820.0168481183200129
 20
143.5583127715568992
 30
0.0
 11
2820.0153673937948042
 21
143.5542445142878023
 31
0.0
  0
LINE
  5
38F96
  8
0
 10
2820.0153673937948042
 20
143.5542445142878023
 30
0.0
 11
2820.0278675287518126
 21
143.5408173737550896
 31
0.0
  0
LINE
  5
38F97
  8
0
 10
2820.0278675287518126
 20
143.5408173737550896
 30
0.0
 11
2820.0432135799928801
 21
143.5310627431827015
 31
0.0
  0
LINE
  5
38F98
  8
0
 10
2820.0432135799928801
 20
143.5310627431827015
 30
0.0
 11
2820.0449313125918707
 21
143.5357821747826961
 31
0.0
  0
LINE
  5
38F99
  8
0
 10
2820.0449313125918707
 20
143.5357821747826961
 30
0.0
 11
2820.0318906709308067
 21
143.5497975757789959
 31
0.0
  0
LINE
  5
38F9A
  8
0
 10
2820.0318906709308067
 20
143.5497975757789959
 30
0.0
 11
2820.0198146524908225
 21
143.5572330414192948
 31
0.0
  0
LINE
  5
38F9B
  8
0
 10
2820.0128266930469181
 20
143.5472639962264054
 30
0.0
 11
2820.0117945187930673
 21
143.5444281207826975
 31
0.0
  0
LINE
  5
38F9C
  8
0
 10
2820.0117945187930673
 20
143.5444281207826975
 30
0.0
 11
2820.0252372868540078
 21
143.5315175533282002
 31
0.0
  0
LINE
  5
38F9D
  8
0
 10
2820.0252372868540078
 20
143.5315175533282002
 30
0.0
 11
2820.0397191457559529
 21
143.5214618640318918
 31
0.0
  0
LINE
  5
38F9E
  8
0
 10
2820.0397191457559529
 20
143.5214618640318918
 30
0.0
 11
2820.0407289588920321
 21
143.5242363027826968
 31
0.0
  0
LINE
  5
38F9F
  8
0
 10
2820.0407289588920321
 20
143.5242363027826968
 30
0.0
 11
2820.0272789294931499
 21
143.5371269202827023
 31
0.0
  0
LINE
  5
38FA0
  8
0
 10
2820.0272789294931499
 20
143.5371269202827023
 30
0.0
 11
2820.0128266929928031
 21
143.5472639961826928
 31
0.0
  0
LINE
  5
38FA1
  8
0
 10
2820.0374033474931821
 20
143.5333924482827115
 30
0.0
 11
2820.0360399133928695
 21
143.5296464437826955
 31
0.0
  0
LINE
  5
38FA2
  8
0
 10
2820.0360399133928695
 20
143.5296464437826955
 30
0.0
 11
2820.0496311636529754
 21
143.5171438264266897
 31
0.0
  0
LINE
  5
38FA3
  8
0
 10
2820.0496311636529754
 20
143.5171438264266897
 30
0.0
 11
2820.0645820770369028
 21
143.5083768552364916
 31
0.0
  0
LINE
  5
38FA4
  8
0
 10
2820.0645820770369028
 20
143.5083768552364916
 30
0.0
 11
2820.0659205338588436
 21
143.5120542350431094
 31
0.0
  0
LINE
  5
38FA5
  8
0
 10
2820.0659205338588436
 20
143.5120542350431094
 30
0.0
 11
2820.0523327593291469
 21
143.5245664003153934
 31
0.0
  0
LINE
  5
38FA6
  8
0
 10
2820.0523327593291469
 20
143.5245664003153934
 30
0.0
 11
2820.0374033474931821
 21
143.5333924482827115
 31
0.0
  0
LINE
  5
38FA7
  8
0
 10
2820.0341860651928982
 20
143.524553037982713
 30
0.0
 11
2820.0335145996177744
 21
143.522708201453014
 31
0.0
  0
LINE
  5
38FA8
  8
0
 10
2820.0335145996177744
 20
143.522708201453014
 30
0.0
 11
2820.0474687902919868
 21
143.5112027558826924
 31
0.0
  0
LINE
  5
38FA9
  8
0
 10
2820.0474687902919868
 20
143.5112027558826924
 30
0.0
 11
2820.0621021101919723
 21
143.5015632021826946
 31
0.0
  0
LINE
  5
38FAA
  8
0
 10
2820.0621021101919723
 20
143.5015632021826946
 30
0.0
 11
2820.062761632450929
 21
143.503375224768206
 31
0.0
  0
LINE
  5
38FAB
  8
0
 10
2820.062761632450929
 20
143.503375224768206
 30
0.0
 11
2820.048799623485138
 21
143.5148591897597043
 31
0.0
  0
LINE
  5
38FAC
  8
0
 10
2820.048799623485138
 20
143.5148591897597043
 30
0.0
 11
2820.0341860652229116
 21
143.5245530379617094
 31
0.0
  0
LINE
  5
38FAD
  8
0
 10
2820.0588022725819428
 20
143.510790160908897
 30
0.0
 11
2820.0578039995921245
 21
143.5080474282827083
 31
0.0
  0
LINE
  5
38FAE
  8
0
 10
2820.0578039995921245
 20
143.5080474282827083
 30
0.0
 11
2820.0718982302291806
 21
143.4969267376542064
 31
0.0
  0
LINE
  5
38FAF
  8
0
 10
2820.0718982302291806
 20
143.4969267376542064
 30
0.0
 11
2820.0869900341931498
 21
143.4885468603827121
 31
0.0
  0
LINE
  5
38FB0
  8
0
 10
2820.0869900341931498
 20
143.4885468603827121
 30
0.0
 11
2820.0879737010918689
 21
143.4912494630827098
 31
0.0
  0
LINE
  5
38FB1
  8
0
 10
2820.0879737010918689
 20
143.4912494630827098
 30
0.0
 11
2820.0738800278249983
 21
143.5023716828908107
 31
0.0
  0
LINE
  5
38FB2
  8
0
 10
2820.0738800278249983
 20
143.5023716828908107
 30
0.0
 11
2820.0588022725819428
 21
143.510790160908897
 31
0.0
  0
LINE
  5
38FB3
  8
0
 10
2820.0843692223397738
 20
143.4996394266111963
 30
0.0
 11
2820.0830433998849003
 21
143.4959967595009118
 31
0.0
  0
LINE
  5
38FB4
  8
0
 10
2820.0830433998849003
 20
143.4959967595009118
 30
0.0
 11
2820.0972664348178114
 21
143.4852299574066876
 31
0.0
  0
LINE
  5
38FB5
  8
0
 10
2820.0972664348178114
 20
143.4852299574066876
 30
0.0
 11
2820.112807468192841
 21
143.4780843261827101
 31
0.0
  0
LINE
  5
38FB6
  8
0
 10
2820.112807468192841
 20
143.4780843261827101
 30
0.0
 11
2820.1141178231659978
 21
143.4816844968524947
 31
0.0
  0
LINE
  5
38FB7
  8
0
 10
2820.1141178231659978
 20
143.4816844968524947
 30
0.0
 11
2820.0999025217238341
 21
143.4924725458837997
 31
0.0
  0
LINE
  5
38FB8
  8
0
 10
2820.0999025217238341
 20
143.4924725458837997
 30
0.0
 11
2820.0843692222779282
 21
143.4996394266418065
 31
0.0
  0
LINE
  5
38FB9
  8
0
 10
2820.1110246420330441
 20
143.4731860516911865
 30
0.0
 11
2820.1103785801310551
 21
143.4714110111657135
 31
0.0
  0
LINE
  5
38FBA
  8
0
 10
2820.1103785801310551
 20
143.4714110111657135
 30
0.0
 11
2820.095155223194979
 21
143.4794294512242061
 31
0.0
  0
LINE
  5
38FBB
  8
0
 10
2820.095155223194979
 20
143.4794294512242061
 30
0.0
 11
2820.0805863899481665
 21
143.489246180246198
 31
0.0
  0
LINE
  5
38FBC
  8
0
 10
2820.0805863899481665
 20
143.489246180246198
 30
0.0
 11
2820.0812398635362115
 21
143.4910415842045097
 31
0.0
  0
LINE
  5
38FBD
  8
0
 10
2820.0812398635362115
 20
143.4910415842045097
 30
0.0
 11
2820.0964547001349274
 21
143.4829997364109886
 31
0.0
  0
LINE
  5
38FBE
  8
0
 10
2820.0964547001349274
 20
143.4829997364109886
 30
0.0
 11
2820.1110246420330441
 21
143.4731860516911865
 31
0.0
  0
LINE
  5
38FBF
  8
0
 10
2820.0854728069930388
 20
143.4843783129826988
 30
0.0
 11
2820.0857976278930437
 21
143.4852707510827088
 31
0.0
  0
LINE
  5
38FC0
  8
0
 10
2820.0857976278930437
 20
143.4852707510827088
 30
0.0
 11
2820.0713545091739434
 21
143.4954328773436032
 31
0.0
  0
LINE
  5
38FC1
  8
0
 10
2820.0713545091739434
 20
143.4954328773436032
 30
0.0
 11
2820.0565940874930675
 21
143.5047232218826991
 31
0.0
  0
LINE
  5
38FC2
  8
0
 10
2820.0565940874930675
 20
143.5047232218826991
 30
0.0
 11
2820.056264535192895
 21
143.5038177845827079
 31
0.0
  0
LINE
  5
38FC3
  8
0
 10
2820.056264535192895
 20
143.5038177845827079
 30
0.0
 11
2820.0603782061039055
 21
143.5007113738593034
 31
0.0
  0
LINE
  5
38FC4
  8
0
 10
2820.0854728069930388
 20
143.4843783129826988
 30
0.0
 11
2820.0808476708270973
 21
143.4870405289312885
 31
0.0
  0
LINE
  5
38FC5
  8
0
 10
2820.0074633465378611
 20
143.5617285491418897
 30
0.0
 11
2820.0197668396931476
 21
143.548038704782698
 31
0.0
  0
LINE
  5
38FC6
  8
0
 10
2820.0197668396931476
 20
143.548038704782698
 30
0.0
 11
2820.0183840353879532
 21
143.5442394810881979
 31
0.0
  0
LINE
  5
38FC7
  8
0
 10
2820.0183840353879532
 20
143.5442394810881979
 30
0.0
 11
2820.0040695632678762
 21
143.5547550617519903
 31
0.0
  0
LINE
  5
38FC8
  8
0
 10
2820.0040695632678762
 20
143.5547550617519903
 30
0.0
 11
2819.9929432001140412
 21
143.5670134502391022
 31
0.0
  0
LINE
  5
38FC9
  8
0
 10
2819.9816229511238816
 20
143.5711336839175942
 30
0.0
 11
2819.9945479105931554
 21
143.5601456176844977
 31
0.0
  0
LINE
  5
38FCA
  8
0
 10
2819.9945479105931554
 20
143.5601456176844977
 30
0.0
 11
2819.9955972201400982
 21
143.5630285717778918
 31
0.0
  0
LINE
  5
38FCB
  8
0
 10
2819.9955972201400982
 20
143.5630285717778918
 30
0.0
 11
2819.991647607530922
 21
143.567485007375609
 31
0.0
  0
LINE
  5
38FCC
  8
0
 10
2819.9892505968928162
 20
143.563884555582689
 30
0.0
 11
2819.9885521695000534
 21
143.561965642002491
 31
0.0
  0
LINE
  5
38FCD
  8
0
 10
2819.9885521695000534
 20
143.561965642002491
 30
0.0
 11
2820.001828882837799
 21
143.5485988408588014
 31
0.0
  0
LINE
  5
38FCE
  8
0
 10
2820.001828882837799
 20
143.5485988408588014
 30
0.0
 11
2820.0158235893150049
 21
143.5372047135448952
 31
0.0
  0
LINE
  5
38FCF
  8
0
 10
2820.0158235893150049
 20
143.5372047135448952
 30
0.0
 11
2820.0158235893150049
 21
143.5390749606827114
 31
0.0
  0
LINE
  5
38FD0
  8
0
 10
2820.0158235893150049
 20
143.5390749606827114
 30
0.0
 11
2820.0032076900602078
 21
143.5523870840627012
 31
0.0
  0
LINE
  5
38FD1
  8
0
 10
2820.0032076900602078
 20
143.5523870840627012
 30
0.0
 11
2819.9892505968650767
 21
143.5638845555075136
 31
0.0
  0
LINE
  5
38FD2
  8
0
 10
2819.9904906965389273
 20
143.5578421712752117
 30
0.0
 11
2819.992930846292893
 21
143.5557027699827017
 31
0.0
  0
LINE
  5
38FD3
  8
0
 10
2819.992930846292893
 20
143.5557027699827017
 30
0.0
 11
2819.9932768989410761
 21
143.556653541952187
 31
0.0
  0
LINE
  5
38FD4
  8
0
 10
2819.9932768989410761
 20
143.556653541952187
 30
0.0
 11
2819.9783625133381975
 21
143.5723203862229127
 31
0.0
  0
LINE
  5
38FD5
  8
0
 10
2820.0102034904698485
 20
143.5400568064333129
 30
0.0
 11
2820.0105440087218085
 21
143.5409923727985131
 31
0.0
  0
LINE
  5
38FD6
  8
0
 10
2820.0105440087218085
 20
143.5409923727985131
 30
0.0
 11
2820.0246773688768371
 21
143.5299791913406864
 31
0.0
  0
LINE
  5
38FD7
  8
0
 10
2820.0246773688768371
 20
143.5299791913406864
 30
0.0
 11
2820.0384954085920981
 21
143.5180996737827002
 31
0.0
  0
LINE
  5
38FD8
  8
0
 10
2820.0384954085920981
 20
143.5180996737827002
 30
0.0
 11
2820.0381621210472076
 21
143.517183973813502
 31
0.0
  0
LINE
  5
38FD9
  8
0
 10
2820.0381621210472076
 20
143.517183973813502
 30
0.0
 11
2820.0362277205649661
 21
143.5184953877725036
 31
0.0
  0
LINE
  5
38FDA
  8
0
 10
2820.0102034904698485
 20
143.5400568064333129
 30
0.0
 11
2820.0117387129012059
 21
143.5385588608625085
 31
0.0
  0
LINE
  5
38FDB
  8
0
 10
2820.1382963667078911
 20
143.514109224124411
 30
0.0
 11
2820.1364063558930866
 21
143.5089164621826967
 31
0.0
  0
LINE
  5
38FDC
  8
0
 10
2820.1364063558930866
 20
143.5089164621826967
 30
0.0
 11
2820.1355906880048678
 21
143.5091296263796039
 31
0.0
  0
LINE
  5
38FDD
  8
0
 10
2820.1355906880048678
 20
143.5091296263796039
 30
0.0
 11
2820.1248199729661792
 21
143.5190142303133882
 31
0.0
  0
LINE
  5
38FDE
  8
0
 10
2820.1355906879930444
 20
143.5091296263827019
 30
0.0
 11
2820.1375076041099419
 21
143.5143963102318025
 31
0.0
  0
LINE
  5
38FDF
  8
0
 10
2820.1012816316929275
 20
143.4962616201827075
 30
0.0
 11
2820.1056335894418226
 21
143.5072775379321968
 31
0.0
  0
LINE
  5
38FE0
  8
0
 10
2820.0999025217238341
 20
143.4924725458837997
 30
0.0
 11
2820.0972664348178114
 21
143.4852299574066876
 31
0.0
  0
LINE
  5
38FE1
  8
0
 10
2820.1268650857919056
 20
143.4851562315826925
 30
0.0
 11
2820.1235620127240509
 21
143.4760811129324054
 31
0.0
  0
LINE
  5
38FE2
  8
0
 10
2820.1224796987330592
 20
143.4731074794553933
 30
0.0
 11
2820.1205349921888228
 21
143.467764442227292
 31
0.0
  0
LINE
  5
38FE3
  8
0
 10
2820.1200013200100329
 20
143.4662981899570866
 30
0.0
 11
2820.1193590182920161
 21
143.4645334803826984
 31
0.0
  0
LINE
  5
38FE4
  8
0
 10
2820.095155223194979
 20
143.4794294512242061
 30
0.0
 11
2820.0964547001349274
 21
143.4829997364109886
 31
0.0
  0
LINE
  5
38FE5
  8
0
 10
2820.0713545091739434
 20
143.4954328773436032
 30
0.0
 11
2820.0703346267200686
 21
143.4939073671318113
 31
0.0
  0
LINE
  5
38FE6
  8
0
 10
2820.0718982302291806
 20
143.4969267376542064
 30
0.0
 11
2820.0738800278249983
 21
143.5023716828908107
 31
0.0
  0
LINE
  5
38FE7
  8
0
 10
2820.0749833135578228
 20
143.5054029351196903
 30
0.0
 11
2820.0783518911930514
 21
143.5146580268826995
 31
0.0
  0
LINE
  5
38FE8
  8
0
 10
2820.0800488489931013
 20
143.5193203802826929
 30
0.0
 11
2820.085547693377066
 21
143.5324195709472122
 31
0.0
  0
LINE
  5
38FE9
  8
0
 10
2820.053746886234876
 20
143.5284516828386074
 30
0.0
 11
2820.0579054003969759
 21
143.5398771063013896
 31
0.0
  0
LINE
  5
38FEA
  8
0
 10
2820.0523327593291469
 20
143.5245664003153934
 30
0.0
 11
2820.0496311636529754
 21
143.5171438264266897
 31
0.0
  0
LINE
  5
38FEB
  8
0
 10
2820.048799623485138
 20
143.5148591897597043
 30
0.0
 11
2820.0474687902919868
 21
143.5112027558826924
 31
0.0
  0
LINE
  5
38FEC
  8
0
 10
2820.0318906709308067
 20
143.5497975757789959
 30
0.0
 11
2820.0278675287518126
 21
143.5408173737550896
 31
0.0
  0
LINE
  5
38FED
  8
0
 10
2820.0272789294931499
 20
143.5371269202827023
 30
0.0
 11
2820.0252372868540078
 21
143.5315175533282002
 31
0.0
  0
LINE
  5
38FEE
  8
0
 10
2820.0246773688768371
 20
143.5299791913406864
 30
0.0
 11
2820.0235528483881353
 21
143.5286084301064022
 31
0.0
  0
LINE
  5
38FEF
  8
0
 10
2820.001828882837799
 20
143.5485988408588014
 30
0.0
 11
2820.0024727569948482
 21
143.5529925018105075
 31
0.0
  0
LINE
  5
38FF0
  8
0
 10
2820.0040695632678762
 20
143.5547550617519903
 30
0.0
 11
2820.0067077961411997
 21
143.5620035469968911
 31
0.0
  0
LINE
  5
38FF1
  8
0
 10
2820.2640819930929865
 20
143.4683270001827111
 30
0.0
 11
2820.244643931444898
 21
143.4149213649436945
 31
0.0
  0
ARC
  5
38FF2
  8
0
 10
2820.3964631894791637
 20
143.9815005971811104
 30
0.0
 40
0.5865763332589066
 50
254.9994683342260089
 51
264.0418881056410214
  0
ARC
  5
38FF3
  8
0
 10
2820.4021137506470041
 20
144.049433971631089
 30
0.0
 40
0.654730835841503
 50
264.1671628223796802
 51
269.5457170379838772
  0
ARC
  5
38FF4
  8
0
 10
2820.3872627119108074
 20
144.2029243922515889
 30
0.0
 40
0.8082584040928708
 50
270.6847872760777136
 51
273.7999975926942966
  0
ARC
  5
38FF5
  8
0
 10
2820.3941124760458479
 20
144.0384439707275135
 30
0.0
 40
0.6436984793543191
 50
274.1619200063714175
 51
275.6618278018875117
  0
LINE
  5
38FF6
  8
0
 10
2820.2893541722369264
 20
143.4456734141093932
 30
0.0
 11
2820.2902520903348886
 21
143.4456862304438971
 31
0.0
  0
LINE
  5
38FF7
  8
0
 10
2820.2902520903348886
 20
143.4456862304438971
 30
0.0
 11
2820.3059611372741529
 21
143.4390022127630004
 31
0.0
  0
LINE
  5
38FF8
  8
0
 10
2820.3059611372741529
 20
143.4390022127630004
 30
0.0
 11
2820.3035679508570865
 21
143.4324269871694923
 31
0.0
  0
LINE
  5
38FF9
  8
0
 10
2820.3035679508570865
 20
143.4324269871694923
 30
0.0
 11
2820.2854879468641229
 21
143.4325968534321021
 31
0.0
  0
LINE
  5
38FFA
  8
0
 10
2820.2854879468641229
 20
143.4325968534321021
 30
0.0
 11
2820.2846991841379349
 21
143.4328839395882085
 31
0.0
  0
LINE
  5
38FFB
  8
0
 10
2820.2846991841379349
 20
143.4328839395882085
 30
0.0
 11
2820.2893541722028203
 21
143.4456734141089953
 31
0.0
  0
LINE
  5
38FFC
  8
0
 10
2820.2902520903749064
 20
143.4456862304444087
 30
0.0
 11
2820.2854879467149658
 21
143.4325968534917877
 31
0.0
  0
LINE
  5
38FFD
  8
0
 10
2820.2998771707498236
 20
143.4222866523091113
 30
0.0
 11
2820.2982183280591926
 21
143.4177290193152885
 31
0.0
  0
LINE
  5
38FFE
  8
0
 10
2820.2982183280591926
 20
143.4177290193152885
 30
0.0
 11
2820.2805217822601662
 21
143.418952428743296
 31
0.0
  0
LINE
  5
38FFF
  8
0
 10
2820.2805217822601662
 20
143.418952428743296
 30
0.0
 11
2820.2797330196690382
 21
143.4192395148475043
 31
0.0
  0
LINE
  5
39000
  8
0
 10
2820.2797330196690382
 20
143.4192395148475043
 30
0.0
 11
2820.2829469758207779
 21
143.4280697868144898
 31
0.0
  0
LINE
  5
39001
  8
0
 10
2820.2829469758207779
 20
143.4280697868144898
 30
0.0
 11
2820.2838248553348421
 21
143.4280275473909967
 31
0.0
  0
LINE
  5
39002
  8
0
 10
2820.2838248553348421
 20
143.4280275473909967
 30
0.0
 11
2820.2998771707498236
 21
143.4222866523091113
 31
0.0
  0
LINE
  5
39003
  8
0
 10
2820.295817097482086
 20
143.4111316927238136
 30
0.0
 11
2820.2948405866368375
 21
143.4084487510729957
 31
0.0
  0
LINE
  5
39004
  8
0
 10
2820.2948405866368375
 20
143.4084487510729957
 30
0.0
 11
2820.2774947616180725
 21
143.4106357580766939
 31
0.0
  0
LINE
  5
39005
  8
0
 10
2820.2774947616180725
 20
143.4106357580766939
 30
0.0
 11
2820.276683224055887
 21
143.4108602704382918
 31
0.0
  0
LINE
  5
39006
  8
0
 10
2820.276683224055887
 20
143.4108602704382918
 30
0.0
 11
2820.2785796045659481
 21
143.4160705330347128
 31
0.0
  0
LINE
  5
39007
  8
0
 10
2820.2785796045659481
 20
143.4160705330347128
 30
0.0
 11
2820.2794394681159247
 21
143.4159787953215073
 31
0.0
  0
LINE
  5
39008
  8
0
 10
2820.2794394681159247
 20
143.4159787953215073
 30
0.0
 11
2820.295817097482086
 21
143.4111316927238136
 31
0.0
  0
LINE
  5
39009
  8
0
 10
2820.2933342587871266
 20
143.4043101494947052
 30
0.0
 11
2820.2936567602441755
 21
143.4051962148739108
 31
0.0
  0
LINE
  5
3900A
  8
0
 10
2820.2936567602441755
 20
143.4051962148739108
 30
0.0
 11
2820.2769610894310972
 21
143.4091695058095013
 31
0.0
  0
LINE
  5
3900B
  8
0
 10
2820.2769610894310972
 20
143.4091695058095013
 30
0.0
 11
2820.2761179428730429
 21
143.4093071731317934
 31
0.0
  0
LINE
  5
3900C
  8
0
 10
2820.2761179428730429
 20
143.4093071731317934
 30
0.0
 11
2820.2754915993318718
 21
143.4075863083103002
 31
0.0
  0
LINE
  5
3900D
  8
0
 10
2820.2754915993318718
 20
143.4075863083103002
 30
0.0
 11
2820.2763187876389566
 21
143.4074047962623126
 31
0.0
  0
LINE
  5
3900E
  8
0
 10
2820.2763187876389566
 20
143.4074047962623126
 30
0.0
 11
2820.2933342588048617
 21
143.4043101495020949
 31
0.0
  0
LINE
  5
3900F
  8
0
 10
2820.3035529457310986
 20
143.4506789484665035
 30
0.0
 11
2820.3007692418727856
 21
143.4430307850948907
 31
0.0
  0
LINE
  5
39010
  8
0
 10
2820.3007692418727856
 20
143.4430307850948907
 30
0.0
 11
2820.3166038987869797
 21
143.4366918782411062
 31
0.0
  0
LINE
  5
39011
  8
0
 10
2820.3166038987869797
 20
143.4366918782411062
 30
0.0
 11
2820.3352168251872172
 21
143.4379862036263091
 31
0.0
  0
LINE
  5
39012
  8
0
 10
2820.3352168251872172
 20
143.4379862036263091
 30
0.0
 11
2820.3366469746238181
 21
143.4419155066943858
 31
0.0
  0
LINE
  5
39013
  8
0
 10
2820.3035529457310986
 20
143.4506789484665035
 30
0.0
 11
2820.3112947642562176
 21
143.4511429567008065
 31
0.0
  0
LINE
  5
39014
  8
0
 10
2820.3166038989152185
 20
143.4366918781925904
 30
0.0
 11
2820.3206273352038806
 21
143.4477461786445929
 31
0.0
  0
LINE
  5
39015
  8
0
 10
2820.330791975727152
 20
143.4258290294750111
 30
0.0
 11
2820.3287531980508902
 21
143.420227534139201
 31
0.0
  0
LINE
  5
39016
  8
0
 10
2820.3287531980508902
 20
143.420227534139201
 30
0.0
 11
2820.310561324360151
 21
143.4200900412498925
 31
0.0
  0
LINE
  5
39017
  8
0
 10
2820.310561324360151
 20
143.4200900412498925
 30
0.0
 11
2820.2943866710738803
 21
143.4254948161650134
 31
0.0
  0
LINE
  5
39018
  8
0
 10
2820.2943866710738803
 20
143.4254948161650134
 30
0.0
 11
2820.2964004734149057
 21
143.4310276923800131
 31
0.0
  0
LINE
  5
39019
  8
0
 10
2820.2964004734149057
 20
143.4310276923800131
 30
0.0
 11
2820.3146138464758224
 21
143.4312242542910951
 31
0.0
  0
LINE
  5
3901A
  8
0
 10
2820.3146138464758224
 20
143.4312242542910951
 30
0.0
 11
2820.3307919757239688
 21
143.4258290295506129
 31
0.0
  0
LINE
  5
3901B
  8
0
 10
2820.3565941729298174
 20
143.4153246326420117
 30
0.0
 11
2820.354896874188853
 21
143.4106613427568959
 31
0.0
  0
LINE
  5
3901C
  8
0
 10
2820.354896874188853
 20
143.4106613427568959
 30
0.0
 11
2820.3365829287859015
 21
143.410188461650705
 31
0.0
  0
LINE
  5
3901D
  8
0
 10
2820.3365829287859015
 20
143.410188461650705
 30
0.0
 11
2820.3199531750328788
 21
143.4143428573773065
 31
0.0
  0
LINE
  5
3901E
  8
0
 10
2820.3199531750328788
 20
143.4143428573773065
 30
0.0
 11
2820.3216246522270012
 21
143.4189352029069084
 31
0.0
  0
LINE
  5
3901F
  8
0
 10
2820.3216246522270012
 20
143.4189352029069084
 30
0.0
 11
2820.3399515069390873
 21
143.419443553224994
 31
0.0
  0
LINE
  5
39020
  8
0
 10
2820.3399515069390873
 20
143.419443553224994
 30
0.0
 11
2820.3565941729748374
 21
143.4153246326442002
 31
0.0
  0
LINE
  5
39021
  8
0
 10
2820.3508956922969446
 20
143.4179613736322949
 30
0.0
 11
2820.3529549037698416
 21
143.4236190104091975
 31
0.0
  0
LINE
  5
39022
  8
0
 10
2820.3529549037698416
 20
143.4236190104091975
 30
0.0
 11
2820.3718249393859878
 21
143.4256197378597903
 31
0.0
  0
LINE
  5
39023
  8
0
 10
2820.3718249393859878
 20
143.4256197378597903
 30
0.0
 11
2820.3886159177691297
 21
143.4219083024779877
 31
0.0
  0
LINE
  5
39024
  8
0
 10
2820.3886159177691297
 20
143.4219083024779877
 30
0.0
 11
2820.3865162210931885
 21
143.4161394330618009
 31
0.0
  0
LINE
  5
39025
  8
0
 10
2820.3865162210931885
 20
143.4161394330618009
 30
0.0
 11
2820.3676664253898707
 21
143.414194314336811
 31
0.0
  0
LINE
  5
39026
  8
0
 10
2820.3676664253898707
 20
143.414194314336811
 30
0.0
 11
2820.3508956922969446
 21
143.4179613736322949
 31
0.0
  0
LINE
  5
39027
  8
0
 10
2820.3628069361461712
 20
143.4323940593097007
 30
0.0
 11
2820.3603730276140595
 21
143.4257069504722892
 31
0.0
  0
LINE
  5
39028
  8
0
 10
2820.3603730276140595
 20
143.4257069504722892
 30
0.0
 11
2820.3416484648541882
 21
143.4241059065832076
 31
0.0
  0
LINE
  5
39029
  8
0
 10
2820.3416484648541882
 20
143.4241059065832076
 30
0.0
 11
2820.3256288254929132
 21
143.4299365786392002
 31
0.0
  0
LINE
  5
3902A
  8
0
 10
2820.3256288254929132
 20
143.4299365786392002
 30
0.0
 11
2820.3277569051870159
 21
143.4357834294058023
 31
0.0
  0
LINE
  5
3902B
  8
0
 10
2820.3277569051870159
 20
143.4357834294058023
 30
0.0
 11
2820.3465130832328214
 21
143.4374713358365909
 31
0.0
  0
LINE
  5
3902C
  8
0
 10
2820.3465130832328214
 20
143.4374713358365909
 30
0.0
 11
2820.3623477920341429
 21
143.4325611741004991
 31
0.0
  0
LINE
  5
3902D
  8
0
 10
2820.4151268593468558
 20
143.413351164482691
 30
0.0
 11
2820.4136461347670775
 21
143.4092829072336883
 31
0.0
  0
LINE
  5
3902E
  8
0
 10
2820.4136461347670775
 20
143.4092829072336883
 30
0.0
 11
2820.395439676271053
 21
143.4070320527517026
 31
0.0
  0
LINE
  5
3902F
  8
0
 10
2820.395439676271053
 20
143.4070320527517026
 30
0.0
 11
2820.3774137633308783
 21
143.4094238238411947
 31
0.0
  0
LINE
  5
39030
  8
0
 10
2820.3774137633308783
 20
143.4094238238411947
 30
0.0
 11
2820.3791314959858028
 21
143.414143255421294
 31
0.0
  0
LINE
  5
39031
  8
0
 10
2820.3791314959858028
 20
143.414143255421294
 30
0.0
 11
2820.3981301331750728
 21
143.4164973125492111
 31
0.0
  0
LINE
  5
39032
  8
0
 10
2820.3981301331750728
 20
143.4164973125492111
 30
0.0
 11
2820.4121603251778652
 21
143.4144308946260935
 31
0.0
  0
LINE
  5
39033
  8
0
 10
2820.4111054339218754
 20
143.4023023892079038
 30
0.0
 11
2820.410073259668934
 21
143.3994665137632865
 31
0.0
  0
LINE
  5
39034
  8
0
 10
2820.410073259668934
 20
143.3994665137632865
 30
0.0
 11
2820.3914767490991835
 21
143.3982172900977901
 31
0.0
  0
LINE
  5
39035
  8
0
 10
2820.3914767490991835
 20
143.3982172900977901
 30
0.0
 11
2820.3739193290789444
 21
143.3998229446956998
 31
0.0
  0
LINE
  5
39036
  8
0
 10
2820.3739193290789444
 20
143.3998229446956998
 30
0.0
 11
2820.3749291421959242
 21
143.4025973834540082
 31
0.0
  0
LINE
  5
39037
  8
0
 10
2820.3749291421959242
 20
143.4025973834540082
 30
0.0
 11
2820.3935183916901224
 21
143.4038266570694873
 31
0.0
  0
LINE
  5
39038
  8
0
 10
2820.3935183916901224
 20
143.4038266570694873
 30
0.0
 11
2820.411105433935063
 21
143.4023023891394075
 31
0.0
  0
LINE
  5
39039
  8
0
 10
2820.3833621652188413
 20
143.4074737360137988
 30
0.0
 11
2820.3819987310489523
 21
143.4037277315395045
 31
0.0
  0
LINE
  5
3903A
  8
0
 10
2820.3819987310489523
 20
143.4037277315395045
 30
0.0
 11
2820.3635507017847885
 21
143.4028864582971039
 31
0.0
  0
LINE
  5
3903B
  8
0
 10
2820.3635507017847885
 20
143.4028864582971039
 30
0.0
 11
2820.3464623372178721
 21
143.4057808306482968
 31
0.0
  0
LINE
  5
3903C
  8
0
 10
2820.3464623372178721
 20
143.4057808306482968
 30
0.0
 11
2820.3478007939911549
 21
143.409458210472593
 31
0.0
  0
LINE
  5
3903D
  8
0
 10
2820.3478007939911549
 20
143.409458210472593
 30
0.0
 11
2820.3662522979730056
 21
143.4103090319993044
 31
0.0
  0
LINE
  5
3903E
  8
0
 10
2820.3662522979730056
 20
143.4103090319993044
 30
0.0
 11
2820.3833621652188413
 21
143.4074737360137988
 31
0.0
  0
LINE
  5
3903F
  8
0
 10
2820.3801448830099616
 20
143.398634325680689
 30
0.0
 11
2820.3794734174148289
 21
143.3967894891584933
 31
0.0
  0
LINE
  5
39040
  8
0
 10
2820.3794734174148289
 20
143.3967894891584933
 30
0.0
 11
2820.3613883293351137
 21
143.3969453874219937
 31
0.0
  0
LINE
  5
39041
  8
0
 10
2820.3613883293351137
 20
143.3969453874219937
 30
0.0
 11
2820.3439823702638023
 21
143.398967177634205
 31
0.0
  0
LINE
  5
39042
  8
0
 10
2820.3439823702638023
 20
143.398967177634205
 30
0.0
 11
2820.3446418925727812
 21
143.4007792002012138
 31
0.0
  0
LINE
  5
39043
  8
0
 10
2820.3446418925727812
 20
143.4007792002012138
 30
0.0
 11
2820.3627191623631916
 21
143.400601821358805
 31
0.0
  0
LINE
  5
39044
  8
0
 10
2820.3627191623631916
 20
143.400601821358805
 30
0.0
 11
2820.3801448829731271
 21
143.3986343256842133
 31
0.0
  0
LINE
  5
39045
  8
0
 10
2820.3524411672838141
 20
143.4039143433450079
 30
0.0
 11
2820.3514428942048653
 21
143.4011716107509926
 31
0.0
  0
LINE
  5
39046
  8
0
 10
2820.3514428942048653
 20
143.4011716107509926
 30
0.0
 11
2820.3334978449997834
 21
143.4017122643519997
 31
0.0
  0
LINE
  5
39047
  8
0
 10
2820.3334978449997834
 20
143.4017122643519997
 30
0.0
 11
2820.3165503711638848
 21
143.4049937305663889
 31
0.0
  0
LINE
  5
39048
  8
0
 10
2820.3165503711638848
 20
143.4049937305663889
 30
0.0
 11
2820.3175340381358183
 21
143.4076963332400112
 31
0.0
  0
LINE
  5
39049
  8
0
 10
2820.3175340381358183
 20
143.4076963332400112
 30
0.0
 11
2820.3354796433090996
 21
143.4071572093288864
 31
0.0
  0
LINE
  5
3904A
  8
0
 10
2820.3354796433090996
 20
143.4071572093288864
 30
0.0
 11
2820.3524411672838141
 21
143.4039143433450079
 31
0.0
  0
LINE
  5
3904B
  8
0
 10
2820.3256881936649734
 20
143.4118065038800012
 30
0.0
 11
2820.3243623712969566
 21
143.4081638367379128
 31
0.0
  0
LINE
  5
3904C
  8
0
 10
2820.3243623712969566
 20
143.4081638367379128
 30
0.0
 11
2820.306546127441834
 21
143.4090583784891919
 31
0.0
  0
LINE
  5
3904D
  8
0
 10
2820.306546127441834
 20
143.4090583784891919
 30
0.0
 11
2820.2900478819810814
 21
143.4135740911285097
 31
0.0
  0
LINE
  5
3904E
  8
0
 10
2820.2900478819810814
 20
143.4135740911285097
 30
0.0
 11
2820.2913582369428696
 21
143.417174261802387
 31
0.0
  0
LINE
  5
3904F
  8
0
 10
2820.2913582369428696
 20
143.417174261802387
 30
0.0
 11
2820.3091822138671887
 21
143.4163009671416944
 31
0.0
  0
LINE
  5
39050
  8
0
 10
2820.3091822138671887
 20
143.4163009671416944
 30
0.0
 11
2820.3256881937331855
 21
143.411806503863005
 31
0.0
  0
LINE
  5
39051
  8
0
 10
2820.2882650558908608
 20
143.4086758166116908
 30
0.0
 11
2820.2876189939602227
 21
143.4069007760967054
 31
0.0
  0
LINE
  5
39052
  8
0
 10
2820.2876189939602227
 20
143.4069007760967054
 30
0.0
 11
2820.3044349158581099
 21
143.4032578722930111
 31
0.0
  0
LINE
  5
39053
  8
0
 10
2820.3044349158581099
 20
143.4032578722930111
 30
0.0
 11
2820.3219053613888718
 21
143.4014132574727114
 31
0.0
  0
LINE
  5
39054
  8
0
 10
2820.3219053613888718
 20
143.4014132574727114
 30
0.0
 11
2820.322558835000109
 21
143.4032086614224113
 31
0.0
  0
LINE
  5
39055
  8
0
 10
2820.322558835000109
 20
143.4032086614224113
 30
0.0
 11
2820.3057343938580743
 21
143.4068281570939121
 31
0.0
  0
LINE
  5
39056
  8
0
 10
2820.3057343938580743
 20
143.4068281570939121
 30
0.0
 11
2820.2882650558908608
 21
143.4086758166116908
 31
0.0
  0
LINE
  5
39057
  8
0
 10
2820.3150331440010632
 20
143.4008251831529037
 30
0.0
 11
2820.315357964910163
 21
143.4017176212493894
 31
0.0
  0
LINE
  5
39058
  8
0
 10
2820.315357964910163
 20
143.4017176212493894
 30
0.0
 11
2820.3329541245921064
 21
143.40021840380561
 31
0.0
  0
LINE
  5
39059
  8
0
 10
2820.3329541245921064
 20
143.40021840380561
 30
0.0
 11
2820.3502329819530132
 21
143.397847404406491
 31
0.0
  0
LINE
  5
3905A
  8
0
 10
2820.3502329819530132
 20
143.397847404406491
 30
0.0
 11
2820.3499034297810795
 21
143.3969419670598029
 31
0.0
  0
LINE
  5
3905B
  8
0
 10
2820.3499034297810795
 20
143.3969419670598029
 30
0.0
 11
2820.3451389875949644
 21
143.397186822325807
 31
0.0
  0
LINE
  5
3905C
  8
0
 10
2820.3150331440010632
 20
143.4008251831529037
 30
0.0
 11
2820.3202874432831777
 21
143.3998915786548878
 31
0.0
  0
LINE
  5
3905D
  8
0
 10
2820.4245116311221864
 20
143.4099353868793116
 30
0.0
 11
2820.4062869462209164
 21
143.4073568906761125
 31
0.0
  0
LINE
  5
3905E
  8
0
 10
2820.4062869462209164
 20
143.4073568906761125
 30
0.0
 11
2820.4049041418488741
 21
143.4035576670061118
 31
0.0
  0
LINE
  5
3905F
  8
0
 10
2820.4049041418488741
 20
143.4035576670061118
 30
0.0
 11
2820.422628948630063
 21
143.4024119037831042
 31
0.0
  0
LINE
  5
39060
  8
0
 10
2820.422628948630063
 20
143.4024119037831042
 30
0.0
 11
2820.4390317775350923
 21
143.4046504857537059
 31
0.0
  0
LINE
  5
39061
  8
0
 10
2820.4503520265179759
 20
143.4005302520529881
 30
0.0
 11
2820.4333879403097853
 21
143.4004209088141977
 31
0.0
  0
LINE
  5
39062
  8
0
 10
2820.4333879403097853
 20
143.4004209088141977
 30
0.0
 11
2820.4344372497380391
 21
143.4033038629507075
 31
0.0
  0
LINE
  5
39063
  8
0
 10
2820.4344372497380391
 20
143.4033038629507075
 30
0.0
 11
2820.4403273701182115
 21
143.4041789286146127
 31
0.0
  0
LINE
  5
39064
  8
0
 10
2820.4398492609861933
 20
143.3998800537887064
 30
0.0
 11
2820.4391508335320395
 21
143.3979611402309899
 31
0.0
  0
LINE
  5
39065
  8
0
 10
2820.4391508335320395
 20
143.3979611402309899
 30
0.0
 11
2820.4203882668962251
 21
143.3962556833648989
 31
0.0
  0
LINE
  5
39066
  8
0
 10
2820.4203882668962251
 20
143.3962556833648989
 30
0.0
 11
2820.4023436959059836
 21
143.3965228994157997
 31
0.0
  0
LINE
  5
39067
  8
0
 10
2820.4023436959059836
 20
143.3965228994157997
 30
0.0
 11
2820.4035458675971313
 21
143.3979555918402866
 31
0.0
  0
LINE
  5
39068
  8
0
 10
2820.4035458675971313
 20
143.3979555918402866
 30
0.0
 11
2820.4217670750881553
 21
143.4000439262156874
 31
0.0
  0
LINE
  5
39069
  8
0
 10
2820.4217670750881553
 20
143.4000439262156874
 30
0.0
 11
2820.4398492609589084
 21
143.3998800537135878
 31
0.0
  0
LINE
  5
3906A
  8
0
 10
2820.4342202886391533
 20
143.3960311937584038
 30
0.0
 11
2820.4317708759667767
 21
143.3959780611274937
 31
0.0
  0
LINE
  5
3906B
  8
0
 10
2820.4317708759667767
 20
143.3959780611274937
 30
0.0
 11
2820.4321169287018165
 21
143.3969288330654877
 31
0.0
  0
LINE
  5
3906C
  8
0
 10
2820.4321169287018165
 20
143.3969288330654877
 30
0.0
 11
2820.4536124643018411
 21
143.3993435497413031
 31
0.0
  0
LINE
  5
3906D
  8
0
 10
2820.4084822313639052
 20
143.3950951994079048
 30
0.0
 11
2820.4088227497190928
 21
143.3960307657353042
 31
0.0
  0
LINE
  5
3906E
  8
0
 10
2820.4088227497190928
 20
143.3960307657353042
 30
0.0
 11
2820.3909168311261055
 21
143.396678928108912
 31
0.0
  0
LINE
  5
3906F
  8
0
 10
2820.3909168311261055
 20
143.396678928108912
 30
0.0
 11
2820.3726955918918975
 21
143.3964607544554895
 31
0.0
  0
LINE
  5
39070
  8
0
 10
2820.3726955918918975
 20
143.3964607544554895
 30
0.0
 11
2820.3723623043679254
 21
143.395545054478589
 31
0.0
  0
LINE
  5
39071
  8
0
 10
2820.3723623043679254
 20
143.395545054478589
 30
0.0
 11
2820.3751516679271845
 21
143.3952585261297088
 31
0.0
  0
LINE
  5
39072
  8
0
 10
2820.4084822313639052
 20
143.3950951994079048
 30
0.0
 11
2820.4055111312750341
 21
143.3948720158691117
 31
0.0
  0
LINE
  5
39073
  8
0
 10
2820.2936786110458343
 20
143.4575547121528984
 30
0.0
 11
2820.2917886002801424
 21
143.4523619501929943
 31
0.0
  0
LINE
  5
39074
  8
0
 10
2820.2917886002801424
 20
143.4523619501929943
 30
0.0
 11
2820.2925504574382103
 21
143.4520009422276132
 31
0.0
  0
LINE
  5
39075
  8
0
 10
2820.2925504574382103
 20
143.4520009422276132
 30
0.0
 11
2820.3071550047779965
 21
143.452649705937489
 31
0.0
  0
LINE
  5
39076
  8
0
 10
2820.2925504574491242
 20
143.452000942222412
 30
0.0
 11
2820.2944673736419645
 21
143.4572676260438868
 31
0.0
  0
LINE
  5
39077
  8
0
 10
2820.310561324360151
 20
143.4200900412498925
 30
0.0
 11
2820.3143084267721861
 21
143.43132610833851
 31
0.0
  0
LINE
  5
39078
  8
0
 10
2820.3091822138671887
 20
143.4163009671416944
 30
0.0
 11
2820.306546127441834
 21
143.4090583784891919
 31
0.0
  0
LINE
  5
39079
  8
0
 10
2820.2838248553348421
 20
143.4280275473909967
 30
0.0
 11
2820.2805217822601662
 21
143.418952428743296
 31
0.0
  0
LINE
  5
3907A
  8
0
 10
2820.2794394681159247
 20
143.4159787953215073
 30
0.0
 11
2820.2774947616180725
 21
143.4106357580766939
 31
0.0
  0
LINE
  5
3907B
  8
0
 10
2820.2769610894310972
 20
143.4091695058095013
 30
0.0
 11
2820.2763187876389566
 21
143.4074047962623126
 31
0.0
  0
LINE
  5
3907C
  8
0
 10
2820.3044349158581099
 20
143.4032578722930111
 30
0.0
 11
2820.3057343938580743
 21
143.4068281570939121
 31
0.0
  0
LINE
  5
3907D
  8
0
 10
2820.3329541245921064
 20
143.40021840380561
 30
0.0
 11
2820.3327548208108055
 21
143.3983942273812886
 31
0.0
  0
LINE
  5
3907E
  8
0
 10
2820.3334978449997834
 20
143.4017122643519997
 30
0.0
 11
2820.3354796433090996
 21
143.4071572093288864
 31
0.0
  0
LINE
  5
3907F
  8
0
 10
2820.3365829287859015
 20
143.410188461650705
 30
0.0
 11
2820.3399515069390873
 21
143.419443553224994
 31
0.0
  0
LINE
  5
39080
  8
0
 10
2820.3416484648541882
 20
143.4241059065832076
 30
0.0
 11
2820.3458561031561658
 21
143.4376750578298072
 31
0.0
  0
LINE
  5
39081
  8
0
 10
2820.3676664253898707
 20
143.414194314336811
 30
0.0
 11
2820.3718249393859878
 21
143.4256197378597903
 31
0.0
  0
LINE
  5
39082
  8
0
 10
2820.3662522979730056
 20
143.4103090319993044
 30
0.0
 11
2820.3635507017847885
 21
143.4028864582971039
 31
0.0
  0
LINE
  5
39083
  8
0
 10
2820.3627191623631916
 20
143.400601821358805
 30
0.0
 11
2820.3613883293351137
 21
143.3969453874219937
 31
0.0
  0
LINE
  5
39084
  8
0
 10
2820.3981301331750728
 20
143.4164973125492111
 30
0.0
 11
2820.395439676271053
 21
143.4070320527517026
 31
0.0
  0
LINE
  5
39085
  8
0
 10
2820.3935183916901224
 20
143.4038266570694873
 30
0.0
 11
2820.3914767490991835
 21
143.3982172900977901
 31
0.0
  0
LINE
  5
39086
  8
0
 10
2820.3909168311261055
 20
143.396678928108912
 30
0.0
 11
2820.390895970251222
 21
143.3947992423319135
 31
0.0
  0
LINE
  5
39087
  8
0
 10
2820.4203882668962251
 20
143.3962556833648989
 30
0.0
 11
2820.4227192215062132
 21
143.4000352972470012
 31
0.0
  0
LINE
  5
39088
  8
0
 10
2820.422628948630063
 20
143.4024119037831042
 30
0.0
 11
2820.4252671815179383
 21
143.4096603890228039
 31
0.0
  0
ENDSEC
  0
EOF
